  0
SECTION
  2
HEADER
  9
$ACADVER
  1
AC1009
  9
$INSBASE
 10
0
 20
0
  9
$EXTMIN
 10
-191.526836024834
 20
-105.0000000000001
  9
$EXTMAX
 10
340.4583108454233
 20
187.4332639033574
  9
$LIMMIN
 10
-191.526836024834
 20
-105.0000000000001
  9
$LIMMAX
 10
340.4583108454233
 20
187.4332639033574
  9
$VIEWCTR
 10
10
 20
10
  9
$VIEWSIZE
 40
10
  9
$SNAPMODE
 70
0
  9
$SNAPUNIT
 10
1
 20
1
  9
$SNAPBASE
 10
0
 20
0
  9
$SNAPANG
 50
0
  9
$SNAPSTYLE
 70
0
  9
$SNAPISOPAIR
 70
0
  9
$GRIDMODE
 70
0
  9
$GRIDUNIT
 10
0
 20
0
  9
$ORTHOMODE
 70
0
  9
$REGENMODE
 70
1
  9
$FILLMODE
 70
1
  9
$QTEXTMODE
 70
0
  9
$DRAGMODE
 70
2
  9
$LTSCALE
 40
1
  9
$OSMODE
 70
0
  9
$ATTMODE
 70
1
  9
$TEXTSIZE
 40
3.5
  9
$TRACEWID
 40
0.5
  9
$TEXTSTYLE
  7
STANDARD
  9
$CLAYER
  8
0
  9
$CELTYPE
  6
BYLAYER
  9
$CECOLOR
 62
256
  9
$DIMSCALE
 40
1
  9
$DIMASZ
 40
0.18
  9
$DIMEXO
 40
0.0625
  9
$DIMDLI
 40
0.38
  9
$DIMRND
 40
0
  9
$DIMDLE
 40
0
  9
$DIMEXE
 40
0.18
  9
$DIMTP
 40
0
  9
$DIMTM
 40
0
  9
$DIMTXT
 40
0.18
  9
$DIMCEN
 40
0.09
  9
$DIMTSZ
 40
0
  9
$DIMTOL
 70
0
  9
$DIMLIM
 70
0
  9
$DIMTIH
 70
1
  9
$DIMTOH
 70
1
  9
$DIMSE1
 70
0
  9
$DIMSE2
 70
0
  9
$DIMTAD
 70
0
  9
$DIMZIN
 70
0
  9
$DIMBLK
  1

  9
$DIMASO
 70
1
  9
$DIMSHO
 70
1
  9
$DIMPOST
  1

  9
$DIMAPOST
  1

  9
$DIMALT
 70
0
  9
$DIMALTD
 70
2
  9
$DIMALTF
 40
25.4
  9
$DIMLFAC
 40
1
  9
$DIMTOFL
 70
0
  9
$DIMTVP
 40
0
  9
$DIMTIX
 70
0
  9
$DIMSOXD
 70
0
  9
$DIMSAH
 70
0
  9
$DIMBLK1
  1

  9
$DIMBLK2
  1

  9
$DIMSTYLE
  2
*UNNAMED
  9
$DIMCLRD
 70
0
  9
$DIMCLRE
 70
0
  9
$DIMCLRT
 70
0
  9
$DIMTFAC
 40
1
  9
$DIMGAP
 40
0.09
  9
$LUNITS
 70
2
  9
$LUPREC
 70
4
  9
$AXISMODE
 70
0
  9
$AXISUNIT
 10
0
 20
0
  9
$SKETCHINC
 40
0.1
  9
$FILLETRAD
 40
2
  9
$AUNITS
 70
0
  9
$AUPREC
 70
0
  9
$MENU
  1
ACAD
  9
$ELEVATION
 40
0
  9
$THICKNESS
 40
0
  9
$VIEWDIR
 10
0
 20
0
 30
1
  9
$LIMCHECK
 70
0
  9
$BLIPMODE
 70
1
  9
$CHAMFERA
 40
0
  9
$CHAMFERB
 40
0
  9
$FASTZOOM
 70
1
  9
$SKPOLY
 70
0
  9
$ANGBASE
 50
0
  9
$ANGDIR
 70
0
  9
$PDMODE
 70
0
  9
$PDSIZE
 40
0
  9
$PLINEWID
 40
0
  9
$COORDS
 70
2
  0
ENDSEC
  0
SECTION
  2
TABLES
  0
TABLE
  2
DIMSTYLE
 70
0
  0
ENDTAB
  0
TABLE
  2
LTYPE
 70
9
  0
LTYPE
  2
CONTINUOUS
 70
64
  3
Solid line
 72
65
 73
0
 40
0
  0
LTYPE
  2
BORDER
 70
64
  3
__ __ . __ __ .
 72
65
 73
6
 40
24.49931597428816
 49
6.999804564082332
 49
-3.499902282041166
 49
6.999804564082332
 49
-3.499902282041166
 49
0
 49
-3.499902282041166
  0
LTYPE
  2
CENTER
 70
64
  3
____ _ ____ _
 72
65
 73
4
 40
27.99921825632933
 49
17.49951141020583
 49
-3.499902282041166
 49
3.499902282041166
 49
-3.499902282041166
  0
LTYPE
  2
DASHDOT
 70
64
  3
__ . __ . __ .
 72
65
 73
4
 40
13.99960912816466
 49
6.999804564082332
 49
-3.499902282041166
 49
0
 49
-3.499902282041166
  0
LTYPE
  2
DASHED
 70
64
  3
__ __ __ __ __
 72
65
 73
2
 40
10.4997068461235
 49
6.999804564082332
 49
-3.499902282041166
  0
LTYPE
  2
DIVIDE
 70
64
  3
__ . . __ . . 
 72
65
 73
6
 40
17.49951141020583
 49
6.999804564082332
 49
-3.499902282041166
 49
0
 49
-3.499902282041166
 49
0
 49
-3.499902282041166
  0
LTYPE
  2
DOT
 70
64
  3
..............
 72
65
 73
4
 40
6.999804564082332
 49
0
 49
-3.499902282041166
 49
0
 49
-3.499902282041166
  0
LTYPE
  2
HIDDEN
 70
64
  3
_ _ _ _ _ _ _
 72
65
 73
2
 40
5.249853423061749
 49
3.499902282041166
 49
-1.749951141020583
  0
LTYPE
  2
PHANTOM
 70
64
  3
_____ _ _ _____ _ _ 
 72
65
 73
6
 40
34.99902282041166
 49
17.49951141020583
 49
-3.499902282041166
 49
3.499902282041166
 49
-3.499902282041166
 49
3.499902282041166
 49
-3.499902282041166
  0
ENDTAB
  0
TABLE
  2
LAYER
 70
3
  0
LAYER
  2
1
 70
0
 62
7
  6
CONTINUOUS
  0
LAYER
  2
0
 70
0
 62
7
  6
CONTINUOUS
  0
ENDTAB
  0
TABLE
  2
STYLE
 70
4
  0
STYLE
  2
STANDARD
 70
0
 40
0
 41
1
 50
0
 71
0
 42
3.5
  3
txt
  4

  0
STYLE
  2
SIMPLEX
 70
0
 40
0
 41
1
 50
0
 71
0
 42
3.5
  3
simplex
  4

  0
STYLE
  2
COMPLEX
 70
0
 40
0
 41
1
 50
0
 71
0
 42
3.5
  3
complex
  4

  0
STYLE
  2
ITALIC
 70
0
 40
0
 41
1
 50
0
 71
0
 42
3.5
  3
italic
  4

  0
ENDTAB
  0
TABLE
  2
VIEW
 70
0
  0
ENDTAB
  0
ENDSEC
  0
SECTION
  2
BLOCKS
  0
ENDSEC
  0
SECTION
  2
ENTITIES
  0
LINE
  8
1
 62
7
 10
-172.7877702223342
 20
144.377494134694
 30
0
 11
-172.7877702223342
 21
140.4999999999999
 31
0
  0
LINE
  8
1
 62
7
 10
-150.112068413332
 20
84.00000000000001
 30
0
 11
-150.112068413332
 21
63.89003380467386
 31
0
  0
LINE
  8
1
 62
7
 10
-150.312068413332
 20
60.00000000000001
 30
0
 11
-151.312068413332
 21
60
 31
0
  0
LINE
  8
1
 62
7
 10
-151.312068413332
 20
-84.99999999999994
 30
0
 11
-151.312068413332
 21
85.00000000000001
 31
0
  0
LINE
  8
1
 62
7
 10
-145.112068413332
 20
-51.99999999999998
 30
0
 11
-145.112068413332
 21
-67.99999999999994
 31
0
  0
LINE
  8
1
 62
7
 10
-185.112068413332
 20
78
 30
0
 11
-185.112068413332
 21
-105.0000000000001
 31
0
  0
LINE
  8
1
 62
7
 10
-182.4120684133321
 20
-105.0000000000001
 30
0
 11
-182.4120684133321
 21
81.43051721424843
 31
0
  0
LINE
  8
1
 62
7
 10
34.80000000000001
 20
-55.99999999999996
 30
0
 11
53.19999999999999
 21
-55.99999999999964
 31
0
  0
LINE
  8
1
 62
3
 10
35.88564064605509
 20
-55.99999999999994
 30
0
 11
35.88564064605524
 21
-63.99999999999994
 31
0
  0
LINE
  8
1
 62
3
 10
35.88564064605522
 20
-63.19999999999995
 30
0
 11
34.80000000000001
 21
-63.82679491924315
 31
0
  0
LINE
  8
1
 62
3
 10
54.00000000000012
 20
-63.19999999999963
 30
0
 11
35.88564064605522
 21
-63.19999999999995
 31
0
  0
LINE
  8
1
 62
3
 10
35.88564064605511
 20
-56.79999999999995
 30
0
 11
34.80000000000001
 21
-56.17320508075687
 31
0
  0
LINE
  8
1
 62
3
 10
54.00000000000001
 20
-56.79999999999962
 30
0
 11
35.88564064605511
 21
-56.79999999999995
 31
0
  0
LINE
  8
1
 62
7
 10
53.19999999999999
 20
-55.99999999999964
 30
0
 11
53.20000000000013
 21
-63.99999999999964
 31
0
  0
LINE
  8
1
 62
7
 10
53.20000000000013
 20
-63.99999999999964
 30
0
 11
34.80000000000001
 21
-63.99999999999996
 31
0
  0
LINE
  8
1
 62
7
 10
54.00000000000012
 20
-63.19999999999963
 30
0
 11
53.20000000000013
 21
-63.99999999999964
 31
0
  0
LINE
  8
1
 62
7
 10
54.00000000000001
 20
-56.79999999999962
 30
0
 11
54.00000000000012
 21
-63.19999999999963
 31
0
  0
LINE
  8
1
 62
7
 10
53.19999999999999
 20
-55.99999999999964
 30
0
 11
54.00000000000001
 21
-56.79999999999962
 31
0
  0
LINE
  8
1
 62
7
 10
28.79999999999999
 20
-56.00000000000007
 30
0
 11
28.80000000000014
 21
-64.00000000000007
 31
0
  0
LINE
  8
1
 62
7
 10
34.00000000000019
 20
-66.99999999999997
 30
0
 11
33.99999999999994
 21
-52.99999999999998
 31
0
  0
LINE
  8
1
 62
7
 10
33.20000000000019
 20
-67
 30
0
 11
34.00000000000019
 21
-66.99999999999997
 31
0
  0
LINE
  8
1
 62
7
 10
33.19999999999994
 20
-52.99999999999999
 30
0
 11
33.20000000000019
 21
-67
 31
0
  0
LINE
  8
1
 62
7
 10
33.99999999999994
 20
-52.99999999999998
 30
0
 11
33.19999999999994
 21
-52.99999999999999
 31
0
  0
LINE
  8
1
 62
7
 10
33.99999999999996
 20
-53.49999999999997
 30
0
 11
34.79999999999996
 21
-53.49999999999996
 31
0
  0
LINE
  8
1
 62
7
 10
34.80000000000007
 20
-66.49999999999997
 30
0
 11
34.00000000000006
 21
-66.49999999999997
 31
0
  0
LINE
  8
1
 62
7
 10
12.32429819099779
 20
144.377494134694
 30
0
 11
12.32429819099779
 21
140.4999999999999
 31
0
  0
LINE
  8
1
 62
7
 10
11.12429819099779
 20
140.4999999999999
 30
0
 11
11.12429819099779
 21
84.5
 31
0
  0
LINE
  8
1
 62
7
 10
13.5242981909978
 20
140.4999999999999
 30
0
 11
13.5242981909978
 21
84.5
 31
0
  0
LINE
  8
1
 62
7
 10
33.80000000000001
 20
85.00000000000001
 30
0
 11
33.80000000000001
 21
60.00000000000001
 31
0
  0
LINE
  8
1
 62
7
 10
35
 20
84.00000000000001
 30
0
 11
35
 21
63.89003380467386
 31
0
  0
LINE
  8
1
 62
7
 10
33.80000000000001
 20
-84.99999999999994
 30
0
 11
33.80000000000001
 21
-67.49999999999994
 31
0
  0
LINE
  8
1
 62
7
 10
257.9583108454233
 20
137.4465220827082
 30
0
 11
252.9583108454233
 21
137.4465220827082
 31
0
  0
LINE
  8
1
 62
3
  6
DASHDOT
 10
194.4195722825809
 20
35.24073214025231
 30
0
 11
212.5900533580936
 21
24.75000000000009
 31
0
  0
LINE
  8
1
 62
3
  6
DASHDOT
 10
298.326568332753
 20
24.75000000000008
 30
0
 11
317.278895344368
 21
35.69213110192581
 31
0
  0
LINE
  8
1
 62
7
 10
0
 20
-40.00000000000001
 30
0
 11
2.699999999999903
 21
-40.00000000000001
 31
0
  0
LINE
  8
1
 62
7
 10
0
 20
39.99999999999999
 30
0
 11
2.699999999999903
 21
39.99999999999999
 31
0
  0
LINE
  8
1
 62
7
 10
2.699999999999903
 20
-105.0000000000001
 30
0
 11
2.699999999999903
 21
81.43051721424843
 31
0
  0
LINE
  8
1
 62
7
 10
11.12429819099779
 20
140.4999999999999
 30
0
 11
13.5242981909978
 21
140.4999999999999
 31
0
  0
LINE
  8
1
 62
7
 10
12.89557497239289
 20
144.377494134694
 30
0
 11
12.89557497239289
 21
140.4999999999999
 31
0
  0
LINE
  8
1
 62
7
 10
11.75903693808061
 20
144.3346622894046
 30
0
 11
11.75903693808061
 21
140.4999999999999
 31
0
  0
LINE
  8
1
 62
7
 10
0
 20
78
 30
0
 11
0
 21
-105.0000000000001
 31
0
  0
LINE
  8
1
 62
7
 10
0
 20
-90.75000000000006
 30
0
 11
2.699999999999903
 21
-90.75000000000006
 31
0
  0
LINE
  8
1
 62
3
  6
DASHDOT
 10
-1.310359408391804
 20
-95.00000000000006
 30
0
 11
4.803186666301315
 21
-95.00000000000006
 31
0
  0
LINE
  8
1
 62
7
 10
0
 20
-99.25000000000006
 30
0
 11
2.699999999999903
 21
-99.25000000000006
 31
0
  0
LINE
  8
1
 62
7
 10
0
 20
-105.0000000000001
 30
0
 11
2.699999999999903
 21
-105.0000000000001
 31
0
  0
LINE
  8
1
 62
7
 10
0
 20
78
 30
0
 11
2.699999999999903
 21
78
 31
0
  0
LINE
  8
1
 62
7
 10
27.09999999999999
 20
41.99999999999999
 30
0
 11
9
 21
41.99999999999999
 31
0
  0
LINE
  8
1
 62
7
 10
27.09999999999999
 20
84.5
 30
0
 11
13.5242981909978
 21
84.5
 31
0
  0
LINE
  8
1
 62
7
 10
9
 20
-84.50000000000006
 30
0
 11
27.09999999999999
 21
-84.50000000000006
 31
0
  0
LINE
  8
1
 62
7
 10
9
 20
-42.00000000000001
 30
0
 11
27.09999999999999
 21
-42.00000000000001
 31
0
  0
LINE
  8
1
 62
7
 10
27.09999999999999
 20
84.5
 30
0
 11
27.09999999999999
 21
-84.50000000000006
 31
0
  0
LINE
  8
1
 62
7
 10
11.12429819099779
 20
84.5
 30
0
 11
9
 21
84.5
 31
0
  0
LINE
  8
1
 62
3
  6
DASHDOT
 10
328.5646560548789
 20
73.10634520945571
 30
0
 11
316.9952048256465
 21
61.53689398022327
 31
0
  0
LINE
  8
1
 62
3
  6
DASHDOT
 10
328.5646560548789
 20
-73.10634520945555
 30
0
 11
316.9952048256465
 21
-61.53689398022311
 31
0
  0
LINE
  8
1
 62
3
  6
DASHDOT
 10
182.3519656359676
 20
-73.10634520945555
 30
0
 11
193.9214168652001
 21
-61.53689398022309
 31
0
  0
LINE
  8
1
 62
3
  6
DASHDOT
 10
182.3519656359676
 20
73.10634520945571
 30
0
 11
193.9214168652001
 21
61.53689398022328
 31
0
  0
LINE
  8
1
 62
7
 10
185.1660637622634
 20
78.00000000000009
 30
0
 11
221.6796193373143
 21
78.00000000000009
 31
0
  0
LINE
  8
1
 62
7
 10
289.2370023535323
 20
78.00000000000009
 30
0
 11
325.7505579285832
 21
78.00000000000009
 31
0
  0
LINE
  8
1
 62
7
 10
333.4583108454233
 20
70.29224708315998
 30
0
 11
333.4583108454233
 21
35.03123138553912
 31
0
  0
LINE
  8
1
 62
7
 10
333.4583108454233
 20
-33.77869150810898
 30
0
 11
333.4583108454233
 21
-70.29224708315977
 31
0
  0
LINE
  8
1
 62
7
 10
289.2370023535323
 20
-77.99999999999994
 30
0
 11
325.7505579285832
 21
-77.99999999999994
 31
0
  0
LINE
  8
1
 62
7
 10
185.1660637622634
 20
-77.99999999999994
 30
0
 11
221.6796193373143
 21
-77.99999999999994
 31
0
  0
LINE
  8
1
 62
7
 10
177.4583108454233
 20
-33.77869150810898
 30
0
 11
177.4583108454233
 21
-70.29224708315977
 31
0
  0
LINE
  8
1
 62
7
 10
177.4583108454233
 20
70.29224708315999
 30
0
 11
177.4583108454233
 21
33.77869150810916
 31
0
  0
LINE
  8
1
 62
7
 10
257.9583108454233
 20
137.4465220827082
 30
0
 11
257.9583108454233
 21
84.96322733983223
 31
0
  0
LINE
  8
1
 62
7
 10
252.9583108454233
 20
137.4465220827082
 30
0
 11
252.9583108454233
 21
84.96322733983223
 31
0
  0
LINE
  8
1
 62
3
  6
DASHDOT
 10
-6.414767611501986
 20
1.4210854715202e-014
 30
0
 11
0
 21
0
 31
0
  0
LINE
  8
1
 62
7
 10
27.40000000000001
 20
41.50000000000002
 30
0
 11
34.80000000000001
 21
41.50000000000002
 31
0
  0
LINE
  8
1
 62
7
 10
27.40000000000001
 20
85.00000000000001
 30
0
 11
33.80000000000001
 21
85.00000000000001
 31
0
  0
LINE
  8
1
 62
7
 10
33.80000000000001
 20
60.00000000000001
 30
0
 11
34.80000000000001
 21
60.00000000000001
 31
0
  0
LINE
  8
1
 62
7
 10
33.80000000000001
 20
84.00000000000001
 30
0
 11
35
 21
84.00000000000001
 31
0
  0
LINE
  8
1
 62
7
 10
35
 20
63.89003380467386
 30
0
 11
36
 21
60.15798299710499
 31
0
  0
LINE
  8
1
 62
7
 10
36
 20
60.15798299710499
 30
0
 11
36
 21
-55.99999999999996
 31
0
  0
LINE
  8
1
 62
7
 10
33.80000000000001
 20
63.7320508075689
 30
0
 11
34.80000000000001
 21
60.00000000000001
 31
0
  0
LINE
  8
1
 62
7
 10
35
 20
82.50000000000001
 30
0
 11
38.30000000000001
 21
82.50000000000001
 31
0
  0
LINE
  8
1
 62
7
 10
38.80000000000001
 20
69.00000000000001
 30
0
 11
38.80000000000001
 21
82.00000000000001
 31
0
  0
LINE
  8
1
 62
7
 10
35
 20
68.50000000000001
 30
0
 11
38.30000000000001
 21
68.50000000000001
 31
0
  0
LINE
  8
1
 62
7
 10
36
 20
82.50000000000001
 30
0
 11
36
 21
68.50000000000001
 31
0
  0
LINE
  8
1
 62
7
 10
38.30000000000001
 20
68.50000000000001
 30
0
 11
38.80000000000001
 21
69.00000000000001
 31
0
  0
LINE
  8
1
 62
7
 10
38.80000000000001
 20
82.00000000000001
 30
0
 11
38.30000000000001
 21
82.50000000000001
 31
0
  0
LINE
  8
1
 62
7
 10
33.80000000000001
 20
67.00000000000001
 30
0
 11
35
 21
67.00000000000001
 31
0
  0
LINE
  8
1
 62
7
 10
33.80000000000001
 20
-84.99999999999994
 30
0
 11
27.40000000000001
 21
-84.99999999999994
 31
0
  0
LINE
  8
1
 62
7
 10
34.80000000000001
 20
-41.49999999999998
 30
0
 11
27.40000000000001
 21
-41.49999999999998
 31
0
  0
LINE
  8
1
 62
7
 10
34.80000000000001
 20
-83.99999999999994
 30
0
 11
36
 21
-83.99999999999994
 31
0
  0
LINE
  8
1
 62
7
 10
36
 20
-51.99999999999998
 30
0
 11
40
 21
-51.99999999999998
 31
0
  0
LINE
  8
1
 62
7
 10
40
 20
-51.99999999999998
 30
0
 11
40
 21
-55.99999999999996
 31
0
  0
LINE
  8
1
 62
7
 10
40
 20
-63.99999999999995
 30
0
 11
40
 21
-67.99999999999994
 31
0
  0
LINE
  8
1
 62
7
 10
36
 20
-67.99999999999994
 30
0
 11
40
 21
-67.99999999999994
 31
0
  0
LINE
  8
1
 62
7
 10
27.40000000000001
 20
-84.99999999999994
 30
0
 11
27.40000000000001
 21
85.00000000000001
 31
0
  0
LINE
  8
1
 62
7
 10
27.40000000000001
 20
-67.49999999999994
 30
0
 11
33.80000000000001
 21
-67.49999999999994
 31
0
  0
LINE
  8
1
 62
7
 10
27.40000000000001
 20
-52.49999999999998
 30
0
 11
34.80000000000001
 21
-52.49999999999998
 31
0
  0
LINE
  8
1
 62
7
 10
34.80000000000001
 20
60.00000000000001
 30
0
 11
34.80000000000001
 21
-83.99999999999994
 31
0
  0
LINE
  8
1
 62
3
  6
DASHDOT
 10
27.40000000000001
 20
-59.99999999999998
 30
0
 11
55.718032386757
 21
-59.99999999999998
 31
0
  0
LINE
  8
1
 62
7
 10
34.80000000000001
 20
-73.32981656940055
 30
0
 11
36
 21
-73.32981656940055
 31
0
  0
LINE
  8
1
 62
7
 10
36
 20
-63.99999999999995
 30
0
 11
36
 21
-83.99999999999994
 31
0
  0
LINE
  8
1
 62
7
 10
34.80000000000001
 20
-49.49999999999998
 30
0
 11
36
 21
-49.49999999999998
 31
0
  0
LINE
  8
1
 62
7
 10
257.2041732266108
 20
141.5152311709815
 30
0
 11
257.2041732266108
 21
137.4465220827082
 31
0
  0
LINE
  8
1
 62
7
 10
256.3913642555339
 20
141.4644306102892
 30
0
 11
256.3913642555339
 21
137.4465220827082
 31
0
  0
LINE
  8
1
 62
7
 10
254.6641451919954
 20
141.3120289282122
 30
0
 11
254.6641451919954
 21
137.4465220827082
 31
0
  0
LINE
  8
1
 62
7
 10
253.7497350995338
 20
141.3120289282122
 30
0
 11
253.7497350995338
 21
137.4465220827082
 31
0
  0
LINE
  8
1
 62
7
 10
255.4583108454233
 20
137.4465220827082
 30
0
 11
255.4583108454233
 21
84.99227638256357
 31
0
  0
LINE
  8
1
 62
3
  6
DASHDOT
 10
266.8966415230319
 20
8.526512829121202e-014
 30
0
 11
244.0199801678147
 21
8.526512829121202e-014
 31
0
  0
LINE
  8
1
 62
3
  6
DASHDOT
 10
255.4583108454233
 20
11.4383306776087
 30
0
 11
255.4583108454233
 21
-11.43833067760851
 31
0
  0
LINE
  8
1
 62
3
  6
DASHDOT
 10
255.4583108454233
 20
-50.40907937918275
 30
0
 11
255.4583108454233
 21
-70.80176461972565
 31
0
  0
LINE
  8
1
 62
7
 10
11.12429819099779
 20
84.5
 30
0
 11
13.992396975291
 21
84.5
 31
0
  0
LINE
  8
1
 62
3
  6
DASHDOT
 10
36
 20
1.4210854715202e-014
 30
0
 11
42.29259866271011
 21
1.4210854715202e-014
 31
0
  0
LINE
  8
1
 62
7
 10
-173.9877702223342
 20
140.4999999999999
 30
0
 11
-173.9877702223342
 21
84.5
 31
0
  0
LINE
  8
1
 62
7
 10
-171.5877702223342
 20
140.4999999999999
 30
0
 11
-171.5877702223342
 21
84.5
 31
0
  0
LINE
  8
1
 62
7
 10
-173.9877702223342
 20
140.4999999999999
 30
0
 11
-171.5877702223342
 21
140.4999999999999
 31
0
  0
LINE
  8
1
 62
7
 10
-172.2164934409391
 20
144.377494134694
 30
0
 11
-172.2164934409391
 21
140.4999999999999
 31
0
  0
LINE
  8
1
 62
7
 10
-173.3530314752514
 20
144.3346622894046
 30
0
 11
-173.3530314752514
 21
140.4999999999999
 31
0
  0
LINE
  8
1
 62
3
  6
DASHDOT
 10
-186.4224278217238
 20
-95.00000000000006
 30
0
 11
-180.3088817470307
 21
-95.00000000000006
 31
0
  0
LINE
  8
1
 62
7
 10
-185.112068413332
 20
-105.0000000000001
 30
0
 11
-182.4120684133321
 21
-105.0000000000001
 31
0
  0
LINE
  8
1
 62
7
 10
-185.112068413332
 20
78
 30
0
 11
-182.4120684133321
 21
78
 31
0
  0
LINE
  8
1
 62
7
 10
-158.012068413332
 20
84.5
 30
0
 11
-176.112068413332
 21
84.5
 31
0
  0
LINE
  8
1
 62
7
 10
-176.112068413332
 20
-84.50000000000006
 30
0
 11
-158.012068413332
 21
-84.50000000000006
 31
0
  0
LINE
  8
1
 62
7
 10
-158.012068413332
 20
84.5
 30
0
 11
-158.012068413332
 21
-84.50000000000006
 31
0
  0
LINE
  8
1
 62
3
  6
DASHDOT
 10
-191.526836024834
 20
1.4210854715202e-014
 30
0
 11
-185.112068413332
 21
0
 31
0
  0
LINE
  8
1
 62
7
 10
-157.712068413332
 20
85.00000000000001
 30
0
 11
-157.712068413332
 21
-84.99999999999994
 31
0
  0
LINE
  8
1
 62
7
 10
-157.712068413332
 20
85.00000000000001
 30
0
 11
-151.312068413332
 21
85.00000000000001
 31
0
  0
LINE
  8
1
 62
7
 10
-150.312068413332
 20
60.00000000000001
 30
0
 11
-150.312068413332
 21
-83.99999999999994
 31
0
  0
LINE
  8
1
 62
7
 10
-151.312068413332
 20
84.00000000000001
 30
0
 11
-150.112068413332
 21
84.00000000000001
 31
0
  0
LINE
  8
1
 62
7
 10
-150.112068413332
 20
63.89003380467386
 30
0
 11
-149.112068413332
 21
60.15798299710499
 31
0
  0
LINE
  8
1
 62
7
 10
-151.312068413332
 20
63.7320508075689
 30
0
 11
-150.312068413332
 21
60.00000000000001
 31
0
  0
LINE
  8
1
 62
7
 10
-150.112068413332
 20
82.50000000000001
 30
0
 11
-146.812068413332
 21
82.50000000000001
 31
0
  0
LINE
  8
1
 62
7
 10
-146.312068413332
 20
69.00000000000001
 30
0
 11
-146.312068413332
 21
82.00000000000001
 31
0
  0
LINE
  8
1
 62
7
 10
-150.112068413332
 20
68.50000000000001
 30
0
 11
-146.812068413332
 21
68.50000000000001
 31
0
  0
LINE
  8
1
 62
7
 10
-149.112068413332
 20
82.50000000000001
 30
0
 11
-149.112068413332
 21
68.50000000000001
 31
0
  0
LINE
  8
1
 62
7
 10
-146.812068413332
 20
68.50000000000001
 30
0
 11
-146.312068413332
 21
69.00000000000001
 31
0
  0
LINE
  8
1
 62
7
 10
-146.312068413332
 20
82.00000000000001
 30
0
 11
-146.812068413332
 21
82.50000000000001
 31
0
  0
LINE
  8
1
 62
7
 10
-151.312068413332
 20
-84.99999999999994
 30
0
 11
-157.712068413332
 21
-84.99999999999994
 31
0
  0
LINE
  8
1
 62
7
 10
-150.312068413332
 20
-83.99999999999994
 30
0
 11
-149.112068413332
 21
-83.99999999999994
 31
0
  0
LINE
  8
1
 62
7
 10
-132.362068413332
 20
-63.99999999999995
 30
0
 11
-145.112068413332
 21
-63.99999999999995
 31
0
  0
LINE
  8
1
 62
7
 10
-132.362068413332
 20
-63.99999999999995
 30
0
 11
-131.112068413332
 21
-62.74999999999996
 31
0
  0
LINE
  8
1
 62
7
 10
-131.112068413332
 20
-62.74999999999996
 30
0
 11
-131.112068413332
 21
-57.24999999999996
 31
0
  0
LINE
  8
1
 62
7
 10
-131.112068413332
 20
-57.24999999999996
 30
0
 11
-132.362068413332
 21
-55.99999999999996
 31
0
  0
LINE
  8
1
 62
7
 10
-132.362068413332
 20
-55.99999999999996
 30
0
 11
-145.112068413332
 21
-55.99999999999996
 31
0
  0
LINE
  8
1
 62
7
 10
-132.362068413332
 20
-63.99999999999995
 30
0
 11
-132.362068413332
 21
-55.99999999999996
 31
0
  0
LINE
  8
1
 62
7
 10
-149.112068413332
 20
-51.99999999999998
 30
0
 11
-145.112068413332
 21
-51.99999999999998
 31
0
  0
LINE
  8
1
 62
7
 10
-149.112068413332
 20
-67.99999999999994
 30
0
 11
-145.112068413332
 21
-67.99999999999994
 31
0
  0
LINE
  8
1
 62
3
 10
-131.112068413332
 20
-57.24999999999996
 30
0
 11
-145.112068413332
 21
-57.24999999999996
 31
0
  0
LINE
  8
1
 62
3
 10
-131.112068413332
 20
-62.74999999999996
 30
0
 11
-145.112068413332
 21
-62.74999999999996
 31
0
  0
LINE
  8
1
 62
3
  6
DASHDOT
 10
-149.112068413332
 20
1.4210854715202e-014
 30
0
 11
-142.8194697506219
 21
1.4210854715202e-014
 31
0
  0
LINE
  8
1
 62
3
  6
DASHDOT
 10
-153.931630881543
 20
-59.99999999999998
 30
0
 11
-129.394036026575
 21
-59.99999999999998
 31
0
  0
LINE
  8
1
 62
7
 10
-149.112068413332
 20
60.15798299710499
 30
0
 11
-149.112068413332
 21
-83.99999999999994
 31
0
  0
ARC
  8
1
 62
7
 10
34.94979066057205
 20
-59.70697369782772
 30
0
 40
7.500000000000073
 50
214.9180002402654
 51
256.5082458053186
  0
ARC
  8
1
 62
7
 10
34.94979066057201
 20
-60.29302630217214
 30
0
 40
7.499999999999997
 50
103.4917541946832
 51
145.0819997597369
  0
ARC
  8
1
 62
7
 10
9
 20
50
 30
0
 40
8.000000000000076
 50
218.0475074536194
 51
270
  0
ARC
  8
1
 62
7
 10
9
 20
76.5
 30
0
 40
8
 50
90
 51
141.9524925463805
  0
ARC
  8
1
 62
7
 10
9
 20
-76.50000000000006
 30
0
 40
8.000000000000062
 50
218.0475074536193
 51
270
  0
ARC
  8
1
 62
7
 10
9
 20
-50.00000000000001
 30
0
 40
8
 50
90
 51
141.9524925463805
  0
ARC
  8
1
 62
7
 10
-176.112068413332
 20
76.5
 30
0
 40
8
 50
90
 51
141.9524925463805
  0
ARC
  8
1
 62
7
 10
-176.112068413332
 20
-76.50000000000006
 30
0
 40
8.000000000000062
 50
218.0475074536193
 51
270
  0
ARC
  8
1
 62
3
  6
DASHDOT
 10
255.4583108454233
 20
8.526512829121202e-014
 30
0
 40
95
 50
218.6609463271926
 51
231.514938519335
  0
ARC
  8
1
 62
3
  6
DASHDOT
 10
255.4583108454233
 20
8.526512829121202e-014
 30
0
 40
94.99999999999997
 50
309.5384280769269
 51
321.6737501779941
  0
ARC
  8
1
 62
3
  6
DASHDOT
 10
255.4583108454233
 20
8.526512829121202e-014
 30
0
 40
95.00000000000003
 50
39.60205267537874
 51
51.08523433625142
  0
ARC
  8
1
 62
3
  6
DASHDOT
 10
255.4583108454233
 20
8.526512829121202e-014
 30
0
 40
95.00000000000004
 50
129.2356257536401
 51
141.1695612802237
  0
ARC
  8
1
 62
7
 10
255.4583108454233
 20
8.526512829121202e-014
 30
0
 40
105
 50
312.0246275793772
 51
317.9753724206228
  0
ARC
  8
1
 62
7
 10
255.4583108454233
 20
8.526512829121202e-014
 30
0
 40
105
 50
222.0246275793772
 51
227.9753724206228
  0
ARC
  8
1
 62
7
 10
255.4583108454233
 20
8.526512829121202e-014
 30
0
 40
105
 50
132.0246275793772
 51
137.9753724206228
  0
ARC
  8
1
 62
7
 10
255.4583108454233
 20
8.526512829121202e-014
 30
0
 40
105
 50
42.02462757937724
 51
47.97537242062278
  0
ARC
  8
1
 62
7
 10
343.7929020314361
 20
51.00000000000006
 30
0
 40
28.67018343059938
 50
187.3001618313574
 51
232.6998381686424
  0
ARC
  8
1
 62
7
 10
302.4583108454233
 20
4.973799150320701e-014
 30
0
 40
36.99999999999994
 50
359.9999999999997
 51
49.64006324378058
  0
ARC
  8
1
 62
7
 10
300.2870722595518
 20
-3.922008423644556
 30
0
 40
22.00000000000012
 50
354.9999999999998
 51
86.70031372287063
  0
ARC
  8
1
 62
7
 10
255.4583108454233
 20
8.526512829121202e-014
 30
0
 40
67.00000000000004
 50
304.9999999999999
 51
354.9999999999999
  0
ARC
  8
1
 62
7
 10
255.4583108454233
 20
8.526512829121202e-014
 30
0
 40
49.50000000000001
 50
21.3752843114457
 51
38.62471568855435
  0
ARC
  8
1
 62
7
 10
255.4583108454233
 20
8.526512829121202e-014
 30
0
 40
84.00000000000003
 50
60.00000000000003
 51
120
  0
ARC
  8
1
 62
7
 10
274.4761326237548
 20
40.78385041664934
 30
0
 40
21.9999999999999
 50
333.299686277129
 51
65.00000000000003
  0
ARC
  8
1
 62
7
 10
278.9583108454233
 20
40.70319397786871
 30
0
 40
37.00000000000005
 50
10.35993675621945
 51
60.00000000000005
  0
ARC
  8
1
 62
7
 10
255.4583108454232
 20
-101.9999999999999
 30
0
 40
28.67018343059941
 50
67.30016183135732
 51
112.6998381686424
  0
ARC
  8
1
 62
7
 10
231.9583108454232
 20
-40.70319397786852
 30
0
 40
37
 50
239.9999999999998
 51
289.6400632437806
  0
ARC
  8
1
 62
7
 10
229.6473712096262
 20
-36.86184199300452
 30
0
 40
22
 50
235.0000000000001
 51
326.7003137228708
  0
ARC
  8
1
 62
7
 10
255.4583108454233
 20
8.526512829121202e-014
 30
0
 40
49.49999999999999
 50
261.3752843114456
 51
278.6247156885543
  0
ARC
  8
1
 62
7
 10
255.4583108454233
 20
8.526512829121202e-014
 30
0
 40
83.99999999999999
 50
299.9999999999999
 51
359.9999999999999
  0
ARC
  8
1
 62
7
 10
281.2692504812204
 20
-36.86184199300454
 30
0
 40
22.00000000000002
 50
213.2996862771291
 51
304.9999999999999
  0
ARC
  8
1
 62
7
 10
278.9583108454233
 20
-40.70319397786852
 30
0
 40
37
 50
250.3599367562194
 51
299.9999999999998
  0
ARC
  8
1
 62
7
 10
208.4583108454233
 20
7.105427357601002e-014
 30
0
 40
37.00000000000001
 50
130.3599367562194
 51
180
  0
ARC
  8
1
 62
7
 10
210.6295494312947
 20
-3.922008423644542
 30
0
 40
21.99999999999999
 50
93.299686277129
 51
184.9999999999999
  0
ARC
  8
1
 62
7
 10
255.4583108454233
 20
8.526512829121202e-014
 30
0
 40
84
 50
180
 51
239.9999999999999
  0
ARC
  8
1
 62
7
 10
255.4583108454233
 20
8.526512829121202e-014
 30
0
 40
67.00000000000007
 50
185
 51
235
  0
ARC
  8
1
 62
7
 10
255.4583108454233
 20
8.526512829121202e-014
 30
0
 40
49.50000000000001
 50
141.3752843114458
 51
158.6247156885543
  0
ARC
  8
1
 62
7
 10
255.4583108454233
 20
8.526512829121202e-014
 30
0
 40
66.99999999999992
 50
65.00000000000001
 51
115
  0
ARC
  8
1
 62
7
 10
236.4404890670918
 20
40.78385041664934
 30
0
 40
22.00000000000001
 50
115
 51
206.700313722871
  0
ARC
  8
1
 62
7
 10
231.9583108454233
 20
40.70319397786871
 30
0
 40
37.00000000000001
 50
120
 51
169.6400632437806
  0
ARC
  8
1
 62
7
 10
167.1237196594105
 20
51.00000000000009
 30
0
 40
28.67018343059943
 50
307.3001618313576
 51
352.6998381686425
  0
ARC
  8
1
 62
7
 10
255.4583108454233
 20
8.526512829121202e-014
 30
0
 40
60
 50
47.18269811541301
 51
132.817301884587
  0
ARC
  8
1
 62
7
 10
255.4583108454233
 20
8.526512829121202e-014
 30
0
 40
59.99999999999999
 50
167.182698115413
 51
252.8173018845869
  0
ARC
  8
1
 62
3
  6
DASHDOT
 10
255.4583108454233
 20
8.526512829121202e-014
 30
0
 40
60.00000000000001
 50
258.5910725314389
 51
281.3774011456078
  0
ARC
  8
1
 62
3
  6
DASHDOT
 10
255.4583108454233
 20
8.526512829121202e-014
 30
0
 40
60.00000000000004
 50
138.5224968925213
 51
162.0821661757598
  0
ARC
  8
1
 62
3
  6
DASHDOT
 10
255.4583108454233
 20
8.526512829121202e-014
 30
0
 40
60.00000000000001
 50
18.7133374402263
 51
42.08479628393079
  0
ARC
  8
1
 62
7
 10
255.4583108454233
 20
8.526512829121202e-014
 30
0
 40
59.99999999999999
 50
287.182698115413
 51
12.81730188458697
  0
CIRCLE
  8
1
 62
7
 10
255.4583108454233
 20
8.526512829121202e-014
 30
0
 40
39.99999999999997
  0
CIRCLE
  8
1
 62
7
 10
322.6334550581453
 20
67.17514421272209
 30
0
 40
4.25
  0
CIRCLE
  8
1
 62
7
 10
322.6334550581453
 20
-67.17514421272196
 30
0
 40
4.25
  0
CIRCLE
  8
1
 62
7
 10
188.2831666327012
 20
-67.17514421272196
 30
0
 40
4.25
  0
CIRCLE
  8
1
 62
7
 10
188.2831666327013
 20
67.1751442127221
 30
0
 40
4.25
  0
CIRCLE
  8
1
 62
7
 10
255.4583108454233
 20
8.526512829121202e-014
 30
0
 40
84.99999999999997
  0
CIRCLE
  8
1
 62
7
 10
307.4198350724897
 20
30.00000000000009
 30
0
 40
3
  0
CIRCLE
  8
1
 62
7
 10
255.4583108454233
 20
-59.99999999999992
 30
0
 40
2.999999999999972
  0
CIRCLE
  8
1
 62
7
 10
307.4198350724897
 20
30.00000000000009
 30
0
 40
4
  0
CIRCLE
  8
1
 62
7
 10
255.4583108454233
 20
-59.99999999999992
 30
0
 40
3.999999999999972
  0
CIRCLE
  8
1
 62
7
 10
307.4198350724897
 20
30.00000000000009
 30
0
 40
8
  0
CIRCLE
  8
1
 62
7
 10
255.4583108454233
 20
-59.99999999999992
 30
0
 40
7.999999999999972
  0
CIRCLE
  8
1
 62
7
 10
320.8432288311484
 20
-37.74999999999995
 30
0
 40
6.649999999999977
  0
CIRCLE
  8
1
 62
7
 10
190.0733928596981
 20
-37.74999999999991
 30
0
 40
6.650000000000006
  0
CIRCLE
  8
1
 62
7
 10
203.496786618357
 20
30.00000000000009
 30
0
 40
3
  0
CIRCLE
  8
1
 62
7
 10
203.496786618357
 20
30.00000000000009
 30
0
 40
4
  0
CIRCLE
  8
1
 62
7
 10
203.496786618357
 20
30.00000000000009
 30
0
 40
8
  0
CIRCLE
  8
1
 62
7
 10
255.4583108454233
 20
75.50000000000009
 30
0
 40
6.650000000000006
  0
TEXT
  8
1
 62
7
 10
-190.578052105554
 20
169.9332639033574
 30
0
 40
7
  1
DC1605
 41
0.9
  7
SIMPLEX
  0
TEXT
  8
1
 62
7
 10
-190.578052105554
 20
180.4332639033574
 30
0
 40
7
  1
TMB 10
 41
0.9
  7
SIMPLEX
  0
ENDSEC
  0
EOF
