  0
SECTION
  2
HEADER
  9
$ACADVER
  1
AC1009
  9
$INSBASE
 10
0
 20
0
  9
$EXTMIN
 10
-79.81357841885099
 20
-42.5
  9
$EXTMAX
 10
141.0042473754377
 20
85.60057570020416
  9
$LIMMIN
 10
-79.81357841885099
 20
-42.5
  9
$LIMMAX
 10
141.0042473754377
 20
85.60057570020416
  9
$VIEWCTR
 10
10
 20
10
  9
$VIEWSIZE
 40
10
  9
$SNAPMODE
 70
0
  9
$SNAPUNIT
 10
1
 20
1
  9
$SNAPBASE
 10
0
 20
0
  9
$SNAPANG
 50
0
  9
$SNAPSTYLE
 70
0
  9
$SNAPISOPAIR
 70
0
  9
$GRIDMODE
 70
0
  9
$GRIDUNIT
 10
0
 20
0
  9
$ORTHOMODE
 70
0
  9
$REGENMODE
 70
1
  9
$FILLMODE
 70
1
  9
$QTEXTMODE
 70
0
  9
$DRAGMODE
 70
2
  9
$LTSCALE
 40
1
  9
$OSMODE
 70
0
  9
$ATTMODE
 70
1
  9
$TEXTSIZE
 40
3.5
  9
$TRACEWID
 40
0.5
  9
$TEXTSTYLE
  7
STANDARD
  9
$CLAYER
  8
0
  9
$CELTYPE
  6
BYLAYER
  9
$CECOLOR
 62
256
  9
$DIMSCALE
 40
1
  9
$DIMASZ
 40
0.18
  9
$DIMEXO
 40
0.0625
  9
$DIMDLI
 40
0.38
  9
$DIMRND
 40
0
  9
$DIMDLE
 40
0
  9
$DIMEXE
 40
0.18
  9
$DIMTP
 40
0
  9
$DIMTM
 40
0
  9
$DIMTXT
 40
0.18
  9
$DIMCEN
 40
0.09
  9
$DIMTSZ
 40
0
  9
$DIMTOL
 70
0
  9
$DIMLIM
 70
0
  9
$DIMTIH
 70
1
  9
$DIMTOH
 70
1
  9
$DIMSE1
 70
0
  9
$DIMSE2
 70
0
  9
$DIMTAD
 70
0
  9
$DIMZIN
 70
0
  9
$DIMBLK
  1

  9
$DIMASO
 70
1
  9
$DIMSHO
 70
1
  9
$DIMPOST
  1

  9
$DIMAPOST
  1

  9
$DIMALT
 70
0
  9
$DIMALTD
 70
2
  9
$DIMALTF
 40
25.4
  9
$DIMLFAC
 40
1
  9
$DIMTOFL
 70
0
  9
$DIMTVP
 40
0
  9
$DIMTIX
 70
0
  9
$DIMSOXD
 70
0
  9
$DIMSAH
 70
0
  9
$DIMBLK1
  1

  9
$DIMBLK2
  1

  9
$DIMSTYLE
  2
*UNNAMED
  9
$DIMCLRD
 70
0
  9
$DIMCLRE
 70
0
  9
$DIMCLRT
 70
0
  9
$DIMTFAC
 40
1
  9
$DIMGAP
 40
0.09
  9
$LUNITS
 70
2
  9
$LUPREC
 70
4
  9
$AXISMODE
 70
0
  9
$AXISUNIT
 10
0
 20
0
  9
$SKETCHINC
 40
0.1
  9
$FILLETRAD
 40
2
  9
$AUNITS
 70
0
  9
$AUPREC
 70
0
  9
$MENU
  1
ACAD
  9
$ELEVATION
 40
0
  9
$THICKNESS
 40
0
  9
$VIEWDIR
 10
0
 20
0
 30
1
  9
$LIMCHECK
 70
0
  9
$BLIPMODE
 70
1
  9
$CHAMFERA
 40
0
  9
$CHAMFERB
 40
0
  9
$FASTZOOM
 70
1
  9
$SKPOLY
 70
0
  9
$ANGBASE
 50
0
  9
$ANGDIR
 70
0
  9
$PDMODE
 70
0
  9
$PDSIZE
 40
0
  9
$PLINEWID
 40
0
  9
$COORDS
 70
2
  0
ENDSEC
  0
SECTION
  2
TABLES
  0
TABLE
  2
DIMSTYLE
 70
0
  0
ENDTAB
  0
TABLE
  2
LTYPE
 70
9
  0
LTYPE
  2
CONTINUOUS
 70
64
  3
Solid line
 72
65
 73
0
 40
0
  0
LTYPE
  2
BORDER
 70
64
  3
__ __ . __ __ .
 72
65
 73
6
 40
10.16924197736856
 49
2.905497707819588
 49
-1.452748853909794
 49
2.905497707819588
 49
-1.452748853909794
 49
0
 49
-1.452748853909794
  0
LTYPE
  2
CENTER
 70
64
  3
____ _ ____ _
 72
65
 73
4
 40
11.62199083127835
 49
7.263744269548971
 49
-1.452748853909794
 49
1.452748853909794
 49
-1.452748853909794
  0
LTYPE
  2
DASHDOT
 70
64
  3
__ . __ . __ .
 72
65
 73
4
 40
5.810995415639177
 49
2.905497707819588
 49
-1.452748853909794
 49
0
 49
-1.452748853909794
  0
LTYPE
  2
DASHED
 70
64
  3
__ __ __ __ __
 72
65
 73
2
 40
4.358246561729382
 49
2.905497707819588
 49
-1.452748853909794
  0
LTYPE
  2
DIVIDE
 70
64
  3
__ . . __ . . 
 72
65
 73
6
 40
7.263744269548971
 49
2.905497707819588
 49
-1.452748853909794
 49
0
 49
-1.452748853909794
 49
0
 49
-1.452748853909794
  0
LTYPE
  2
DOT
 70
64
  3
..............
 72
65
 73
4
 40
2.905497707819588
 49
0
 49
-1.452748853909794
 49
0
 49
-1.452748853909794
  0
LTYPE
  2
HIDDEN
 70
64
  3
_ _ _ _ _ _ _
 72
65
 73
2
 40
2.179123280864691
 49
1.452748853909794
 49
-0.7263744269548971
  0
LTYPE
  2
PHANTOM
 70
64
  3
_____ _ _ _____ _ _ 
 72
65
 73
6
 40
14.52748853909794
 49
7.263744269548971
 49
-1.452748853909794
 49
1.452748853909794
 49
-1.452748853909794
 49
1.452748853909794
 49
-1.452748853909794
  0
ENDTAB
  0
TABLE
  2
LAYER
 70
3
  0
LAYER
  2
1
 70
0
 62
7
  6
CONTINUOUS
  0
LAYER
  2
0
 70
0
 62
7
  6
CONTINUOUS
  0
ENDTAB
  0
TABLE
  2
STYLE
 70
4
  0
STYLE
  2
STANDARD
 70
0
 40
0
 41
1
 50
0
 71
0
 42
3.5
  3
txt
  4

  0
STYLE
  2
SIMPLEX
 70
0
 40
0
 41
1
 50
0
 71
0
 42
3.5
  3
simplex
  4

  0
STYLE
  2
COMPLEX
 70
0
 40
0
 41
1
 50
0
 71
0
 42
3.5
  3
complex
  4

  0
STYLE
  2
ITALIC
 70
0
 40
0
 41
1
 50
0
 71
0
 42
3.5
  3
italic
  4

  0
ENDTAB
  0
TABLE
  2
VIEW
 70
0
  0
ENDTAB
  0
ENDSEC
  0
SECTION
  2
BLOCKS
  0
ENDSEC
  0
SECTION
  2
ENTITIES
  0
LINE
  8
1
 62
7
 10
-53.69575262456236
 20
32.75000000000001
 30
0
 11
-53.6957526245623
 21
24.5454813220625
 31
0
  0
LINE
  8
1
 62
7
 10
-53.69575262456236
 20
32.75000000000001
 30
0
 11
-54.09575262456232
 21
32.75
 31
0
  0
LINE
  8
1
 62
7
 10
-53.69575262456236
 20
23.00000000000001
 30
0
 11
-54.09575262456234
 21
23.00000000000001
 31
0
  0
LINE
  8
1
 62
7
 10
-54.09575262456232
 20
-33.49999999999999
 30
0
 11
-54.09575262456232
 21
33.5
 31
0
  0
LINE
  8
1
 62
7
 10
-74.69559815855888
 20
-42.5
 30
0
 11
-74.69559815855888
 21
31
 31
0
  0
LINE
  8
1
 62
7
 10
-69.49559815855895
 20
32.80908465674333
 30
0
 11
-69.49559815855895
 21
54.7431068068623
 31
0
  0
LINE
  8
1
 62
7
 10
-67.89559815855893
 20
33
 30
0
 11
-67.89559815855893
 21
54.7431068068623
 31
0
  0
LINE
  8
1
 62
7
 10
-67.89559815855893
 20
54.7431068068623
 30
0
 11
-69.49559815855895
 21
54.7431068068623
 31
0
  0
LINE
  8
1
 62
7
 10
7.004247375437702
 20
32.8866772150146
 30
0
 11
7.004247375437702
 21
54.7431068068623
 31
0
  0
LINE
  8
1
 62
7
 10
8.604247375437721
 20
54.7431068068623
 30
0
 11
7.004247375437702
 21
54.7431068068623
 31
0
  0
LINE
  8
1
 62
7
 10
22.40424737543771
 20
23
 30
0
 11
22.40424737543771
 21
33.5
 31
0
  0
LINE
  8
1
 62
7
 10
22.40424737543771
 20
-26.24999999999999
 30
0
 11
22.40424737543771
 21
-33.49999999999999
 31
0
  0
LINE
  8
1
 62
7
 10
1.80424737543777
 20
31
 30
0
 11
1.80424737543777
 21
-42.5
 31
0
  0
LINE
  8
1
 62
7
 10
107.5042473754377
 20
54.74310680686227
 30
0
 11
107.5042473754377
 21
33.5
 31
0
  0
LINE
  8
1
 62
7
 10
138.5042473754376
 20
-12.69842509920048
 30
0
 11
138.5042473754377
 21
-29.07318352021328
 31
0
  0
LINE
  8
1
 62
7
 10
94.80582227623742
 20
-31.00000000000001
 30
0
 11
78.43106385522441
 21
-31.00000000000001
 31
0
  0
LINE
  8
1
 62
7
 10
76.5042473754377
 20
12.69842509920028
 30
0
 11
76.5042473754377
 21
29.07318352021326
 31
0
  0
LINE
  8
1
 62
7
 10
120.202672474638
 20
31
 30
0
 11
136.5774308956509
 21
31
 31
0
  0
LINE
  8
1
 62
3
  6
DASHDOT
 10
-77.52780118298162
 20
-37.5
 30
0
 11
-73.59397867327411
 21
-37.5
 31
0
  0
LINE
  8
1
 62
3
  6
DASHDOT
 10
78.5145048477784
 20
28.98974252765933
 30
0
 11
83.47061569874262
 21
24.03363167669508
 31
0
  0
LINE
  8
1
 62
3
  6
DASHDOT
 10
78.50228956157022
 20
-29.00195781386744
 30
0
 11
83.2518957937443
 21
-24.25235158169338
 31
0
  0
LINE
  8
1
 62
3
  6
DASHDOT
 10
131.7238616227135
 20
-24.21961424727583
 30
0
 11
136.6799724736776
 21
-29.17572509824001
 31
0
  0
LINE
  8
1
 62
3
  6
DASHDOT
 10
131.7116463365054
 20
24.20739896106772
 30
0
 11
136.8054269333297
 21
29.301179557892
 31
0
  0
LINE
  8
1
 62
7
 10
108.5044986286173
 20
56.54946380579725
 30
0
 11
108.5044986286173
 21
54.74310680686227
 31
0
  0
LINE
  8
1
 62
7
 10
107.9868696940562
 20
56.54946380579725
 30
0
 11
107.9868696940562
 21
54.74310680686227
 31
0
  0
LINE
  8
1
 62
7
 10
106.6280937408333
 20
56.54946380579725
 30
0
 11
106.6280937408333
 21
54.74310680686227
 31
0
  0
LINE
  8
1
 62
7
 10
107.1133708669844
 20
56.58181561420736
 30
0
 11
107.1133708669844
 21
54.74310680686227
 31
0
  0
LINE
  8
1
 62
7
 10
78.43106385522441
 20
31.00000000000001
 30
0
 11
94.80582227623742
 21
31
 31
0
  0
LINE
  8
1
 62
7
 10
138.5042473754377
 20
29.07318352021326
 30
0
 11
138.5042473754377
 21
12.69842509920028
 31
0
  0
LINE
  8
1
 62
7
 10
136.5774308956509
 20
-31.00000000000001
 30
0
 11
120.0440845572737
 21
-31.00000000000001
 31
0
  0
LINE
  8
1
 62
7
 10
76.5042473754377
 20
-29.07318352021327
 30
0
 11
76.5042473754377
 21
-12.69842509920031
 31
0
  0
LINE
  8
1
 62
7
 10
109.1042473754377
 20
54.74310680686227
 30
0
 11
109.1042473754377
 21
33.46176922997347
 31
0
  0
LINE
  8
1
 62
7
 10
105.9042473754376
 20
54.74310680686227
 30
0
 11
109.1042473754377
 21
54.74310680686227
 31
0
  0
LINE
  8
1
 62
7
 10
105.9042473754376
 20
54.74310680686227
 30
0
 11
105.9042473754376
 21
33.46176922997347
 31
0
  0
LINE
  8
1
 62
7
 10
106.1814655709048
 20
54.74310680686227
 30
0
 11
106.1814655709048
 21
56.58181561420736
 31
0
  0
LINE
  8
1
 62
7
 10
108.9448349653978
 20
54.74310680686227
 30
0
 11
108.9448349653978
 21
56.56802242797517
 31
0
  0
LINE
  8
1
 62
7
 10
-68.83296402522643
 20
56.24212162590172
 30
0
 11
-68.83296402522643
 21
54.7431068068623
 31
0
  0
LINE
  8
1
 62
7
 10
-68.51268112196675
 20
56.21300499833262
 30
0
 11
-68.51268112196675
 21
54.7431068068623
 31
0
  0
LINE
  8
1
 62
7
 10
-68.2506314738452
 20
56.18388837076353
 30
0
 11
-68.2506314738452
 21
54.7431068068623
 31
0
  0
LINE
  8
1
 62
7
 10
-69.09501367334798
 20
56.21300499833262
 30
0
 11
-69.09501367334798
 21
54.7431068068623
 31
0
  0
LINE
  8
1
 62
7
 10
-57.29575262456232
 20
33
 30
0
 11
-57.29575262456232
 21
-32.99999999999999
 31
0
  0
LINE
  8
1
 62
7
 10
-76.49559815855895
 20
-42.5
 30
0
 11
-74.69559815855888
 21
-42.5
 31
0
  0
LINE
  8
1
 62
7
 10
-76.49559815855895
 20
31
 30
0
 11
-74.69559815855888
 21
31
 31
0
  0
LINE
  8
1
 62
7
 10
-76.49559815855895
 20
31
 30
0
 11
-76.49559815855895
 21
-42.5
 31
0
  0
LINE
  8
1
 62
7
 10
-68.19675262456229
 20
-32.99999999999999
 30
0
 11
-57.29575262456232
 21
-32.99999999999999
 31
0
  0
LINE
  8
1
 62
7
 10
-52.3957526245623
 20
26.00000000000001
 30
0
 11
-52.09575262456234
 21
26.30000000000002
 31
0
  0
LINE
  8
1
 62
7
 10
-52.39575262456231
 20
32.00000000000001
 30
0
 11
-52.09575262456234
 21
31.70000000000002
 31
0
  0
LINE
  8
1
 62
7
 10
-53.69575262456236
 20
32.00000000000001
 30
0
 11
-52.39575262456231
 21
32.00000000000001
 31
0
  0
LINE
  8
1
 62
7
 10
-53.1957526245623
 20
26
 30
0
 11
-53.19575262456236
 21
32.00000000000001
 31
0
  0
LINE
  8
1
 62
7
 10
-53.6957526245623
 20
26
 30
0
 11
-52.3957526245623
 21
26.00000000000001
 31
0
  0
LINE
  8
1
 62
7
 10
-52.09575262456234
 20
31.70000000000002
 30
0
 11
-52.09575262456234
 21
26.30000000000002
 31
0
  0
LINE
  8
1
 62
7
 10
-57.09575262456234
 20
-33.5
 30
0
 11
-54.09575262456232
 21
-33.49999999999999
 31
0
  0
LINE
  8
1
 62
7
 10
-57.09575262456234
 20
33.50000000000001
 30
0
 11
-57.09575262456234
 21
-33.5
 31
0
  0
LINE
  8
1
 62
7
 10
-53.69575262456236
 20
23.00000000000001
 30
0
 11
-53.6957526245623
 21
-32.74999999999999
 31
0
  0
LINE
  8
1
 62
7
 10
-57.09575262456234
 20
33.50000000000001
 30
0
 11
-54.09575262456232
 21
33.5
 31
0
  0
LINE
  8
1
 62
7
 10
-53.6957526245623
 20
24.5454813220625
 30
0
 11
-53.29575262456228
 21
23.103527618041
 31
0
  0
LINE
  8
1
 62
7
 10
-53.6957526245623
 20
24.5454813220625
 30
0
 11
-53.29575262456228
 21
23.103527618041
 31
0
  0
LINE
  8
1
 62
7
 10
-53.69575262456236
 20
23.00000000000001
 30
0
 11
-54.09575262456232
 21
24.4928203230275
 31
0
  0
LINE
  8
1
 62
7
 10
-53.6957526245623
 20
-32.74999999999999
 30
0
 11
-53.29575262456229
 21
-32.74999999999999
 31
0
  0
LINE
  8
1
 62
7
 10
-53.29575262456229
 20
-26.49999999999999
 30
0
 11
-51.99575262456229
 21
-26.49999999999999
 31
0
  0
LINE
  8
1
 62
7
 10
-53.2957526245623
 20
-19.5
 30
0
 11
-51.99575262456229
 21
-19.49999999999999
 31
0
  0
LINE
  8
1
 62
3
  6
DASHDOT
 10
-76.49559815855895
 20
0
 30
0
 11
-79.81357841885099
 21
0
 31
0
  0
LINE
  8
1
 62
3
  6
DASHDOT
 10
18.91561897784846
 20
-22.99999999999999
 30
0
 11
31.21756495134081
 21
-22.99999999999999
 31
0
  0
LINE
  8
1
 62
7
 10
22.80424737543772
 20
-17.99999999999999
 30
0
 11
23.20424737543772
 21
-17.99999999999999
 31
0
  0
LINE
  8
1
 62
7
 10
23.2042473754377
 20
-24.5
 30
0
 11
23.20424737543772
 21
-32.74999999999999
 31
0
  0
LINE
  8
1
 62
7
 10
22.80424737543772
 20
-32.74999999999999
 30
0
 11
23.20424737543772
 21
-32.74999999999999
 31
0
  0
LINE
  8
1
 62
7
 10
19.40424737543771
 20
-26.24999999999999
 30
0
 11
22.40424737543771
 21
-26.24999999999999
 31
0
  0
LINE
  8
1
 62
7
 10
19.40424737543771
 20
-19.74999999999999
 30
0
 11
22.80424737543772
 21
-19.74999999999999
 31
0
  0
LINE
  8
1
 62
7
 10
22.40424737543771
 20
25.25
 30
0
 11
22.80424737543772
 21
25.25
 31
0
  0
LINE
  8
1
 62
7
 10
22.80424737543772
 20
23
 30
0
 11
22.40424737543771
 21
24.4928203230275
 31
0
  0
LINE
  8
1
 62
7
 10
23.20424737543772
 20
18
 30
0
 11
22.80424737543772
 21
18
 31
0
  0
LINE
  8
1
 62
7
 10
23.2042473754377
 20
-21.5
 30
0
 11
23.20424737543772
 21
23.103527618041
 31
0
  0
LINE
  8
1
 62
7
 10
22.80424737543772
 20
24.5454813220625
 30
0
 11
23.20424737543772
 21
23.103527618041
 31
0
  0
LINE
  8
1
 62
7
 10
22.80424737543772
 20
24.5454813220625
 30
0
 11
23.20424737543772
 21
23.103527618041
 31
0
  0
LINE
  8
1
 62
7
 10
22.80424737543772
 20
32.75
 30
0
 11
22.80424737543772
 21
24.5454813220625
 31
0
  0
LINE
  8
1
 62
7
 10
22.40424737543771
 20
32.75
 30
0
 11
22.80424737543772
 21
32.75
 31
0
  0
LINE
  8
1
 62
7
 10
22.40424737543771
 20
32.75
 30
0
 11
22.80424737543772
 21
32.75
 31
0
  0
LINE
  8
1
 62
7
 10
22.40424737543771
 20
32.75
 30
0
 11
22.80424737543772
 21
32.75
 31
0
  0
LINE
  8
1
 62
7
 10
19.40424737543771
 20
33.5
 30
0
 11
22.40424737543771
 21
33.5
 31
0
  0
LINE
  8
1
 62
7
 10
22.40424737543771
 20
23
 30
0
 11
22.80424737543772
 21
23
 31
0
  0
LINE
  8
1
 62
7
 10
22.80424737543772
 20
23
 30
0
 11
22.80424737543772
 21
-32.74999999999999
 31
0
  0
LINE
  8
1
 62
7
 10
19.40424737543771
 20
33.5
 30
0
 11
19.40424737543771
 21
-33.49999999999999
 31
0
  0
LINE
  8
1
 62
7
 10
19.40424737543771
 20
17.5
 30
0
 11
22.80424737543772
 21
17.5
 31
0
  0
LINE
  8
1
 62
7
 10
19.40424737543771
 20
-33.49999999999999
 30
0
 11
22.40424737543771
 21
-33.49999999999999
 31
0
  0
LINE
  8
1
 62
7
 10
19.40424737543771
 20
-17.49999999999999
 30
0
 11
22.80424737543772
 21
-17.49999999999999
 31
0
  0
LINE
  8
1
 62
7
 10
24.40424737543771
 20
31.70000000000002
 30
0
 11
24.40424737543771
 21
26.30000000000001
 31
0
  0
LINE
  8
1
 62
7
 10
22.80424737543772
 20
26
 30
0
 11
24.1042473754377
 21
26
 31
0
  0
LINE
  8
1
 62
7
 10
23.30424737543772
 20
26
 30
0
 11
23.30424737543772
 21
32
 31
0
  0
LINE
  8
1
 62
7
 10
22.80424737543772
 20
32
 30
0
 11
24.1042473754377
 21
32
 31
0
  0
LINE
  8
1
 62
7
 10
24.1042473754377
 20
32
 30
0
 11
24.40424737543771
 21
31.70000000000002
 31
0
  0
LINE
  8
1
 62
7
 10
24.1042473754377
 20
26
 30
0
 11
24.40424737543771
 21
26.30000000000001
 31
0
  0
LINE
  8
1
 62
7
 10
8.303092909434362
 20
-33.00000000000009
 30
0
 11
19.2042473754377
 21
-32.99999999999999
 31
0
  0
LINE
  8
1
 62
7
 10
0.004247375437701262
 20
-35.24999999999999
 30
0
 11
1.80424737543777
 21
-35.24999999999999
 31
0
  0
LINE
  8
1
 62
7
 10
0.004247375437701262
 20
-17.49999999999999
 30
0
 11
1.80424737543777
 21
-17.49999999999999
 31
0
  0
LINE
  8
1
 62
7
 10
0.004247375437701262
 20
17.5
 30
0
 11
1.80424737543777
 21
17.5
 31
0
  0
LINE
  8
1
 62
7
 10
0.004247375437701262
 20
31
 30
0
 11
0.004247375437701262
 21
-42.5
 31
0
  0
LINE
  8
1
 62
7
 10
0.004247375437701262
 20
31
 30
0
 11
1.80424737543777
 21
31
 31
0
  0
LINE
  8
1
 62
7
 10
0.004247375437701262
 20
-42.5
 30
0
 11
1.80424737543777
 21
-42.5
 31
0
  0
LINE
  8
1
 62
3
  6
DASHDOT
 10
-1.329056283793163
 20
-37.5
 30
0
 11
3.461267198428262
 21
-37.5
 31
0
  0
LINE
  8
1
 62
7
 10
4.575456570037234
 20
18.10000000000002
 30
0
 11
19.2042473754377
 21
18.10000000000002
 31
0
  0
LINE
  8
1
 62
7
 10
19.2042473754377
 20
-18.09999999999999
 30
0
 11
4.575456570037234
 21
-18.09999999999999
 31
0
  0
LINE
  8
1
 62
7
 10
19.2042473754377
 20
33
 30
0
 11
19.2042473754377
 21
-32.99999999999999
 31
0
  0
LINE
  8
1
 62
7
 10
7.404831860648672
 20
56.21300499833262
 30
0
 11
7.404831860648672
 21
54.7431068068623
 31
0
  0
LINE
  8
1
 62
7
 10
8.249214060151452
 20
56.18388837076353
 30
0
 11
8.249214060151452
 21
54.7431068068623
 31
0
  0
LINE
  8
1
 62
7
 10
7.987164412029902
 20
56.21300499833262
 30
0
 11
7.987164412029902
 21
54.7431068068623
 31
0
  0
LINE
  8
1
 62
7
 10
7.666881508770219
 20
56.24212162590172
 30
0
 11
7.666881508770219
 21
54.7431068068623
 31
0
  0
LINE
  8
1
 62
7
 10
8.604247375437721
 20
54.7431068068623
 30
0
 11
8.604247375437721
 21
33
 31
0
  0
LINE
  8
1
 62
7
 10
19.2042473754377
 20
33
 30
0
 11
8.303092909434362
 21
33
 31
0
  0
LINE
  8
1
 62
3
  6
DASHDOT
 10
0.004247375437701262
 20
0
 30
0
 11
-2.907037057704882
 21
0
 31
0
  0
LINE
  8
1
 62
7
 10
0.004247375437701262
 20
-39.75
 30
0
 11
1.80424737543777
 21
-39.75
 31
0
  0
LINE
  8
1
 62
7
 10
39.5042473754377
 20
13
 30
0
 11
39.5042473754377
 21
-13.00000000000001
 31
0
  0
LINE
  8
1
 62
7
 10
21.848656110788
 20
-20
 30
0
 11
22.3042473754376
 21
-20
 31
0
  0
LINE
  8
1
 62
7
 10
21.848656110788
 20
-20
 30
0
 11
21.5486561107881
 21
-20.30000000000001
 31
0
  0
LINE
  8
1
 62
7
 10
22.3042473754377
 20
-26
 30
0
 11
21.8486561107881
 21
-26
 31
0
  0
LINE
  8
1
 62
7
 10
21.8486561107881
 20
-26
 30
0
 11
21.5486561107881
 21
-25.70000000000002
 31
0
  0
LINE
  8
1
 62
7
 10
21.5486561107881
 20
-25.70000000000002
 30
0
 11
21.5486561107881
 21
-20.30000000000001
 31
0
  0
LINE
  8
1
 62
7
 10
22.3042473754376
 20
-20
 30
0
 11
22.3042473754377
 21
-26
 31
0
  0
LINE
  8
1
 62
3
  6
DASHED
 10
113.2869802933581
 20
-1.600000000000001
 30
0
 11
120.405582861968
 21
-1.600000000000001
 31
0
  0
LINE
  8
1
 62
3
  6
DASHED
 10
113.2869802933581
 20
1.600000000000001
 30
0
 11
120.4054513971635
 21
1.600000000000001
 31
0
  0
LINE
  8
1
 62
3
  6
DASHED
 10
113.1611016249301
 20
-2
 30
0
 11
120.3486692787229
 21
-2
 31
0
  0
LINE
  8
1
 62
3
  6
DASHED
 10
113.1611016249301
 20
2
 30
0
 11
120.3495314716048
 21
2
 31
0
  0
LINE
  8
1
 62
7
 10
24.5042473754377
 20
13.8
 30
0
 11
28.02401905045935
 21
13.8
 31
0
  0
LINE
  8
1
 62
7
 10
28.0042473754377
 20
16.20000000000001
 30
0
 11
24.5042473754377
 21
16.20000000000001
 31
0
  0
LINE
  8
1
 62
3
  6
DASHDOT
 10
28.70424737543772
 20
15.00000000000001
 30
0
 11
23.8042473754377
 21
15.00000000000001
 31
0
  0
LINE
  8
1
 62
3
 10
24.5042473754377
 20
13.50000000000001
 30
0
 11
28.13825059237984
 21
13.50000000000001
 31
0
  0
LINE
  8
1
 62
3
 10
28.0042473754377
 20
16.50000000000001
 30
0
 11
24.5042473754377
 21
16.50000000000001
 31
0
  0
LINE
  8
1
 62
7
 10
28.0042473754377
 20
14
 30
0
 11
28.0042473754377
 21
28.00000000000001
 31
0
  0
LINE
  8
1
 62
7
 10
35.10424737543769
 20
13
 30
0
 11
35.10424737543769
 21
7.5
 31
0
  0
LINE
  8
1
 62
7
 10
31.90424737543771
 20
13
 30
0
 11
31.90424737543771
 21
7.5
 31
0
  0
LINE
  8
1
 62
3
  6
DASHDOT
 10
33.5042473754377
 20
14.1
 30
0
 11
33.5042473754377
 21
6.399999999999999
 31
0
  0
LINE
  8
1
 62
3
 10
35.5042473754377
 20
13
 30
0
 11
35.5042473754377
 21
7.5
 31
0
  0
LINE
  8
1
 62
3
 10
31.5042473754377
 20
13
 30
0
 11
31.5042473754377
 21
7.5
 31
0
  0
LINE
  8
1
 62
7
 10
24.5042473754377
 20
-21.5
 30
0
 11
24.5042473754377
 21
28.00000000000001
 31
0
  0
LINE
  8
1
 62
7
 10
28.0042473754377
 20
-25.99999999999999
 30
0
 11
26.5042473754377
 21
-24.49999999999999
 31
0
  0
LINE
  8
1
 62
7
 10
26.5042473754377
 20
-21.5
 30
0
 11
26.5042473754377
 21
-24.49999999999999
 31
0
  0
LINE
  8
1
 62
7
 10
26.5042473754377
 20
-21.5
 30
0
 11
28.0042473754377
 21
-20
 31
0
  0
LINE
  8
1
 62
7
 10
24.5042473754377
 20
-6
 30
0
 11
39.5042473754377
 21
-6
 31
0
  0
LINE
  8
1
 62
7
 10
24.5042473754377
 20
7.5
 30
0
 11
39.5042473754377
 21
7.5
 31
0
  0
LINE
  8
1
 62
7
 10
28.0042473754377
 20
-28.00000000000001
 30
0
 11
24.5042473754377
 21
-28.00000000000001
 31
0
  0
LINE
  8
1
 62
7
 10
28.0042473754377
 20
-28.00000000000001
 30
0
 11
24.5042473754377
 21
-28.00000000000001
 31
0
  0
LINE
  8
1
 62
7
 10
28.0042473754377
 20
-28.00000000000001
 30
0
 11
24.5042473754377
 21
-28.00000000000001
 31
0
  0
LINE
  8
1
 62
7
 10
39.5042473754377
 20
-13.00000000000001
 30
0
 11
29.0042473754377
 21
-13.00000000000001
 31
0
  0
LINE
  8
1
 62
7
 10
39.5042473754377
 20
-13.00000000000001
 30
0
 11
29.0042473754377
 21
-13.00000000000001
 31
0
  0
LINE
  8
1
 62
7
 10
28.0042473754377
 20
-14.00000000000001
 30
0
 11
28.0042473754377
 21
-28.00000000000001
 31
0
  0
LINE
  8
1
 62
7
 10
109.5042473754377
 20
7.5
 30
0
 11
109.5042473754377
 21
5.656854249492376
 31
0
  0
LINE
  8
1
 62
7
 10
105.5042473754377
 20
7.5
 30
0
 11
109.5042473754377
 21
7.5
 31
0
  0
LINE
  8
1
 62
7
 10
105.5042473754377
 20
5.656854249492376
 30
0
 11
105.5042473754377
 21
7.5
 31
0
  0
LINE
  8
1
 62
7
 10
29.0042473754377
 20
13
 30
0
 11
39.5042473754377
 21
13
 31
0
  0
LINE
  8
1
 62
7
 10
23.2042473754377
 20
-26.5
 30
0
 11
24.5042473754377
 21
-26.5
 31
0
  0
LINE
  8
1
 62
3
  6
DASHDOT
 10
110.9161766256738
 20
0
 30
0
 11
104.0923181252015
 21
0
 31
0
  0
LINE
  8
1
 62
3
  6
DASHDOT
 10
107.5042473754377
 20
3.411929250236142
 30
0
 11
107.5042473754377
 21
-3.411929250236142
 31
0
  0
LINE
  8
1
 62
3
  6
DASHDOT
 10
112.5416451860708
 20
0
 30
0
 11
121.7703598255688
 21
0
 31
0
  0
LINE
  8
1
 62
3
  6
DASHDOT
 10
107.5042473754377
 20
14.17589046486106
 30
0
 11
107.5042473754377
 21
6.126785967253959
 31
0
  0
LINE
  8
1
 62
3
  6
DASHDOT
 10
36.14074310574179
 20
0
 30
0
 11
30.8677516451335
 21
0
 31
0
  0
LINE
  8
1
 62
3
  6
DASHDOT
 10
33.5042473754377
 20
2.636495730304127
 30
0
 11
33.5042473754377
 21
-2.636495730304134
 31
0
  0
LINE
  8
1
 62
3
  6
DASHDOT
 10
39.5042473754377
 20
0
 30
0
 11
41.74231474212979
 21
0
 31
0
  0
LINE
  8
1
 62
7
 10
-48.49575262456229
 20
-28.00000000000001
 30
0
 11
-51.99575262456229
 21
-28.00000000000001
 31
0
  0
LINE
  8
1
 62
7
 10
-48.49575262456229
 20
-28.00000000000001
 30
0
 11
-51.99575262456229
 21
-28.00000000000001
 31
0
  0
LINE
  8
1
 62
7
 10
-48.49575262456229
 20
-28.00000000000001
 30
0
 11
-51.99575262456229
 21
-28.00000000000001
 31
0
  0
LINE
  8
1
 62
7
 10
-36.99575262456229
 20
-13.00000000000001
 30
0
 11
-47.49575262456229
 21
-13.00000000000001
 31
0
  0
LINE
  8
1
 62
7
 10
-36.99575262456229
 20
-13.00000000000001
 30
0
 11
-47.49575262456229
 21
-13.00000000000001
 31
0
  0
LINE
  8
1
 62
7
 10
-47.49575262456229
 20
13
 30
0
 11
-36.9957526245623
 21
13
 31
0
  0
LINE
  8
1
 62
7
 10
-51.99575262456229
 20
28.00000000000001
 30
0
 11
-48.49575262456229
 21
28.00000000000001
 31
0
  0
LINE
  8
1
 62
7
 10
-36.99575262456229
 20
-13.00000000000001
 30
0
 11
-36.9957526245623
 21
13
 31
0
  0
LINE
  8
1
 62
3
  6
DASHDOT
 10
-36.9915052491246
 20
0
 30
0
 11
-34.75343788243246
 21
0
 31
0
  0
LINE
  8
1
 62
3
  6
DASHED
 10
109.5042473754377
 20
12.84523257866511
 30
0
 11
109.5042473754377
 21
7.5
 31
0
  0
LINE
  8
1
 62
3
  6
DASHED
 10
109.1042473754377
 20
12.9011627382961
 30
0
 11
109.1042473754377
 21
7.5
 31
0
  0
LINE
  8
1
 62
3
  6
DASHED
 10
105.9042473754377
 20
12.9011627382961
 30
0
 11
105.9042473754377
 21
7.5
 31
0
  0
LINE
  8
1
 62
3
  6
DASHED
 10
105.5042473754377
 20
12.84523257866511
 30
0
 11
105.5042473754377
 21
7.5
 31
0
  0
LINE
  8
1
 62
7
 10
39.5042473754377
 20
6
 30
0
 11
24.5042473754377
 21
6
 31
0
  0
LINE
  8
1
 62
7
 10
26.5042473754377
 20
-21.5
 30
0
 11
22.8042473754376
 21
-21.5
 31
0
  0
LINE
  8
1
 62
7
 10
26.5042473754377
 20
-24.49999999999999
 30
0
 11
22.8042473754376
 21
-24.49999999999999
 31
0
  0
LINE
  8
1
 62
7
 10
22.8042473754376
 20
-20.25
 30
0
 11
22.3042473754376
 21
-20.25
 31
0
  0
LINE
  8
1
 62
7
 10
22.8042473754376
 20
-25.75
 30
0
 11
22.3042473754376
 21
-25.75
 31
0
  0
LINE
  8
1
 62
7
 10
24.5042473754377
 20
-28.00000000000001
 30
0
 11
24.5042473754377
 21
-24.5
 31
0
  0
LINE
  8
1
 62
7
 10
24.5042473754377
 20
-19.5
 30
0
 11
23.2042473754377
 21
-19.5
 31
0
  0
LINE
  8
1
 62
7
 10
24.5042473754377
 20
28.00000000000001
 30
0
 11
28.0042473754377
 21
28.00000000000001
 31
0
  0
LINE
  8
1
 62
7
 10
-48.49575262456229
 20
-28.00000000000001
 30
0
 11
-48.49575262456229
 21
28.00000000000001
 31
0
  0
LINE
  8
1
 62
7
 10
-51.99575262456229
 20
28.00000000000001
 30
0
 11
-51.99575262456229
 21
-28.00000000000001
 31
0
  0
LINE
  8
1
 62
7
 10
-53.29575262456229
 20
-32.74999999999999
 30
0
 11
-53.29575262456228
 21
23.103527618041
 31
0
  0
LINE
  8
1
 62
7
 10
-67.89559815855893
 20
33
 30
0
 11
-57.29575262456232
 21
33
 31
0
  0
ARC
  8
1
 62
7
 10
8.303092909434362
 20
25.5
 30
0
 40
7.5
 50
90
 51
150.055891598348
  0
ARC
  8
1
 62
7
 10
-68.19675262456229
 20
-25.50000000000009
 30
0
 40
7.499999999999953
 50
209.9441084016519
 51
270
  0
ARC
  8
1
 62
7
 10
-67.89559815855887
 20
26.20000000000002
 30
0
 40
6.799999999999979
 50
90
 51
180
  0
ARC
  8
1
 62
7
 10
7.303092909434357
 20
24
 30
0
 40
6.49999999999996
 50
212.2233171691943
 51
245.1883684974294
  0
ARC
  8
1
 62
7
 10
8.303092909434362
 20
-25.50000000000009
 30
0
 40
7.499999999999958
 50
209.9441084016519
 51
270
  0
ARC
  8
1
 62
7
 10
7.303092909434357
 20
-23.99999999999999
 30
0
 40
6.499999999999979
 50
114.8116315025706
 51
147.7766828308067
  0
ARC
  8
1
 62
3
  6
DASHDOT
 10
107.5042473754377
 20
0
 30
0
 40
37.49999999999995
 50
37.55627180849745
 51
52.73283636466108
  0
ARC
  8
1
 62
3
  6
DASHDOT
 10
107.5042473754377
 20
0
 30
0
 40
37.50000000000001
 50
307.1825371100609
 51
322.2032419599133
  0
ARC
  8
1
 62
3
  6
DASHDOT
 10
107.5042473754377
 20
0
 30
0
 40
37.50000000000006
 50
217.6284581497313
 51
232.2886149291685
  0
ARC
  8
1
 62
3
  6
DASHDOT
 10
107.5042473754377
 20
0
 30
0
 40
37.50000000000005
 50
126.2492675313012
 51
143.5837302353993
  0
ARC
  8
1
 62
7
 10
76.91004925676432
 20
17.66356851945676
 30
0
 40
6.858664189549476
 50
309.5480691665328
 51
350.4519308334677
  0
ARC
  8
1
 62
7
 10
138.098445494111
 20
17.66356851945676
 30
0
 40
6.858664189549466
 50
189.5480691665321
 51
230.4519308334679
  0
ARC
  8
1
 62
7
 10
107.5042473754377
 20
-35.32713703891358
 30
0
 40
6.858664189549451
 50
69.54806916653241
 51
110.4519308334684
  0
ARC
  8
1
 62
7
 10
107.5042473754377
 20
0
 30
0
 40
32.75000000000006
 50
299.9999999999999
 51
359.9999999999999
  0
ARC
  8
1
 62
7
 10
107.5042473754377
 20
0
 30
0
 40
32.75000000000001
 50
180
 51
240
  0
ARC
  8
1
 62
7
 10
107.5042473754377
 20
0
 30
0
 40
32.75000000000001
 50
60.00000000000001
 51
65.00000000000003
  0
ARC
  8
1
 62
7
 10
107.5042473754377
 20
0
 30
0
 40
32.75000000000001
 50
60.00000000000001
 51
120
  0
ARC
  8
1
 62
7
 10
116.3792473754377
 20
15.37195091717382
 30
0
 40
14.99999999999997
 50
4.412072413355371
 51
59.99999999999994
  0
ARC
  8
1
 62
7
 10
125.2542473754377
 20
0
 30
0
 40
15
 50
359.9999999999998
 51
55.58792758664443
  0
ARC
  8
1
 62
7
 10
98.6292473754377
 20
-15.37195091717378
 30
0
 40
15.00000000000001
 50
239.9999999999999
 51
295.5879275866442
  0
ARC
  8
1
 62
7
 10
116.3792473754377
 20
-15.37195091717381
 30
0
 40
15.00000000000001
 50
244.4120724133554
 51
299.9999999999999
  0
ARC
  8
1
 62
7
 10
89.7542473754377
 20
0
 30
0
 40
15.00000000000001
 50
124.4120724133555
 51
180.0000000000001
  0
ARC
  8
1
 62
7
 10
107.5042473754377
 20
0
 30
0
 40
42.50000000000001
 50
223.1628971402917
 51
226.8371028597084
  0
ARC
  8
1
 62
7
 10
107.5042473754377
 20
0
 30
0
 40
42.50000000000003
 50
133.1628971402917
 51
136.8371028597083
  0
ARC
  8
1
 62
7
 10
107.5042473754377
 20
0
 30
0
 40
42.5
 50
43.16289714029166
 51
46.8371028597084
  0
ARC
  8
1
 62
7
 10
107.5042473754377
 20
0
 30
0
 40
42.49999999999997
 50
313.1628971402916
 51
316.8371028597083
  0
ARC
  8
1
 62
7
 10
98.6292473754377
 20
15.37195091717379
 30
0
 40
15
 50
120
 51
175.5879275866446
  0
ARC
  8
1
 62
7
 10
29.0042473754377
 20
-14.00000000000001
 30
0
 40
1
 50
90
 51
180
  0
ARC
  8
1
 62
7
 10
29.0042473754377
 20
14
 30
0
 40
1
 50
180
 51
270
  0
ARC
  8
1
 62
7
 10
-47.49575262456229
 20
-14.00000000000001
 30
0
 40
1
 50
90
 51
180
  0
ARC
  8
1
 62
7
 10
-47.49575262456229
 20
14
 30
0
 40
1
 50
180
 51
270
  0
ARC
  8
1
 62
7
 10
107.5042473754377
 20
0
 30
0
 40
12.99999999999999
 50
315
 51
135
  0
ARC
  8
1
 62
7
 10
107.5042473754377
 20
0
 30
0
 40
12.99999999999999
 50
135
 51
315
  0
ARC
  8
1
 62
7
 10
107.5042473754377
 20
0
 30
0
 40
5.999999999999996
 50
109.4712206344907
 51
70.52877936550931
  0
ARC
  8
1
 62
7
 10
107.5042473754377
 20
29
 30
0
 40
3.000000000000058
 50
337.7090296252414
 51
202.2909703747593
  0
ARC
  8
1
 62
7
 10
82.38951066568899
 20
-14.49999999999999
 30
0
 40
2.999999999999998
 50
97.70902962524124
 51
322.2909703747586
  0
ARC
  8
1
 62
7
 10
132.6189840851864
 20
-14.50000000000001
 30
0
 40
3.00000000000002
 50
217.7090296252409
 51
82.29097037475823
  0
CIRCLE
  8
1
 62
7
 10
107.5042473754377
 20
0
 30
0
 40
33.5
  0
CIRCLE
  8
1
 62
7
 10
134.0207516699332
 20
26.51650429449552
 30
0
 40
2.25
  0
CIRCLE
  8
1
 62
7
 10
80.98774308094212
 20
26.51650429449552
 30
0
 40
2.25
  0
CIRCLE
  8
1
 62
7
 10
80.98774308094212
 20
-26.51650429449555
 30
0
 40
2.25
  0
CIRCLE
  8
1
 62
7
 10
134.0207516699332
 20
-26.51650429449555
 30
0
 40
2.25
  0
CIRCLE
  8
1
 62
3
 10
118.1108490932359
 20
-10.60660171779821
 30
0
 40
1.5
  0
CIRCLE
  8
1
 62
7
 10
118.1108490932359
 20
-10.60660171779821
 30
0
 40
1.200000000000003
  0
CIRCLE
  8
1
 62
3
 10
96.89764565763952
 20
10.60660171779821
 30
0
 40
1.5
  0
CIRCLE
  8
1
 62
7
 10
96.89764565763952
 20
10.60660171779821
 30
0
 40
1.199999999999875
  0
CIRCLE
  8
1
 62
3
 10
33.5042473754377
 20
0
 30
0
 40
2
  0
CIRCLE
  8
1
 62
7
 10
33.5042473754377
 20
0
 30
0
 40
1.599999999999987
  0
CIRCLE
  8
1
 62
7
 10
107.5042473754376
 20
-23
 30
0
 40
1.599999999999994
  0
CIRCLE
  8
1
 62
7
 10
107.5042473754376
 20
-23
 30
0
 40
3
  0
CIRCLE
  8
1
 62
7
 10
87.58566308839559
 20
11.5
 30
0
 40
1.59999999999998
  0
CIRCLE
  8
1
 62
7
 10
87.58566308839559
 20
11.5
 30
0
 40
3
  0
CIRCLE
  8
1
 62
7
 10
127.4228316624797
 20
11.49999999999999
 30
0
 40
3
  0
CIRCLE
  8
1
 62
7
 10
127.4228316624797
 20
11.49999999999999
 30
0
 40
1.599999999999994
  0
CIRCLE
  8
1
 62
7
 10
107.5042473754377
 20
0
 30
0
 40
28
  0
TEXT
  8
1
 62
7
 10
-78.16437742903776
 20
77.35057570020416
 30
0
 40
3
  1
DC1701
 41
0.9
  7
SIMPLEX
  0
TEXT
  8
1
 62
7
 10
-78.16437742903776
 20
82.60057570020416
 30
0
 40
3
  1
TMB 0.6H
 41
0.9
  7
SIMPLEX
  0
ENDSEC
  0
EOF
