  0
SECTION
  2
HEADER
  9
$ACADVER
  1
AC1009
  9
$INSBASE
 10
0
 20
0
  9
$EXTMIN
 10
-95.55426315811577
 20
-55.00000000000003
  9
$EXTMAX
 10
176.5000000000001
 20
107.4572588491808
  9
$LIMMIN
 10
-95.55426315811577
 20
-55.00000000000003
  9
$LIMMAX
 10
176.5000000000001
 20
107.4572588491808
  9
$VIEWCTR
 10
10
 20
10
  9
$VIEWSIZE
 40
10
  9
$SNAPMODE
 70
0
  9
$SNAPUNIT
 10
1
 20
1
  9
$SNAPBASE
 10
0
 20
0
  9
$SNAPANG
 50
0
  9
$SNAPSTYLE
 70
0
  9
$SNAPISOPAIR
 70
0
  9
$GRIDMODE
 70
0
  9
$GRIDUNIT
 10
0
 20
0
  9
$ORTHOMODE
 70
0
  9
$REGENMODE
 70
1
  9
$FILLMODE
 70
1
  9
$QTEXTMODE
 70
0
  9
$DRAGMODE
 70
2
  9
$LTSCALE
 40
1
  9
$OSMODE
 70
0
  9
$ATTMODE
 70
1
  9
$TEXTSIZE
 40
3.5
  9
$TRACEWID
 40
0.5
  9
$TEXTSTYLE
  7
STANDARD
  9
$CLAYER
  8
0
  9
$CELTYPE
  6
BYLAYER
  9
$CECOLOR
 62
256
  9
$DIMSCALE
 40
1
  9
$DIMASZ
 40
0.18
  9
$DIMEXO
 40
0.0625
  9
$DIMDLI
 40
0.38
  9
$DIMRND
 40
0
  9
$DIMDLE
 40
0
  9
$DIMEXE
 40
0.18
  9
$DIMTP
 40
0
  9
$DIMTM
 40
0
  9
$DIMTXT
 40
0.18
  9
$DIMCEN
 40
0.09
  9
$DIMTSZ
 40
0
  9
$DIMTOL
 70
0
  9
$DIMLIM
 70
0
  9
$DIMTIH
 70
1
  9
$DIMTOH
 70
1
  9
$DIMSE1
 70
0
  9
$DIMSE2
 70
0
  9
$DIMTAD
 70
0
  9
$DIMZIN
 70
0
  9
$DIMBLK
  1

  9
$DIMASO
 70
1
  9
$DIMSHO
 70
1
  9
$DIMPOST
  1

  9
$DIMAPOST
  1

  9
$DIMALT
 70
0
  9
$DIMALTD
 70
2
  9
$DIMALTF
 40
25.4
  9
$DIMLFAC
 40
1
  9
$DIMTOFL
 70
0
  9
$DIMTVP
 40
0
  9
$DIMTIX
 70
0
  9
$DIMSOXD
 70
0
  9
$DIMSAH
 70
0
  9
$DIMBLK1
  1

  9
$DIMBLK2
  1

  9
$DIMSTYLE
  2
*UNNAMED
  9
$DIMCLRD
 70
0
  9
$DIMCLRE
 70
0
  9
$DIMCLRT
 70
0
  9
$DIMTFAC
 40
1
  9
$DIMGAP
 40
0.09
  9
$LUNITS
 70
2
  9
$LUPREC
 70
4
  9
$AXISMODE
 70
0
  9
$AXISUNIT
 10
0
 20
0
  9
$SKETCHINC
 40
0.1
  9
$FILLETRAD
 40
2
  9
$AUNITS
 70
0
  9
$AUPREC
 70
0
  9
$MENU
  1
ACAD
  9
$ELEVATION
 40
0
  9
$THICKNESS
 40
0
  9
$VIEWDIR
 10
0
 20
0
 30
1
  9
$LIMCHECK
 70
0
  9
$BLIPMODE
 70
1
  9
$CHAMFERA
 40
0
  9
$CHAMFERB
 40
0
  9
$FASTZOOM
 70
1
  9
$SKPOLY
 70
0
  9
$ANGBASE
 50
0
  9
$ANGDIR
 70
0
  9
$PDMODE
 70
0
  9
$PDSIZE
 40
0
  9
$PLINEWID
 40
0
  9
$COORDS
 70
2
  0
ENDSEC
  0
SECTION
  2
TABLES
  0
TABLE
  2
DIMSTYLE
 70
0
  0
ENDTAB
  0
TABLE
  2
LTYPE
 70
9
  0
LTYPE
  2
CONTINUOUS
 70
64
  3
Solid line
 72
65
 73
0
 40
0
  0
LTYPE
  2
BORDER
 70
64
  3
__ __ . __ __ .
 72
65
 73
6
 40
12.5288147507027
 49
3.57966135734363
 49
-1.789830678671815
 49
3.57966135734363
 49
-1.789830678671815
 49
0
 49
-1.789830678671815
  0
LTYPE
  2
CENTER
 70
64
  3
____ _ ____ _
 72
65
 73
4
 40
14.31864542937452
 49
8.949153393359076
 49
-1.789830678671815
 49
1.789830678671815
 49
-1.789830678671815
  0
LTYPE
  2
DASHDOT
 70
64
  3
__ . __ . __ .
 72
65
 73
4
 40
7.15932271468726
 49
3.57966135734363
 49
-1.789830678671815
 49
0
 49
-1.789830678671815
  0
LTYPE
  2
DASHED
 70
64
  3
__ __ __ __ __
 72
65
 73
2
 40
5.369492036015445
 49
3.57966135734363
 49
-1.789830678671815
  0
LTYPE
  2
DIVIDE
 70
64
  3
__ . . __ . . 
 72
65
 73
6
 40
8.949153393359076
 49
3.57966135734363
 49
-1.789830678671815
 49
0
 49
-1.789830678671815
 49
0
 49
-1.789830678671815
  0
LTYPE
  2
DOT
 70
64
  3
..............
 72
65
 73
4
 40
3.57966135734363
 49
0
 49
-1.789830678671815
 49
0
 49
-1.789830678671815
  0
LTYPE
  2
HIDDEN
 70
64
  3
_ _ _ _ _ _ _
 72
65
 73
2
 40
2.684746018007723
 49
1.789830678671815
 49
-0.8949153393359075
  0
LTYPE
  2
PHANTOM
 70
64
  3
_____ _ _ _____ _ _ 
 72
65
 73
6
 40
17.89830678671815
 49
8.949153393359076
 49
-1.789830678671815
 49
1.789830678671815
 49
-1.789830678671815
 49
1.789830678671815
 49
-1.789830678671815
  0
ENDTAB
  0
TABLE
  2
LAYER
 70
3
  0
LAYER
  2
1
 70
0
 62
7
  6
CONTINUOUS
  0
LAYER
  2
0
 70
0
 62
7
  6
CONTINUOUS
  0
ENDTAB
  0
TABLE
  2
STYLE
 70
4
  0
STYLE
  2
STANDARD
 70
0
 40
0
 41
1
 50
0
 71
0
 42
3.5
  3
txt
  4

  0
STYLE
  2
SIMPLEX
 70
0
 40
0
 41
1
 50
0
 71
0
 42
3.5
  3
simplex
  4

  0
STYLE
  2
COMPLEX
 70
0
 40
0
 41
1
 50
0
 71
0
 42
3.5
  3
complex
  4

  0
STYLE
  2
ITALIC
 70
0
 40
0
 41
1
 50
0
 71
0
 42
3.5
  3
italic
  4

  0
ENDTAB
  0
TABLE
  2
VIEW
 70
0
  0
ENDTAB
  0
ENDSEC
  0
SECTION
  2
BLOCKS
  0
ENDSEC
  0
SECTION
  2
ENTITIES
  0
LINE
  8
1
 62
3
  6
DASHDOT
 10
133.5000000000001
 20
17.5953553632168
 30
0
 11
133.5000000000001
 21
7.995651449672089
 31
0
  0
LINE
  8
1
 62
7
 10
23.4
 20
-26.25000000000005
 30
0
 11
25
 21
-26.25000000000005
 31
0
  0
LINE
  8
1
 62
7
 10
24.5
 20
-26.25000000000005
 30
0
 11
24.5
 21
-33.75000000000004
 31
0
  0
LINE
  8
1
 62
7
 10
25
 20
-33.75000000000004
 30
0
 11
23.4
 21
-33.75000000000004
 31
0
  0
LINE
  8
1
 62
7
 10
27.50000000000001
 20
-28.00000000000005
 30
0
 11
27.5
 21
35.99999999999996
 31
0
  0
LINE
  8
1
 62
7
 10
27.5
 20
35.99999999999996
 30
0
 11
31.50000000000001
 21
35.99999999999996
 31
0
  0
LINE
  8
1
 62
7
 10
31.50000000000001
 20
35.99999999999996
 30
0
 11
31.50000000000001
 21
16.99999999999996
 31
0
  0
LINE
  8
1
 62
7
 10
47.50000000000001
 20
15.99999999999996
 30
0
 11
32.50000000000001
 21
15.99999999999996
 31
0
  0
LINE
  8
1
 62
7
 10
47.50000000000001
 20
-16.00000000000006
 30
0
 11
47.50000000000001
 21
15.99999999999996
 31
0
  0
LINE
  8
1
 62
7
 10
31.50000000000001
 20
-36.00000000000006
 30
0
 11
27.5
 21
-36.00000000000006
 31
0
  0
LINE
  8
1
 62
7
 10
31.50000000000001
 20
-36.00000000000006
 30
0
 11
27.5
 21
-36.00000000000006
 31
0
  0
LINE
  8
1
 62
7
 10
31.50000000000001
 20
-36.00000000000006
 30
0
 11
27.5
 21
-36.00000000000006
 31
0
  0
LINE
  8
1
 62
7
 10
32.50000000000001
 20
-16.00000000000006
 30
0
 11
47.50000000000001
 21
-16.00000000000006
 31
0
  0
LINE
  8
1
 62
7
 10
31.50000000000001
 20
-26.00000000000005
 30
0
 11
29.50000000000001
 21
-28.00000000000005
 31
0
  0
LINE
  8
1
 62
7
 10
29.50000000000001
 20
-28.00000000000005
 30
0
 11
29.50000000000001
 21
-32.00000000000004
 31
0
  0
LINE
  8
1
 62
7
 10
29.50000000000001
 20
-32.00000000000004
 30
0
 11
31.50000000000001
 21
-34.00000000000004
 31
0
  0
LINE
  8
1
 62
7
 10
23.09999999999999
 20
-26.55000000000005
 30
0
 11
23.09999999999999
 21
-33.45000000000004
 31
0
  0
LINE
  8
1
 62
7
 10
23.09999999999999
 20
-26.55000000000005
 30
0
 11
23.4
 21
-26.25000000000005
 31
0
  0
LINE
  8
1
 62
7
 10
23.4
 20
-33.75000000000004
 30
0
 11
23.09999999999999
 21
-33.45000000000004
 31
0
  0
LINE
  8
1
 62
7
 10
131.0000000000001
 20
7.071067811865447
 30
0
 11
131.0000000000001
 21
9.499999999999972
 31
0
  0
LINE
  8
1
 62
7
 10
136.0000000000001
 20
9.499999999999972
 30
0
 11
136.0000000000001
 21
7.071067811865447
 31
0
  0
LINE
  8
1
 62
7
 10
136.0000000000001
 20
9.499999999999972
 30
0
 11
131.0000000000001
 21
9.499999999999972
 31
0
  0
LINE
  8
1
 62
3
  6
DASHED
 10
136.0000000000001
 20
9.499999999999972
 30
0
 11
136.0000000000001
 21
15.69417843108926
 31
0
  0
LINE
  8
1
 62
3
  6
DASHED
 10
131.0000000000001
 20
9.499999999999972
 30
0
 11
131.0000000000001
 21
15.69417843108926
 31
0
  0
LINE
  8
1
 62
3
  6
DASHED
 10
135.5000000000001
 20
9.499999999999972
 30
0
 11
135.5000000000001
 21
15.69417843108926
 31
0
  0
LINE
  8
1
 62
3
  6
DASHED
 10
131.5000000000001
 20
9.499999999999972
 30
0
 11
131.5000000000001
 21
15.69417843108926
 31
0
  0
LINE
  8
1
 62
3
  6
DASHED
 10
140.7117149328585
 20
-2.500000000000021
 30
0
 11
149.2198852022621
 21
-2.500000000000021
 31
0
  0
LINE
  8
1
 62
3
  6
DASHED
 10
140.7117149328585
 20
2.499999999999979
 30
0
 11
149.2198852022621
 21
2.499999999999979
 31
0
  0
LINE
  8
1
 62
3
  6
DASHED
 10
140.7117149328585
 20
-2.000000000000021
 30
0
 11
149.2198852022621
 21
-2.000000000000021
 31
0
  0
LINE
  8
1
 62
3
  6
DASHED
 10
140.7117149328585
 20
1.999999999999979
 30
0
 11
149.2198852022621
 21
1.999999999999979
 31
0
  0
LINE
  8
1
 62
7
 10
27.50000000000001
 20
9.499999999999972
 30
0
 11
47.50000000000001
 21
9.499999999999972
 31
0
  0
LINE
  8
1
 62
7
 10
27.50000000000001
 20
-7.500000000000021
 30
0
 11
47.50000000000001
 21
-7.500000000000021
 31
0
  0
LINE
  8
1
 62
3
 10
37.00000000000004
 20
15.99999999999996
 30
0
 11
37.00000000000002
 21
9.499999999999972
 31
0
  0
LINE
  8
1
 62
3
 10
42.00000000000004
 20
15.99999999999996
 30
0
 11
42.00000000000002
 21
9.499999999999972
 31
0
  0
LINE
  8
1
 62
3
  6
DASHDOT
 10
39.50000000000004
 20
17.29999999999995
 30
0
 11
39.50000000000002
 21
7.071067811865447
 31
0
  0
LINE
  8
1
 62
7
 10
37.50000000000004
 20
15.99999999999996
 30
0
 11
37.50000000000002
 21
9.499999999999972
 31
0
  0
LINE
  8
1
 62
7
 10
41.50000000000004
 20
15.99999999999996
 30
0
 11
41.50000000000002
 21
9.499999999999972
 31
0
  0
LINE
  8
1
 62
3
 10
31.50000000000001
 20
21.74999999999996
 30
0
 11
27.50000000000001
 21
21.74999999999996
 31
0
  0
LINE
  8
1
 62
3
 10
31.53175416344815
 20
16.74999999999996
 30
0
 11
27.50000000000001
 21
16.74999999999996
 31
0
  0
LINE
  8
1
 62
3
  6
DASHDOT
 10
32.29999999999999
 20
19.24999999999996
 30
0
 11
26.70000000000001
 21
19.24999999999996
 31
0
  0
LINE
  8
1
 62
7
 10
31.50000000000001
 20
21.24999999999996
 30
0
 11
27.50000000000001
 21
21.24999999999996
 31
0
  0
LINE
  8
1
 62
7
 10
31.50000000000001
 20
17.24999999999996
 30
0
 11
27.50000000000001
 21
17.24999999999996
 31
0
  0
LINE
  8
1
 62
3
  6
DASHDOT
 10
140.1469814672021
 20
-2.131628207280301e-014
 30
0
 11
150.4346383288991
 21
-2.131628207280301e-014
 31
0
  0
LINE
  8
1
 62
3
  6
DASHDOT
 10
137.4592152600921
 20
-2.131628207280301e-014
 30
0
 11
129.540784739908
 21
-2.131628207280301e-014
 31
0
  0
LINE
  8
1
 62
3
  6
DASHDOT
 10
133.5000000000001
 20
3.959215260092023
 30
0
 11
133.5000000000001
 21
-3.959215260092058
 31
0
  0
LINE
  8
1
 62
3
  6
DASHDOT
 10
47.50000000000001
 20
-4.263256414560601e-014
 30
0
 11
49.26758921524227
 21
-4.263256414560601e-014
 31
0
  0
LINE
  8
1
 62
3
  6
DASHDOT
 10
43.50000000000002
 20
-4.263256414560601e-014
 30
0
 11
35.50000000000004
 21
-2.131628207280301e-014
 31
0
  0
LINE
  8
1
 62
3
  6
DASHDOT
 10
39.50000000000002
 20
3.999999999999972
 30
0
 11
39.50000000000002
 21
-4.000000000000007
 31
0
  0
LINE
  8
1
 62
7
 10
-65
 20
35.99999999999996
 30
0
 11
-61
 21
35.99999999999996
 31
0
  0
LINE
  8
1
 62
7
 10
-45.00000000000001
 20
15.99999999999996
 30
0
 11
-60
 21
15.99999999999996
 31
0
  0
LINE
  8
1
 62
7
 10
-45.00000000000001
 20
-16.00000000000006
 30
0
 11
-45.00000000000001
 21
15.99999999999996
 31
0
  0
LINE
  8
1
 62
7
 10
-61
 20
-36.00000000000006
 30
0
 11
-65
 21
-36.00000000000006
 31
0
  0
LINE
  8
1
 62
7
 10
-61
 20
-36.00000000000006
 30
0
 11
-65
 21
-36.00000000000006
 31
0
  0
LINE
  8
1
 62
7
 10
-61
 20
-36.00000000000006
 30
0
 11
-65
 21
-36.00000000000006
 31
0
  0
LINE
  8
1
 62
7
 10
-60
 20
-16.00000000000006
 30
0
 11
-45.00000000000001
 21
-16.00000000000006
 31
0
  0
LINE
  8
1
 62
7
 10
-60
 20
-16.00000000000006
 30
0
 11
-45.00000000000001
 21
-16.00000000000006
 31
0
  0
LINE
  8
1
 62
3
  6
DASHDOT
 10
-45.00000000000001
 20
-4.263256414560601e-014
 30
0
 11
-43.23241078475773
 21
-4.263256414560601e-014
 31
0
  0
LINE
  8
1
 62
7
 10
9.083529879503479
 20
70.92711124288149
 30
0
 11
9.083529879503479
 21
74.25673021942978
 31
0
  0
LINE
  8
1
 62
7
 10
-83.40828617179298
 20
70.92711124288149
 30
0
 11
-83.40828617179298
 21
74.24813990699579
 31
0
  0
LINE
  8
1
 62
3
  6
DASHDOT
 10
-92.49999999999997
 20
-2.842170943040401e-014
 30
0
 11
-95.55426315811577
 21
-2.842170943040401e-014
 31
0
  0
LINE
  8
1
 62
7
 10
-71.20000000000002
 20
42.99999999999997
 30
0
 11
-71.20000000000002
 21
-43.00000000000005
 31
0
  0
LINE
  8
1
 62
7
 10
-71.20000000000002
 20
42.99999999999997
 30
0
 11
-68
 21
42.99999999999997
 31
0
  0
LINE
  8
1
 62
7
 10
-67.5
 20
29.99999999999997
 30
0
 11
-67.5
 21
-42.00000000000004
 31
0
  0
LINE
  8
1
 62
7
 10
-68
 20
-43.00000000000006
 30
0
 11
-71.20000000000002
 21
-43.00000000000005
 31
0
  0
LINE
  8
1
 62
7
 10
-68
 20
41.99999999999997
 30
0
 11
-67.5
 21
41.99999999999996
 31
0
  0
LINE
  8
1
 62
7
 10
-67.5
 20
41.99999999999996
 30
0
 11
-67.5
 21
31.9318516525781
 31
0
  0
LINE
  8
1
 62
7
 10
-67.5
 20
31.9318516525781
 30
0
 11
-67
 21
30.06582624879366
 31
0
  0
LINE
  8
1
 62
7
 10
-68
 20
31.86602540378439
 30
0
 11
-67.5
 21
29.99999999999997
 31
0
  0
LINE
  8
1
 62
7
 10
-67.5
 20
41.09999999999995
 30
0
 11
-66.09999999999999
 21
41.09999999999995
 31
0
  0
LINE
  8
1
 62
7
 10
-65.59999999999999
 20
40.59999999999997
 30
0
 11
-65.59999999999999
 21
34.39999999999996
 31
0
  0
LINE
  8
1
 62
7
 10
-67.5
 20
33.89999999999998
 30
0
 11
-66.09999999999999
 21
33.89999999999996
 31
0
  0
LINE
  8
1
 62
7
 10
-67
 20
41.09999999999995
 30
0
 11
-67
 21
33.89999999999998
 31
0
  0
LINE
  8
1
 62
7
 10
-65.59999999999999
 20
40.59999999999997
 30
0
 11
-66.09999999999999
 21
41.09999999999995
 31
0
  0
LINE
  8
1
 62
7
 10
-66.09999999999999
 20
33.89999999999996
 30
0
 11
-65.59999999999999
 21
34.39999999999996
 31
0
  0
LINE
  8
1
 62
7
 10
-67.5
 20
-42.00000000000004
 30
0
 11
-67
 21
-42.00000000000004
 31
0
  0
LINE
  8
1
 62
7
 10
-67
 20
-25.50000000000006
 30
0
 11
-65
 21
-25.50000000000006
 31
0
  0
LINE
  8
1
 62
7
 10
-67
 20
30.06582624879366
 30
0
 11
-67
 21
-42.00000000000004
 31
0
  0
LINE
  8
1
 62
7
 10
-67
 20
-34.50000000000006
 30
0
 11
-65
 21
-34.50000000000006
 31
0
  0
LINE
  8
1
 62
7
 10
-68
 20
-43.00000000000006
 30
0
 11
-68
 21
-34.25000000000006
 31
0
  0
LINE
  8
1
 62
7
 10
-84.64999999999998
 20
42.49999999999997
 30
0
 11
-71.39999999999998
 21
42.49999999999997
 31
0
  0
LINE
  8
1
 62
7
 10
-71.39999999999998
 20
-42.50000000000003
 30
0
 11
-84.39999999999998
 21
-42.50000000000003
 31
0
  0
LINE
  8
1
 62
7
 10
-71.39999999999998
 20
42.49999999999997
 30
0
 11
-71.39999999999998
 21
-42.50000000000003
 31
0
  0
LINE
  8
1
 62
7
 10
-92.49999999999997
 20
40.99999999999997
 30
0
 11
-90.39999999999998
 21
40.99999999999997
 31
0
  0
LINE
  8
1
 62
7
 10
-92.49999999999997
 20
-55.00000000000003
 30
0
 11
-90.39999999999998
 21
-55.00000000000003
 31
0
  0
LINE
  8
1
 62
7
 10
-84.64999999999998
 20
70.92711124288149
 30
0
 11
-84.64999999999998
 21
42.49999999999997
 31
0
  0
LINE
  8
1
 62
7
 10
-82.14999999999998
 20
70.92711124288149
 30
0
 11
-82.14999999999998
 21
42.49999999999997
 31
0
  0
LINE
  8
1
 62
7
 10
-84.64999999999998
 20
70.92711124288149
 30
0
 11
-82.14999999999998
 21
70.92711124288149
 31
0
  0
LINE
  8
1
 62
7
 10
-83.00941948894258
 20
74.27736577882308
 30
0
 11
-83.00941948894258
 21
70.92711124288149
 31
0
  0
LINE
  8
1
 62
7
 10
-82.75510437333558
 20
74.27736577882308
 30
0
 11
-82.75510437333558
 21
70.92711124288149
 31
0
  0
LINE
  8
1
 62
7
 10
-83.79058051105729
 20
70.92711124288149
 30
0
 11
-83.79058051105729
 21
74.27736577882308
 31
0
  0
LINE
  8
1
 62
7
 10
-84.04489562666439
 20
70.92711124288149
 30
0
 11
-84.04489562666439
 21
74.27736577882308
 31
0
  0
LINE
  8
1
 62
3
  6
DASHDOT
 10
0
 20
0
 30
0
 11
-3.05426315811572
 21
-2.842170943040401e-014
 31
0
  0
LINE
  8
1
 62
7
 10
133.4298466597931
 20
71.23073203382268
 30
0
 11
133.4298466597931
 21
42.9999427733207
 31
0
  0
LINE
  8
1
 62
7
 10
174.5000000000001
 20
36.66060555964671
 30
0
 11
174.5000000000001
 21
12.9614813968157
 31
0
  0
LINE
  8
1
 62
7
 10
174.5000000000001
 20
-12.96148139681574
 30
0
 11
174.5000000000001
 21
-36.66060555964674
 31
0
  0
LINE
  8
1
 62
7
 10
146.4614813968158
 20
-41.00000000000003
 30
0
 11
170.1606055596467
 21
-41.00000000000003
 31
0
  0
LINE
  8
1
 62
7
 10
96.83939444035332
 20
-41.00000000000002
 30
0
 11
120.5385186031843
 21
-41.00000000000003
 31
0
  0
LINE
  8
1
 62
7
 10
92.5
 20
-12.96148139681574
 30
0
 11
92.5
 21
-36.66060555964673
 31
0
  0
LINE
  8
1
 62
7
 10
92.5
 20
36.66060555964671
 30
0
 11
92.5
 21
12.9614813968157
 31
0
  0
LINE
  8
1
 62
7
 10
96.83939444035327
 20
40.99999999999997
 30
0
 11
120.5385186031843
 21
40.99999999999997
 31
0
  0
LINE
  8
1
 62
7
 10
146.4614813968158
 20
40.99999999999997
 30
0
 11
170.1606055596467
 21
40.99999999999997
 31
0
  0
LINE
  8
1
 62
3
  6
DASHDOT
 10
95.43324091019687
 20
38.06675908980313
 30
0
 11
102.0785173990649
 21
31.42148260093504
 31
0
  0
LINE
  8
1
 62
3
  6
DASHDOT
 10
95.43324091019687
 20
-38.06675908980316
 30
0
 11
102.078517399065
 21
-31.42148260093509
 31
0
  0
LINE
  8
1
 62
3
  6
DASHDOT
 10
171.5667590898032
 20
-38.06675908980316
 30
0
 11
164.9214826009351
 21
-31.42148260093507
 31
0
  0
LINE
  8
1
 62
3
  6
DASHDOT
 10
171.5667590898032
 20
38.06675908980313
 30
0
 11
164.9214826009351
 21
31.42148260093504
 31
0
  0
LINE
  8
1
 62
7
 10
131.0000000000001
 20
71.23073203382268
 30
0
 11
136.0000000000001
 21
71.23073203382268
 31
0
  0
LINE
  8
1
 62
7
 10
131.0000000000001
 20
71.23073203382268
 30
0
 11
131.0000000000001
 21
42.91515279986658
 31
0
  0
LINE
  8
1
 62
7
 10
136.0000000000001
 20
71.23073203382268
 30
0
 11
136.0000000000001
 21
42.98190602703713
 31
0
  0
LINE
  8
1
 62
7
 10
21.3
 20
42.99999999999997
 30
0
 11
21.3
 21
-43.00000000000006
 31
0
  0
LINE
  8
1
 62
7
 10
21.3
 20
42.99999999999997
 30
0
 11
24.5
 21
42.99999999999997
 31
0
  0
LINE
  8
1
 62
7
 10
24.5
 20
29.99999999999997
 30
0
 11
25
 21
29.99999999999997
 31
0
  0
LINE
  8
1
 62
7
 10
25
 20
29.99999999999997
 30
0
 11
25
 21
-42.00000000000003
 31
0
  0
LINE
  8
1
 62
7
 10
21.3
 20
22.49999999999997
 30
0
 11
25
 21
22.49999999999997
 31
0
  0
LINE
  8
1
 62
7
 10
25
 20
-22.50000000000006
 30
0
 11
21.3
 21
-22.50000000000006
 31
0
  0
LINE
  8
1
 62
7
 10
24.5
 20
-43.00000000000006
 30
0
 11
21.3
 21
-43.00000000000006
 31
0
  0
LINE
  8
1
 62
7
 10
24.5
 20
41.99999999999997
 30
0
 11
25
 21
41.99999999999997
 31
0
  0
LINE
  8
1
 62
7
 10
25
 20
41.99999999999997
 30
0
 11
25
 21
31.9318516525781
 31
0
  0
LINE
  8
1
 62
7
 10
25
 20
31.9318516525781
 30
0
 11
25.5
 21
30.06582624879366
 31
0
  0
LINE
  8
1
 62
7
 10
25.5
 20
30.06582624879366
 30
0
 11
25.5
 21
-28.00000000000003
 31
0
  0
LINE
  8
1
 62
7
 10
24.5
 20
31.86602540378439
 30
0
 11
25
 21
29.99999999999997
 31
0
  0
LINE
  8
1
 62
7
 10
24.5
 20
32.99999999999997
 30
0
 11
25
 21
32.99999999999997
 31
0
  0
LINE
  8
1
 62
7
 10
25
 20
41.09999999999997
 30
0
 11
26.40000000000001
 21
41.09999999999997
 31
0
  0
LINE
  8
1
 62
7
 10
26.90000000000001
 20
40.59999999999997
 30
0
 11
26.90000000000001
 21
34.39999999999998
 31
0
  0
LINE
  8
1
 62
7
 10
25
 20
33.89999999999998
 30
0
 11
26.40000000000001
 21
33.89999999999998
 31
0
  0
LINE
  8
1
 62
7
 10
25.5
 20
41.09999999999997
 30
0
 11
25.5
 21
33.89999999999998
 31
0
  0
LINE
  8
1
 62
7
 10
26.90000000000001
 20
40.59999999999997
 30
0
 11
26.40000000000001
 21
41.09999999999997
 31
0
  0
LINE
  8
1
 62
7
 10
26.40000000000001
 20
33.89999999999998
 30
0
 11
26.90000000000001
 21
34.39999999999998
 31
0
  0
LINE
  8
1
 62
7
 10
25
 20
-42.00000000000003
 30
0
 11
25.5
 21
-42.00000000000003
 31
0
  0
LINE
  8
1
 62
7
 10
21.3
 20
-25.75000000000006
 30
0
 11
25
 21
-25.75000000000006
 31
0
  0
LINE
  8
1
 62
7
 10
21.3
 20
-34.25000000000006
 30
0
 11
24.5
 21
-34.25000000000005
 31
0
  0
LINE
  8
1
 62
7
 10
25.5
 20
-32.00000000000003
 30
0
 11
25.5
 21
-42.00000000000003
 31
0
  0
LINE
  8
1
 62
7
 10
25.5
 20
-25.50000000000006
 30
0
 11
27.5
 21
-25.50000000000005
 31
0
  0
LINE
  8
1
 62
7
 10
25.5
 20
-34.50000000000006
 30
0
 11
27.5
 21
-34.50000000000006
 31
0
  0
LINE
  8
1
 62
7
 10
24.5
 20
-43.00000000000006
 30
0
 11
24.5
 21
-34.25000000000005
 31
0
  0
LINE
  8
1
 62
7
 10
25
 20
-37.00000000000006
 30
0
 11
25.5
 21
-37.00000000000006
 31
0
  0
LINE
  8
1
 62
7
 10
25
 20
-23.75000000000004
 30
0
 11
25.5
 21
-23.75000000000003
 31
0
  0
LINE
  8
1
 62
7
 10
134.0695540734569
 20
74.80601760292589
 30
0
 11
134.0695540734569
 21
71.23073203382268
 31
0
  0
LINE
  8
1
 62
7
 10
134.6359667421385
 20
74.74308286196128
 30
0
 11
134.6359667421385
 21
71.23073203382268
 31
0
  0
LINE
  8
1
 62
7
 10
135.2023794108201
 20
74.68014812099668
 30
0
 11
135.2023794108201
 21
71.23073203382268
 31
0
  0
LINE
  8
1
 62
7
 10
131.79762058918
 20
71.23073203382268
 30
0
 11
131.79762058918
 21
74.68014812099668
 31
0
  0
LINE
  8
1
 62
7
 10
132.3640332578616
 20
71.23073203382268
 30
0
 11
132.3640332578616
 21
74.74308286196128
 31
0
  0
LINE
  8
1
 62
7
 10
132.9304459265432
 20
71.23073203382268
 30
0
 11
132.9304459265432
 21
74.80601760292589
 31
0
  0
LINE
  8
1
 62
7
 10
7.850000000000028
 20
42.49999999999997
 30
0
 11
21.10000000000003
 21
42.49999999999997
 31
0
  0
LINE
  8
1
 62
7
 10
21.10000000000003
 20
-42.50000000000003
 30
0
 11
8.100000000000028
 21
-42.50000000000003
 31
0
  0
LINE
  8
1
 62
7
 10
7.100000000000009
 20
-23.10000000000005
 30
0
 11
21.10000000000003
 21
-23.10000000000005
 31
0
  0
LINE
  8
1
 62
7
 10
21.10000000000003
 20
23.09999999999999
 30
0
 11
7.100000000000028
 21
23.09999999999999
 31
0
  0
LINE
  8
1
 62
7
 10
21.10000000000003
 20
42.49999999999997
 30
0
 11
21.10000000000003
 21
-42.50000000000003
 31
0
  0
LINE
  8
1
 62
7
 10
0
 20
40.99999999999997
 30
0
 11
2.1
 21
40.99999999999997
 31
0
  0
LINE
  8
1
 62
7
 10
0
 20
40.99999999999997
 30
0
 11
8.881784197001252e-015
 21
-55.00000000000003
 31
0
  0
LINE
  8
1
 62
7
 10
0
 20
22.49999999999997
 30
0
 11
2.1
 21
22.49999999999997
 31
0
  0
LINE
  8
1
 62
7
 10
2.1
 20
-22.50000000000003
 30
0
 11
8.881784197001252e-015
 21
-22.50000000000003
 31
0
  0
LINE
  8
1
 62
7
 10
8.881784197001252e-015
 20
-46.25000000000003
 30
0
 11
2.100000000000001
 21
-46.25000000000003
 31
0
  0
LINE
  8
1
 62
7
 10
8.881784197001252e-015
 20
-51.75000000000003
 30
0
 11
2.1
 21
-51.75000000000003
 31
0
  0
LINE
  8
1
 62
7
 10
8.881784197001252e-015
 20
-55.00000000000003
 30
0
 11
2.1
 21
-55.00000000000003
 31
0
  0
LINE
  8
1
 62
3
  6
DASHDOT
 10
-1.188878415873591
 20
-49.00000000000003
 30
0
 11
3.846905820675099
 21
-49.00000000000003
 31
0
  0
LINE
  8
1
 62
7
 10
7.850000000000028
 20
70.92711124288149
 30
0
 11
7.850000000000028
 21
42.49999999999997
 31
0
  0
LINE
  8
1
 62
7
 10
10.35000000000003
 20
70.92711124288149
 30
0
 11
10.35000000000003
 21
42.49999999999997
 31
0
  0
LINE
  8
1
 62
7
 10
7.850000000000028
 20
70.92711124288149
 30
0
 11
10.35000000000003
 21
70.92711124288149
 31
0
  0
LINE
  8
1
 62
7
 10
9.490580511057379
 20
74.27736577882308
 30
0
 11
9.490580511057379
 21
70.92711124288149
 31
0
  0
LINE
  8
1
 62
7
 10
9.74489562666445
 20
74.27736577882308
 30
0
 11
9.74489562666445
 21
70.92711124288149
 31
0
  0
LINE
  8
1
 62
7
 10
8.709419488942681
 20
70.92711124288149
 30
0
 11
8.709419488942681
 21
74.27736577882308
 31
0
  0
LINE
  8
1
 62
7
 10
8.45510437333561
 20
70.92711124288149
 30
0
 11
8.45510437333561
 21
74.27736577882308
 31
0
  0
LINE
  8
1
 62
3
  6
DASHDOT
 10
-93.50769237121537
 20
-49.00000000000003
 30
0
 11
-89.20517098358259
 21
-49.00000000000003
 31
0
  0
LINE
  8
1
 62
7
 10
2.1
 20
40.99999999999997
 30
0
 11
2.1
 21
-55.00000000000003
 31
0
  0
LINE
  8
1
 62
7
 10
24.5
 20
42.99999999999997
 30
0
 11
24.5
 21
29.99999999999997
 31
0
  0
LINE
  8
1
 62
7
 10
-92.49999999999997
 20
40.99999999999997
 30
0
 11
-92.49999999999997
 21
-55.00000000000003
 31
0
  0
LINE
  8
1
 62
7
 10
-90.39999999999998
 20
-55.00000000000003
 30
0
 11
-90.39999999999998
 21
40.99999999999997
 31
0
  0
LINE
  8
1
 62
7
 10
-68
 20
-34.25000000000006
 30
0
 11
-68
 21
42.99999999999997
 31
0
  0
LINE
  8
1
 62
7
 10
-67.5
 20
29.99999999999997
 30
0
 11
-68
 21
29.99999999999997
 31
0
  0
LINE
  8
1
 62
7
 10
29.50000000000001
 20
-28.00000000000005
 30
0
 11
25
 21
-28.00000000000005
 31
0
  0
LINE
  8
1
 62
7
 10
29.50000000000001
 20
-32.00000000000004
 30
0
 11
25
 21
-32.00000000000005
 31
0
  0
LINE
  8
1
 62
7
 10
27.5
 20
-32.00000000000004
 30
0
 11
27.5
 21
-36.00000000000006
 31
0
  0
LINE
  8
1
 62
7
 10
31.50000000000001
 20
-17.00000000000006
 30
0
 11
31.50000000000001
 21
-36.00000000000006
 31
0
  0
LINE
  8
1
 62
7
 10
47.50000000000001
 20
7.499999999999936
 30
0
 11
27.50000000000001
 21
7.499999999999936
 31
0
  0
LINE
  8
1
 62
7
 10
-61
 20
35.99999999999996
 30
0
 11
-61
 21
-36.00000000000006
 31
0
  0
LINE
  8
1
 62
7
 10
-65
 20
35.99999999999996
 30
0
 11
-65
 21
-36.00000000000006
 31
0
  0
ARC
  8
1
 62
7
 10
133.5000000000001
 20
-2.131628207280301e-014
 30
0
 40
7.499999999999994
 50
109.4712206344907
 51
70.52877936550928
  0
ARC
  8
1
 62
7
 10
32.50000000000001
 20
16.99999999999996
 30
0
 40
0.9999999999999965
 50
180
 51
270
  0
ARC
  8
1
 62
7
 10
32.50000000000001
 20
-17.00000000000006
 30
0
 40
1
 50
90
 51
180
  0
ARC
  8
1
 62
7
 10
-60
 20
16.99999999999996
 30
0
 40
1
 50
180
 51
270
  0
ARC
  8
1
 62
7
 10
-60
 20
-17.00000000000006
 30
0
 40
1
 50
90
 51
180
  0
ARC
  8
1
 62
7
 10
133.5000000000001
 20
-2.131628207280301e-014
 30
0
 40
42.00000000000001
 50
60.00000000000001
 51
120
  0
ARC
  8
1
 62
7
 10
133.5000000000001
 20
-2.131628207280301e-014
 30
0
 40
42.00000000000006
 50
180
 51
239.9999999999999
  0
ARC
  8
1
 62
7
 10
133.5000000000001
 20
-2.131628207280301e-014
 30
0
 40
42.00000000000006
 50
299.9999999999999
 51
359.9999999999999
  0
ARC
  8
1
 62
7
 10
144.5000000000001
 20
19.05255888325763
 30
0
 40
20.00000000000003
 50
8.859609661762065
 51
60.00000000000002
  0
ARC
  8
1
 62
7
 10
133.5000000000001
 20
-2.131628207280301e-014
 30
0
 40
55.00000000000008
 50
131.8018441931412
 51
138.198155806859
  0
ARC
  8
1
 62
7
 10
133.5000000000001
 20
-2.131628207280301e-014
 30
0
 40
55.00000000000001
 50
41.80184419314109
 51
48.19815580685903
  0
ARC
  8
1
 62
7
 10
133.5000000000001
 20
-2.131628207280301e-014
 30
0
 40
54.99999999999992
 50
311.8018441931409
 51
318.198155806859
  0
ARC
  8
1
 62
7
 10
133.5000000000001
 20
-2.131628207280301e-014
 30
0
 40
55.00000000000009
 50
221.801844193141
 51
228.1981558068589
  0
ARC
  8
1
 62
3
  6
DASHDOT
 10
133.5000000000001
 20
-2.131628207280301e-014
 30
0
 40
49.00000000000006
 50
128.3841217090013
 51
141.8111293288861
  0
ARC
  8
1
 62
3
  6
DASHDOT
 10
133.5000000000001
 20
-2.131628207280301e-014
 30
0
 40
49.00000000000011
 50
218.3841217090011
 51
231.8111293288859
  0
ARC
  8
1
 62
3
  6
DASHDOT
 10
133.5000000000001
 20
-2.131628207280301e-014
 30
0
 40
48.99999999999989
 50
308.384121709001
 51
321.811129328886
  0
ARC
  8
1
 62
3
  6
DASHDOT
 10
133.5000000000001
 20
-2.131628207280301e-014
 30
0
 40
49
 50
38.38412170900128
 51
51.81112932888618
  0
ARC
  8
1
 62
7
 10
7.80979101754515
 20
-28.77202871994925
 30
0
 40
5.716267408765646
 50
97.1328480122706
 51
177.2723483112608
  0
ARC
  8
1
 62
7
 10
7.80979101754515
 20
28.77202871994913
 30
0
 40
5.716267408765629
 50
182.7276516887386
 51
262.8671519877295
  0
ARC
  8
1
 62
7
 10
-84.39999999999998
 20
-36.50000000000003
 30
0
 40
6
 50
180
 51
270
  0
ARC
  8
1
 62
7
 10
-84.39999999999998
 20
36.5052105958591
 30
0
 40
5.999999999999975
 50
92.3880154632688
 51
180
  0
ARC
  8
1
 62
7
 10
8.100000000000028
 20
-36.50000000000003
 30
0
 40
5.999999999999998
 50
180
 51
270
  0
ARC
  8
1
 62
7
 10
8.100000000000028
 20
36.5052105958591
 30
0
 40
5.999999999999975
 50
92.3880154632688
 51
180
  0
ARC
  8
1
 62
7
 10
174.6362066797609
 20
23.74999999999997
 30
0
 40
10.50011321438854
 50
188.859609661765
 51
231.1403903382369
  0
ARC
  8
1
 62
7
 10
155.5000000000001
 20
-2.842170943040401e-014
 30
0
 40
20
 50
359.9999999999997
 51
51.14039033823708
  0
ARC
  8
1
 62
7
 10
111.5000000000001
 20
-2.842170943040401e-014
 30
0
 40
20.00000000000006
 50
128.8596096617621
 51
180
  0
ARC
  8
1
 62
7
 10
144.5000000000001
 20
-19.05255888325767
 30
0
 40
20.00000000000004
 50
248.859609661762
 51
299.9999999999999
  0
ARC
  8
1
 62
7
 10
92.36379332023931
 20
23.74999999999994
 30
0
 40
10.50011321438851
 50
308.8596096617649
 51
351.140390338237
  0
ARC
  8
1
 62
7
 10
133.5000000000001
 20
-47.49999999999997
 30
0
 40
10.50011321438854
 50
68.85960966176488
 51
111.1403903382374
  0
ARC
  8
1
 62
7
 10
122.5000000000001
 20
19.05255888325763
 30
0
 40
20.00000000000001
 50
120
 51
171.140390338237
  0
ARC
  8
1
 62
7
 10
122.5000000000001
 20
-19.05255888325766
 30
0
 40
20.00000000000009
 50
239.9999999999998
 51
291.1403903382367
  0
ARC
  8
1
 62
7
 10
133.5000000000001
 20
37.49999999999997
 30
0
 40
3.599999999999912
 50
332.8492438943201
 51
207.1507561056796
  0
ARC
  8
1
 62
7
 10
101.0240473580837
 20
-18.75000000000001
 30
0
 40
3.599999999999901
 50
92.84924389432123
 51
327.1507561056797
  0
ARC
  8
1
 62
7
 10
165.9759526419165
 20
-18.75000000000004
 30
0
 40
3.599999999999854
 50
212.8492438943203
 51
87.15075610567898
  0
CIRCLE
  8
1
 62
7
 10
133.5000000000001
 20
-2.131628207280301e-014
 30
0
 40
43
  0
CIRCLE
  8
1
 62
7
 10
159.4807621135332
 20
14.99999999999997
 30
0
 40
2.100000000000023
  0
CIRCLE
  8
1
 62
7
 10
159.4807621135332
 20
14.99999999999997
 30
0
 40
4
  0
CIRCLE
  8
1
 62
7
 10
107.5192378864669
 20
14.99999999999997
 30
0
 40
4
  0
CIRCLE
  8
1
 62
7
 10
133.5
 20
-30.00000000000001
 30
0
 40
4
  0
CIRCLE
  8
1
 62
7
 10
107.5192378864669
 20
14.99999999999997
 30
0
 40
2.100000000000009
  0
CIRCLE
  8
1
 62
7
 10
133.5
 20
-30.00000000000001
 30
0
 40
2.099999999999994
  0
CIRCLE
  8
1
 62
7
 10
133.5000000000001
 20
-2.131628207280301e-014
 30
0
 40
36
  0
CIRCLE
  8
1
 62
7
 10
147.1118055378411
 20
-13.61180553784106
 30
0
 40
2
  0
CIRCLE
  8
1
 62
3
 10
147.1118055378411
 20
-13.61180553784106
 30
0
 40
2.5
  0
CIRCLE
  8
1
 62
7
 10
119.888194462159
 20
13.61180553784102
 30
0
 40
2
  0
CIRCLE
  8
1
 62
3
 10
119.888194462159
 20
13.61180553784102
 30
0
 40
2.5
  0
CIRCLE
  8
1
 62
7
 10
39.50000000000002
 20
-4.263256414560601e-014
 30
0
 40
2
  0
CIRCLE
  8
1
 62
3
 10
39.50000000000002
 20
-4.263256414560601e-014
 30
0
 40
2.5
  0
CIRCLE
  8
1
 62
7
 10
133.5000000000001
 20
-2.131628207280301e-014
 30
0
 40
15.99999999999998
  0
CIRCLE
  8
1
 62
7
 10
98.8517677218592
 20
34.6482322781408
 30
0
 40
2.75
  0
CIRCLE
  8
1
 62
7
 10
98.8517677218592
 20
-34.64823227814085
 30
0
 40
2.75
  0
CIRCLE
  8
1
 62
7
 10
168.1482322781409
 20
-34.64823227814085
 30
0
 40
2.75
  0
CIRCLE
  8
1
 62
7
 10
168.1482322781409
 20
34.6482322781408
 30
0
 40
2.75
  0
TEXT
  8
1
 62
7
 10
-90.97090596544204
 20
103.4572588491808
 30
0
 40
4
  1
TMB 1.2H
 41
0.9
  7
SIMPLEX
  0
TEXT
  8
1
 62
7
 10
-91.27288345229765
 20
96.69737141490269
 30
0
 40
4
  1
DC1702
 41
0.9
  7
SIMPLEX
  0
ENDSEC
  0
EOF
