  0
SECTION
  2
HEADER
  9
$ACADVER
  1
AC1009
  9
$INSBASE
 10
0
 20
0
  9
$EXTMIN
 10
-95.6416819092909
 20
-67.49999999999999
  9
$EXTMAX
 10
198.5499999999998
 20
110.8067889549323
  9
$LIMMIN
 10
-95.6416819092909
 20
-67.49999999999999
  9
$LIMMAX
 10
198.5499999999998
 20
110.8067889549323
  9
$VIEWCTR
 10
10
 20
10
  9
$VIEWSIZE
 40
10
  9
$SNAPMODE
 70
0
  9
$SNAPUNIT
 10
1
 20
1
  9
$SNAPBASE
 10
0
 20
0
  9
$SNAPANG
 50
0
  9
$SNAPSTYLE
 70
0
  9
$SNAPISOPAIR
 70
0
  9
$GRIDMODE
 70
0
  9
$GRIDUNIT
 10
0
 20
0
  9
$ORTHOMODE
 70
0
  9
$REGENMODE
 70
1
  9
$FILLMODE
 70
1
  9
$QTEXTMODE
 70
0
  9
$DRAGMODE
 70
2
  9
$LTSCALE
 40
1
  9
$OSMODE
 70
0
  9
$ATTMODE
 70
1
  9
$TEXTSIZE
 40
3.5
  9
$TRACEWID
 40
0.5
  9
$TEXTSTYLE
  7
STANDARD
  9
$CLAYER
  8
0
  9
$CELTYPE
  6
BYLAYER
  9
$CECOLOR
 62
256
  9
$DIMSCALE
 40
1
  9
$DIMASZ
 40
0.18
  9
$DIMEXO
 40
0.0625
  9
$DIMDLI
 40
0.38
  9
$DIMRND
 40
0
  9
$DIMDLE
 40
0
  9
$DIMEXE
 40
0.18
  9
$DIMTP
 40
0
  9
$DIMTM
 40
0
  9
$DIMTXT
 40
0.18
  9
$DIMCEN
 40
0.09
  9
$DIMTSZ
 40
0
  9
$DIMTOL
 70
0
  9
$DIMLIM
 70
0
  9
$DIMTIH
 70
1
  9
$DIMTOH
 70
1
  9
$DIMSE1
 70
0
  9
$DIMSE2
 70
0
  9
$DIMTAD
 70
0
  9
$DIMZIN
 70
0
  9
$DIMBLK
  1

  9
$DIMASO
 70
1
  9
$DIMSHO
 70
1
  9
$DIMPOST
  1

  9
$DIMAPOST
  1

  9
$DIMALT
 70
0
  9
$DIMALTD
 70
2
  9
$DIMALTF
 40
25.4
  9
$DIMLFAC
 40
1
  9
$DIMTOFL
 70
0
  9
$DIMTVP
 40
0
  9
$DIMTIX
 70
0
  9
$DIMSOXD
 70
0
  9
$DIMSAH
 70
0
  9
$DIMBLK1
  1

  9
$DIMBLK2
  1

  9
$DIMSTYLE
  2
*UNNAMED
  9
$DIMCLRD
 70
0
  9
$DIMCLRE
 70
0
  9
$DIMCLRT
 70
0
  9
$DIMTFAC
 40
1
  9
$DIMGAP
 40
0.09
  9
$LUNITS
 70
2
  9
$LUPREC
 70
4
  9
$AXISMODE
 70
0
  9
$AXISUNIT
 10
0
 20
0
  9
$SKETCHINC
 40
0.1
  9
$FILLETRAD
 40
2
  9
$AUNITS
 70
0
  9
$AUPREC
 70
0
  9
$MENU
  1
ACAD
  9
$ELEVATION
 40
0
  9
$THICKNESS
 40
0
  9
$VIEWDIR
 10
0
 20
0
 30
1
  9
$LIMCHECK
 70
0
  9
$BLIPMODE
 70
1
  9
$CHAMFERA
 40
0
  9
$CHAMFERB
 40
0
  9
$FASTZOOM
 70
1
  9
$SKPOLY
 70
0
  9
$ANGBASE
 50
0
  9
$ANGDIR
 70
0
  9
$PDMODE
 70
0
  9
$PDSIZE
 40
0
  9
$PLINEWID
 40
0
  9
$COORDS
 70
2
  0
ENDSEC
  0
SECTION
  2
TABLES
  0
TABLE
  2
DIMSTYLE
 70
0
  0
ENDTAB
  0
TABLE
  2
LTYPE
 70
9
  0
LTYPE
  2
CONTINUOUS
 70
64
  3
Solid line
 72
65
 73
0
 40
0
  0
LTYPE
  2
BORDER
 70
64
  3
__ __ . __ __ .
 72
65
 73
6
 40
13.54830114055944
 49
3.870943183016983
 49
-1.935471591508492
 49
3.870943183016983
 49
-1.935471591508492
 49
0
 49
-1.935471591508492
  0
LTYPE
  2
CENTER
 70
64
  3
____ _ ____ _
 72
65
 73
4
 40
15.48377273206793
 49
9.677357957542457
 49
-1.935471591508492
 49
1.935471591508492
 49
-1.935471591508492
  0
LTYPE
  2
DASHDOT
 70
64
  3
__ . __ . __ .
 72
65
 73
4
 40
7.741886366033966
 49
3.870943183016983
 49
-1.935471591508492
 49
0
 49
-1.935471591508492
  0
LTYPE
  2
DASHED
 70
64
  3
__ __ __ __ __
 72
65
 73
2
 40
5.806414774525474
 49
3.870943183016983
 49
-1.935471591508492
  0
LTYPE
  2
DIVIDE
 70
64
  3
__ . . __ . . 
 72
65
 73
6
 40
9.677357957542457
 49
3.870943183016983
 49
-1.935471591508492
 49
0
 49
-1.935471591508492
 49
0
 49
-1.935471591508492
  0
LTYPE
  2
DOT
 70
64
  3
..............
 72
65
 73
4
 40
3.870943183016983
 49
0
 49
-1.935471591508492
 49
0
 49
-1.935471591508492
  0
LTYPE
  2
HIDDEN
 70
64
  3
_ _ _ _ _ _ _
 72
65
 73
2
 40
2.903207387262737
 49
1.935471591508492
 49
-0.9677357957542457
  0
LTYPE
  2
PHANTOM
 70
64
  3
_____ _ _ _____ _ _ 
 72
65
 73
6
 40
19.35471591508491
 49
9.677357957542457
 49
-1.935471591508492
 49
1.935471591508492
 49
-1.935471591508492
 49
1.935471591508492
 49
-1.935471591508492
  0
ENDTAB
  0
TABLE
  2
LAYER
 70
3
  0
LAYER
  2
1
 70
0
 62
7
  6
CONTINUOUS
  0
LAYER
  2
0
 70
0
 62
7
  6
CONTINUOUS
  0
ENDTAB
  0
TABLE
  2
STYLE
 70
4
  0
STYLE
  2
STANDARD
 70
0
 40
0
 41
1
 50
0
 71
0
 42
3.5
  3
txt
  4

  0
STYLE
  2
SIMPLEX
 70
0
 40
0
 41
1
 50
0
 71
0
 42
3.5
  3
simplex
  4

  0
STYLE
  2
COMPLEX
 70
0
 40
0
 41
1
 50
0
 71
0
 42
3.5
  3
complex
  4

  0
STYLE
  2
ITALIC
 70
0
 40
0
 41
1
 50
0
 71
0
 42
3.5
  3
italic
  4

  0
ENDTAB
  0
TABLE
  2
VIEW
 70
0
  0
ENDTAB
  0
ENDSEC
  0
SECTION
  2
BLOCKS
  0
ENDSEC
  0
SECTION
  2
ENTITIES
  0
LINE
  8
1
 62
3
  6
DASHDOT
 10
-55.12195775217215
 20
0
 30
0
 11
-52.93764532318967
 21
0
 31
0
  0
LINE
  8
1
 62
7
 10
-60.12195775217215
 20
-46.5
 30
0
 11
-60.12195775217215
 21
46.5
 31
0
  0
LINE
  8
1
 62
7
 10
-55.12195775217215
 20
46.5
 30
0
 11
-55.12195775217215
 21
-46.5
 31
0
  0
LINE
  8
1
 62
7
 10
-55.12195775217215
 20
-46.5
 30
0
 11
-60.12195775217215
 21
-46.5
 31
0
  0
LINE
  8
1
 62
7
 10
-60.12195775217215
 20
46.5
 30
0
 11
-55.12195775217215
 21
46.5
 31
0
  0
LINE
  8
1
 62
3
  6
DASHDOT
 10
36.49999999999995
 20
0
 30
0
 11
38.68431242898244
 21
0
 31
0
  0
LINE
  8
1
 62
3
  6
DASHDOT
 10
144.5499999999999
 20
4.595954273309133
 30
0
 11
144.5499999999999
 21
-4.595954273309104
 31
0
  0
LINE
  8
1
 62
3
  6
DASHDOT
 10
149.145954273309
 20
0
 30
0
 11
139.9540457266907
 21
0
 31
0
  0
LINE
  8
1
 62
7
 10
11.49999999999996
 20
12.00000000000003
 30
0
 11
36.49999999999994
 21
12.00000000000003
 31
0
  0
LINE
  8
1
 62
7
 10
30.49999999999995
 20
20
 30
0
 11
11.49999999999996
 21
20
 31
0
  0
LINE
  8
1
 62
7
 10
11.49999999999996
 20
20
 30
0
 11
11.49999999999999
 21
-20
 31
0
  0
LINE
  8
1
 62
7
 10
36.49999999999996
 20
46.5
 30
0
 11
36.49999999999995
 21
-46.5
 31
0
  0
LINE
  8
1
 62
7
 10
11.49999999999996
 20
-9.999999999999972
 30
0
 11
36.49999999999994
 21
-9.999999999999972
 31
0
  0
LINE
  8
1
 62
7
 10
142.0499999999999
 20
11.99999999999999
 30
0
 11
147.0499999999999
 21
11.99999999999999
 31
0
  0
LINE
  8
1
 62
7
 10
147.0499999999999
 20
11.99999999999999
 30
0
 11
147.0499999999999
 21
9.682458365518571
 31
0
  0
LINE
  8
1
 62
7
 10
142.0499999999999
 20
9.682458365518571
 30
0
 11
142.0499999999999
 21
11.99999999999999
 31
0
  0
LINE
  8
1
 62
7
 10
33.99999999999995
 20
-40.5
 30
0
 11
36.49999999999995
 21
-43
 31
0
  0
LINE
  8
1
 62
7
 10
33.99999999999995
 20
-35.5
 30
0
 11
33.99999999999995
 21
-40.5
 31
0
  0
LINE
  8
1
 62
7
 10
31.49999999999994
 20
-46.5
 30
0
 11
31.49999999999994
 21
-40.5
 31
0
  0
LINE
  8
1
 62
7
 10
36.49999999999995
 20
-32.99999999999999
 30
0
 11
33.99999999999995
 21
-35.5
 31
0
  0
LINE
  8
1
 62
7
 10
36.49999999999995
 20
-46.5
 30
0
 11
31.49999999999994
 21
-46.5
 31
0
  0
LINE
  8
1
 62
7
 10
11.49999999999999
 20
-20
 30
0
 11
30.49999999999995
 21
-20
 31
0
  0
LINE
  8
1
 62
7
 10
31.49999999999994
 20
46.5
 30
0
 11
31.49999999999995
 21
21
 31
0
  0
LINE
  8
1
 62
7
 10
31.49999999999994
 20
46.5
 30
0
 11
36.49999999999996
 21
46.5
 31
0
  0
LINE
  8
1
 62
3
 10
36.49999999999995
 20
25.75
 30
0
 11
31.49999999999995
 21
25.74999999999993
 31
0
  0
LINE
  8
1
 62
3
 10
36.49999999999995
 20
20.75
 30
0
 11
31.46824583655178
 21
20.75
 31
0
  0
LINE
  8
1
 62
3
  6
DASHDOT
 10
37.49999999999995
 20
23.25
 30
0
 11
30.49999999999995
 21
23.25
 31
0
  0
LINE
  8
1
 62
7
 10
36.49999999999995
 20
25.24999999999993
 30
0
 11
31.49999999999995
 21
25.24999999999993
 31
0
  0
LINE
  8
1
 62
7
 10
36.49999999999995
 20
21.25
 30
0
 11
31.49999999999995
 21
21.24999999999993
 31
0
  0
LINE
  8
1
 62
7
 10
28.2999999999998
 20
-35.5
 30
0
 11
33.99999999999995
 21
-35.5
 31
0
  0
LINE
  8
1
 62
7
 10
28.2999999999997
 20
-40.5
 30
0
 11
33.99999999999995
 21
-40.5
 31
0
  0
LINE
  8
1
 62
7
 10
28.29999999999991
 20
-42.25
 30
0
 11
27.69999999999989
 21
-42.25
 31
0
  0
LINE
  8
1
 62
7
 10
27.69999999999989
 20
-42.5
 30
0
 11
27.69999999999989
 21
-33.5
 31
0
  0
LINE
  8
1
 62
7
 10
27.69999999999989
 20
-33.75
 30
0
 11
28.29999999999991
 21
-33.75
 31
0
  0
LINE
  8
1
 62
7
 10
27.69999999999989
 20
-33.5
 30
0
 11
26.19999999999989
 21
-33.5
 31
0
  0
LINE
  8
1
 62
7
 10
25.8999999999999
 20
-33.79999999999998
 30
0
 11
25.8999999999999
 21
-42.19999999999999
 31
0
  0
LINE
  8
1
 62
7
 10
27.69999999999989
 20
-42.5
 30
0
 11
26.19999999999989
 21
-42.5
 31
0
  0
LINE
  8
1
 62
7
 10
25.8999999999999
 20
-33.79999999999998
 30
0
 11
26.19999999999989
 21
-33.5
 31
0
  0
LINE
  8
1
 62
7
 10
26.19999999999989
 20
-42.5
 30
0
 11
25.8999999999999
 21
-42.19999999999999
 31
0
  0
LINE
  8
1
 62
7
 10
36.49999999999994
 20
9.999999999999972
 30
0
 11
11.49999999999996
 21
9.999999999999972
 31
0
  0
LINE
  8
1
 62
7
 10
27.5999999999999
 20
54
 30
0
 11
27.5999999999999
 21
38
 31
0
  0
LINE
  8
1
 62
7
 10
0
 20
-67.49999999999999
 30
0
 11
0
 21
50
 31
0
  0
LINE
  8
1
 62
7
 10
2.400000000000009
 20
50
 30
0
 11
2.400000000000009
 21
-67.49999999999999
 31
0
  0
LINE
  8
1
 62
7
 10
142.0499999999999
 20
80.55861913509673
 30
0
 11
147.0499999999999
 21
80.55861913509673
 31
0
  0
LINE
  8
1
 62
3
  6
DASHDOT
 10
-91.62195775217211
 20
0
 30
0
 11
-95.6416819092909
 21
0
 31
0
  0
LINE
  8
1
 62
7
 10
-80.22825560085386
 20
80.55861913509673
 30
0
 11
-80.22825560085386
 21
85.5391854824509
 31
0
  0
LINE
  8
1
 62
7
 10
-81.4719577521721
 20
80.55861913509673
 30
0
 11
-81.4719577521721
 21
53.5
 31
0
  0
LINE
  8
1
 62
7
 10
-62.72195775217215
 20
-43.5
 30
0
 11
-60.12195775217215
 21
-43.49999999999999
 31
0
  0
LINE
  8
1
 62
7
 10
-62.72195775217215
 20
-32.5
 30
0
 11
-60.12195775217215
 21
-32.5
 31
0
  0
LINE
  8
1
 62
7
 10
-63.32195775217214
 20
-53
 30
0
 11
-62.72195775217215
 21
-53
 31
0
  0
LINE
  8
1
 62
7
 10
-64.02195775217216
 20
-54
 30
0
 11
-68.02195775217216
 21
-54
 31
0
  0
LINE
  8
1
 62
7
 10
-62.72195775217215
 20
38
 30
0
 11
-62.72195775217215
 21
-53
 31
0
  0
LINE
  8
1
 62
7
 10
-61.12195775217215
 20
43.5
 30
0
 11
-61.62195775217215
 21
43
 31
0
  0
LINE
  8
1
 62
7
 10
-61.12195775217215
 20
51.5
 30
0
 11
-61.12195775217215
 21
43.5
 31
0
  0
LINE
  8
1
 62
7
 10
-63.32195775217214
 20
43
 30
0
 11
-61.62195775217215
 21
43
 31
0
  0
LINE
  8
1
 62
7
 10
-61.12195775217215
 20
51.5
 30
0
 11
-61.62195775217215
 21
52
 31
0
  0
LINE
  8
1
 62
7
 10
-63.42195775217213
 20
52
 30
0
 11
-61.62195775217215
 21
52
 31
0
  0
LINE
  8
1
 62
7
 10
-62.72195775217215
 20
52
 30
0
 11
-62.72195775217216
 21
43
 31
0
  0
LINE
  8
1
 62
7
 10
-63.42195775217213
 20
53
 30
0
 11
-63.42195775217213
 21
40.54136836602154
 31
0
  0
LINE
  8
1
 62
7
 10
-64.02195775217216
 20
40.61243556529823
 30
0
 11
-63.32195775217214
 21
38
 31
0
  0
LINE
  8
1
 62
7
 10
-63.42195775217213
 20
40.54136836602154
 30
0
 11
-62.72195775217215
 21
38
 31
0
  0
LINE
  8
1
 62
7
 10
-64.02195775217216
 20
53
 30
0
 11
-63.42195775217213
 21
53
 31
0
  0
LINE
  8
1
 62
7
 10
-63.32195775217214
 20
38
 30
0
 11
-63.32195775217214
 21
-53
 31
0
  0
LINE
  8
1
 62
7
 10
-68.02195775217216
 20
54
 30
0
 11
-64.02195775217216
 21
54
 31
0
  0
LINE
  8
1
 62
7
 10
-68.02195775217216
 20
54
 30
0
 11
-68.02195775217216
 21
-54
 31
0
  0
LINE
  8
1
 62
7
 10
-78.9719577521721
 20
80.55861913509673
 30
0
 11
-78.9719577521721
 21
53.5
 31
0
  0
LINE
  8
1
 62
7
 10
-81.4719577521721
 20
80.55861913509673
 30
0
 11
-78.9719577521721
 21
80.55861913509673
 31
0
  0
LINE
  8
1
 62
7
 10
-79.83575396620746
 20
85.55861913509673
 30
0
 11
-79.83575396620746
 21
80.55861913509673
 31
0
  0
LINE
  8
1
 62
7
 10
-79.29608856243586
 20
85.55861913509673
 30
0
 11
-79.29608856243586
 21
80.55861913509673
 31
0
  0
LINE
  8
1
 62
7
 10
-81.14782694190825
 20
80.55861913509673
 30
0
 11
-81.14782694190825
 21
85.55861913509673
 31
0
  0
LINE
  8
1
 62
7
 10
-80.60816153813666
 20
80.55861913509673
 30
0
 11
-80.60816153813666
 21
85.55861913509673
 31
0
  0
LINE
  8
1
 62
7
 10
-91.62195775217205
 20
-67.49999999999997
 30
0
 11
-89.2219577521721
 21
-67.49999999999999
 31
0
  0
LINE
  8
1
 62
7
 10
-91.62195775217211
 20
50
 30
0
 11
-89.2219577521721
 21
50
 31
0
  0
LINE
  8
1
 62
7
 10
-68.22195775217219
 20
53.5
 30
0
 11
-68.22195775217215
 21
-53.49999999999989
 31
0
  0
LINE
  8
1
 62
7
 10
-83.2219577521721
 20
-53.49999999999989
 30
0
 11
-68.22195775217215
 21
-53.49999999999989
 31
0
  0
LINE
  8
1
 62
3
  6
DASHDOT
 10
0
 20
0
 30
0
 11
-4.0197241571188
 21
0
 31
0
  0
LINE
  8
1
 62
7
 10
11.39370215131826
 20
80.55861913509673
 30
0
 11
11.39370215131826
 21
85.5391854824509
 31
0
  0
LINE
  8
1
 62
7
 10
144.5607656982075
 20
80.55861913509673
 30
0
 11
144.5607656982075
 21
54.06711291106191
 31
0
  0
LINE
  8
1
 62
7
 10
10.15000000000001
 20
80.55861913509673
 30
0
 11
10.15000000000001
 21
53.5
 31
0
  0
LINE
  8
1
 62
7
 10
28.29999999999991
 20
-30.00000000000003
 30
0
 11
28.8999999999999
 21
-30.00000000000003
 31
0
  0
LINE
  8
1
 62
7
 10
28.89999999999991
 20
-43.5
 30
0
 11
31.49999999999995
 21
-43.49999999999999
 31
0
  0
LINE
  8
1
 62
7
 10
28.89999999999991
 20
-32.5
 30
0
 11
31.49999999999995
 21
-32.49999999999999
 31
0
  0
LINE
  8
1
 62
7
 10
28.89999999999991
 20
-40.5
 30
0
 11
28.89999999999991
 21
-53
 31
0
  0
LINE
  8
1
 62
7
 10
23.5999999999999
 20
-43.25
 30
0
 11
27.5999999999999
 21
-43.25
 31
0
  0
LINE
  8
1
 62
7
 10
23.5999999999999
 20
-32.75
 30
0
 11
28.2999999999997
 21
-32.75
 31
0
  0
LINE
  8
1
 62
7
 10
28.29999999999991
 20
-53
 30
0
 11
28.89999999999991
 21
-53
 31
0
  0
LINE
  8
1
 62
7
 10
27.5999999999999
 20
-43.25
 30
0
 11
27.5999999999999
 21
-54
 31
0
  0
LINE
  8
1
 62
7
 10
23.5999999999998
 20
54
 30
0
 11
23.59999999999983
 21
23
 31
0
  0
LINE
  8
1
 62
7
 10
27.5999999999999
 20
-54
 30
0
 11
23.5999999999999
 21
-54
 31
0
  0
LINE
  8
1
 62
7
 10
28.29999999999992
 20
-26.5
 30
0
 11
23.5999999999998
 21
-26.5
 31
0
  0
LINE
  8
1
 62
7
 10
28.29999999999991
 20
-53
 30
0
 11
28.29999999999991
 21
-23
 31
0
  0
LINE
  8
1
 62
7
 10
28.89999999999991
 20
38
 30
0
 11
28.89999999999991
 21
23
 31
0
  0
LINE
  8
1
 62
7
 10
27.5999999999999
 20
42
 30
0
 11
28.19999999999993
 21
42
 31
0
  0
LINE
  8
1
 62
7
 10
30.4999999999999
 20
43.5
 30
0
 11
29.9999999999999
 21
43
 31
0
  0
LINE
  8
1
 62
7
 10
30.4999999999999
 20
51.5
 30
0
 11
29.9999999999999
 21
52
 31
0
  0
LINE
  8
1
 62
7
 10
28.8999999999998
 20
52
 30
0
 11
28.8999999999998
 21
43
 31
0
  0
LINE
  8
1
 62
7
 10
28.19999999999989
 20
52
 30
0
 11
29.9999999999999
 21
52
 31
0
  0
LINE
  8
1
 62
7
 10
28.19999999999991
 20
43
 30
0
 11
29.9999999999999
 21
43
 31
0
  0
LINE
  8
1
 62
7
 10
30.4999999999999
 20
51.5
 30
0
 11
30.4999999999999
 21
43.5
 31
0
  0
LINE
  8
1
 62
7
 10
27.5999999999999
 20
40.61243556529823
 30
0
 11
28.29999999999991
 21
38
 31
0
  0
LINE
  8
1
 62
7
 10
28.19999999999991
 20
40.54136836602154
 30
0
 11
28.89999999999991
 21
38
 31
0
  0
LINE
  8
1
 62
7
 10
28.19999999999991
 20
53
 30
0
 11
28.19999999999991
 21
40.54136836602154
 31
0
  0
LINE
  8
1
 62
7
 10
27.5999999999999
 20
53
 30
0
 11
28.19999999999991
 21
53
 31
0
  0
LINE
  8
1
 62
7
 10
23.59999999999991
 20
26.5
 30
0
 11
28.29999999999992
 21
26.5
 31
0
  0
LINE
  8
1
 62
7
 10
27.5999999999999
 20
38
 30
0
 11
28.29999999999991
 21
38
 31
0
  0
LINE
  8
1
 62
7
 10
23.5999999999998
 20
54
 30
0
 11
27.5999999999999
 21
54
 31
0
  0
LINE
  8
1
 62
3
  6
DASHDOT
 10
183.8949988062439
 20
39.34499880624404
 30
0
 11
191.1908109041622
 21
46.64081090416231
 31
0
  0
LINE
  8
1
 62
3
  6
DASHDOT
 10
184.0376490695032
 20
-39.48764906950331
 30
0
 11
191.6601393210597
 21
-47.11013932105969
 31
0
  0
LINE
  8
1
 62
3
  6
DASHDOT
 10
98.30532255305371
 20
-46.24467744694618
 30
0
 11
105.4922419330925
 21
-39.05775806690738
 31
0
  0
LINE
  8
1
 62
3
  6
DASHDOT
 10
97.90350922691613
 20
46.64649077308381
 30
0
 11
105.6348921963519
 21
38.91510780364807
 31
0
  0
LINE
  8
1
 62
7
 10
99.20410713195733
 20
49.99999999999999
 30
0
 11
124.1539219456287
 21
50
 31
0
  0
LINE
  8
1
 62
7
 10
164.946078054371
 20
49.99999999999999
 30
0
 11
189.8958928680426
 21
49.99999999999999
 31
0
  0
LINE
  8
1
 62
7
 10
194.5499999999999
 20
45.34589286804263
 30
0
 11
194.5499999999999
 21
20.39607805437116
 31
0
  0
LINE
  8
1
 62
7
 10
194.5499999999999
 20
-20.39607805437115
 30
0
 11
194.5499999999999
 21
-45.3458928680426
 31
0
  0
LINE
  8
1
 62
7
 10
164.9460780543711
 20
-49.99999999999999
 30
0
 11
189.8958928680425
 21
-49.99999999999999
 31
0
  0
LINE
  8
1
 62
7
 10
99.2041071319573
 20
-50
 30
0
 11
124.1539219456287
 21
-50
 31
0
  0
LINE
  8
1
 62
7
 10
94.5499999999999
 20
-20.39607805437115
 30
0
 11
94.5499999999999
 21
-45.3458928680426
 31
0
  0
LINE
  8
1
 62
7
 10
94.54999999999996
 20
45.34589286804264
 30
0
 11
94.5499999999999
 21
20.39607805437115
 31
0
  0
LINE
  8
1
 62
7
 10
142.0499999999999
 20
53.94209858728151
 30
0
 11
142.0499999999999
 21
80.55861913509673
 31
0
  0
LINE
  8
1
 62
7
 10
147.0499999999999
 20
53.94209858728151
 30
0
 11
147.0499999999999
 21
80.55861913509673
 31
0
  0
LINE
  8
1
 62
7
 10
145.2184330949855
 20
85.55861913509673
 30
0
 11
145.2184330949855
 21
80.55861913509673
 31
0
  0
LINE
  8
1
 62
7
 10
145.77068544695
 20
85.55861913509673
 30
0
 11
145.77068544695
 21
80.55861913509673
 31
0
  0
LINE
  8
1
 62
7
 10
146.3229377989146
 20
85.55861913509673
 30
0
 11
146.3229377989146
 21
80.55861913509673
 31
0
  0
LINE
  8
1
 62
7
 10
142.7770622010851
 20
80.55861913509673
 30
0
 11
142.7770622010851
 21
85.55861913509673
 31
0
  0
LINE
  8
1
 62
7
 10
143.3293145530497
 20
80.55861913509673
 30
0
 11
143.3293145530497
 21
85.55861913509673
 31
0
  0
LINE
  8
1
 62
7
 10
143.8815669050143
 20
80.55861913509673
 30
0
 11
143.8815669050143
 21
85.55861913509673
 31
0
  0
LINE
  8
1
 62
7
 10
11.78620378596464
 20
85.55861913509673
 30
0
 11
11.78620378596464
 21
80.55861913509673
 31
0
  0
LINE
  8
1
 62
7
 10
12.32586918973626
 20
85.55861913509673
 30
0
 11
12.32586918973626
 21
80.55861913509673
 31
0
  0
LINE
  8
1
 62
7
 10
10.47413081026384
 20
80.55861913509673
 30
0
 11
10.47413081026384
 21
85.55861913509673
 31
0
  0
LINE
  8
1
 62
7
 10
11.01379621403546
 20
80.55861913509673
 30
0
 11
11.01379621403546
 21
85.55861913509673
 31
0
  0
LINE
  8
1
 62
3
  6
DASHDOT
 10
-1.7749045346598
 20
-60.99999999999999
 30
0
 11
5.106971465550441
 21
-61
 31
0
  0
LINE
  8
1
 62
7
 10
0
 20
-67.49999999999999
 30
0
 11
2.400000000000009
 21
-67.49999999999999
 31
0
  0
LINE
  8
1
 62
7
 10
0
 20
-64.24999999999999
 30
0
 11
2.400000000000009
 21
-64.24999999999999
 31
0
  0
LINE
  8
1
 62
7
 10
0
 20
-57.74999999999999
 30
0
 11
2.400000000000009
 21
-57.74999999999999
 31
0
  0
LINE
  8
1
 62
7
 10
2.400000000000009
 20
-26.00000000000001
 30
0
 11
0
 21
-26.00000000000001
 31
0
  0
LINE
  8
1
 62
7
 10
0
 20
26
 30
0
 11
2.400000000000009
 21
26
 31
0
  0
LINE
  8
1
 62
7
 10
0
 20
50
 30
0
 11
2.400000000000009
 21
50
 31
0
  0
LINE
  8
1
 62
7
 10
23.39999999999995
 20
53.5
 30
0
 11
8.400000000000009
 21
53.5
 31
0
  0
LINE
  8
1
 62
7
 10
23.40000000000005
 20
27
 30
0
 11
8.400000000000055
 21
27
 31
0
  0
LINE
  8
1
 62
7
 10
8.400000000000055
 20
-26.99999999999997
 30
0
 11
23.40000000000005
 21
-26.99999999999997
 31
0
  0
LINE
  8
1
 62
7
 10
8.400000000000009
 20
-53.49999999999989
 30
0
 11
23.39999999999995
 21
-53.49999999999989
 31
0
  0
LINE
  8
1
 62
7
 10
23.39999999999995
 20
53.5
 30
0
 11
23.39999999999996
 21
23
 31
0
  0
LINE
  8
1
 62
3
  6
DASHDOT
 10
-92.78742551060515
 20
-61
 30
0
 11
-87.95444754739314
 21
-61
 31
0
  0
LINE
  8
1
 62
7
 10
12.65000000000001
 20
53.5
 30
0
 11
12.65000000000001
 21
80.55861913509673
 31
0
  0
LINE
  8
1
 62
7
 10
12.65000000000001
 20
80.55861913509673
 30
0
 11
10.15000000000001
 21
80.55861913509673
 31
0
  0
LINE
  8
1
 62
7
 10
-64.02195775217216
 20
54
 30
0
 11
-64.02195775217216
 21
-54
 31
0
  0
LINE
  8
1
 62
7
 10
-63.32195775217214
 20
38
 30
0
 11
-64.02195775217216
 21
38
 31
0
  0
LINE
  8
1
 62
7
 10
-89.2219577521721
 20
50
 30
0
 11
-89.2219577521721
 21
-67.49999999999999
 31
0
  0
LINE
  8
1
 62
7
 10
-91.62195775217205
 20
-67.49999999999997
 30
0
 11
-91.62195775217211
 21
50
 31
0
  0
LINE
  8
1
 62
7
 10
-68.22195775217219
 20
53.5
 30
0
 11
-83.2219577521721
 21
53.5
 31
0
  0
LINE
  8
1
 62
7
 10
31.49999999999995
 20
-35.5
 30
0
 11
31.49999999999995
 21
-21
 31
0
  0
LINE
  8
1
 62
7
 10
23.59999999999987
 20
-23
 30
0
 11
23.5999999999999
 21
-54
 31
0
  0
LINE
  8
1
 62
7
 10
23.39999999999995
 20
-23
 30
0
 11
23.39999999999995
 21
-53.49999999999989
 31
0
  0
LINE
  8
1
 62
7
 10
28.89999999999991
 20
-23
 30
0
 11
28.89999999999991
 21
-35.5
 31
0
  0
LINE
  8
1
 62
7
 10
28.29999999999991
 20
23
 30
0
 11
28.29999999999991
 21
38
 31
0
  0
LINE
  8
1
 62
7
 10
-61.12195775217215
 20
20
 30
0
 11
-62.72195775217215
 21
20
 31
0
  0
LINE
  8
1
 62
7
 10
-61.12195775217215
 20
-20
 30
0
 11
-62.72195775217215
 21
-20
 31
0
  0
ARC
  8
1
 62
7
 10
144.5499999999999
 20
0
 30
0
 40
10.00000000000003
 50
104.4775121859299
 51
75.52248781407012
  0
ARC
  8
1
 62
7
 10
-61.12195775217215
 20
-21
 30
0
 40
1
 50
0
 51
90
  0
ARC
  8
1
 62
7
 10
-61.12195775217215
 20
21
 30
0
 40
1
 50
270
 51
0
  0
ARC
  8
1
 62
7
 10
30.49999999999995
 20
-21
 30
0
 40
1
 50
0
 51
90
  0
ARC
  8
1
 62
7
 10
30.49999999999995
 20
21
 30
0
 40
1
 50
270
 51
0
  0
ARC
  8
1
 62
7
 10
130.5499999999998
 20
-24.24871130596424
 30
0
 40
25.00000000000001
 50
240
 51
291.6182724221584
  0
ARC
  8
1
 62
7
 10
130.55
 20
24.24871130596432
 30
0
 40
25.00000000000002
 50
120.0000000000003
 51
171.6182724221583
  0
ARC
  8
1
 62
7
 10
144.5499999999999
 20
-59.5757547712756
 30
0
 40
12.99999999999984
 50
68.38172757784267
 51
111.6182724221581
  0
ARC
  8
1
 62
7
 10
92.95588291844319
 20
29.78787738563779
 30
0
 40
12.99999999999984
 50
308.3817275778428
 51
351.6182724221582
  0
ARC
  8
1
 62
7
 10
158.5499999999998
 20
-24.24871130596435
 30
0
 40
25.00000000000001
 50
248.3817275778415
 51
299.9999999999999
  0
ARC
  8
1
 62
7
 10
116.5499999999999
 20
8.526512829121202e-014
 30
0
 40
25.00000000000006
 50
128.3817275778416
 51
180.0000000000001
  0
ARC
  8
1
 62
7
 10
158.55
 20
24.24871130596429
 30
0
 40
24.99999999999993
 50
8.381727577841463
 51
60.00000000000024
  0
ARC
  8
1
 62
7
 10
196.1441170815565
 20
29.78787738563787
 30
0
 40
12.99999999999985
 50
188.3817275778429
 51
231.6182724221584
  0
ARC
  8
1
 62
7
 10
172.5499999999999
 20
-2.842170943040401e-014
 30
0
 40
25
 50
359.9999999999997
 51
51.61827242215835
  0
ARC
  8
1
 62
7
 10
-83.22195775217205
 20
47.5
 30
0
 40
6
 50
90
 51
180
  0
ARC
  8
1
 62
7
 10
-83.22195775217205
 20
-47.5
 30
0
 40
6.000000000000057
 50
180
 51
270
  0
ARC
  8
1
 62
7
 10
8.400000000000055
 20
47.5
 30
0
 40
6
 50
90.00000000000044
 51
180
  0
ARC
  8
1
 62
7
 10
8.400000000000055
 20
33
 30
0
 40
6.000000000000004
 50
180
 51
270
  0
ARC
  8
1
 62
7
 10
8.400000000000055
 20
-33
 30
0
 40
6.000000000000028
 50
90
 51
180
  0
ARC
  8
1
 62
7
 10
8.400000000000055
 20
-47.5
 30
0
 40
6.000000000000046
 50
180
 51
269.9999999999996
  0
ARC
  8
1
 62
3
  6
DASHDOT
 10
144.5499999999999
 20
0
 30
0
 40
61.00000000000002
 50
128.5719117530581
 51
141.3363338594844
  0
ARC
  8
1
 62
3
  6
DASHDOT
 10
144.5499999999999
 20
0
 30
0
 40
61.00000000000002
 50
219.000931754132
 51
231.1800732104171
  0
ARC
  8
1
 62
3
  6
DASHDOT
 10
144.5499999999999
 20
0
 30
0
 40
60.99999999999994
 50
309.0695782352602
 51
322.1058082419698
  0
ARC
  8
1
 62
3
  6
DASHDOT
 10
144.5499999999999
 20
0
 30
0
 40
61
 50
39.08747099769013
 51
50.86043550624994
  0
ARC
  8
1
 62
7
 10
144.5499999999999
 20
0
 30
0
 40
67.49999999999997
 50
312.2054464037323
 51
317.7945535962678
  0
ARC
  8
1
 62
7
 10
144.5499999999999
 20
0
 30
0
 40
67.49999999999997
 50
222.2054464037323
 51
227.7945535962677
  0
ARC
  8
1
 62
7
 10
144.5499999999999
 20
0
 30
0
 40
67.49999999999996
 50
132.2054464037323
 51
137.7945535962677
  0
ARC
  8
1
 62
7
 10
144.5499999999999
 20
0
 30
0
 40
67.5
 50
42.20544640373229
 51
47.79455359626765
  0
ARC
  8
1
 62
7
 10
144.5499999999999
 20
0
 30
0
 40
53
 50
180
 51
239.9999999999999
  0
ARC
  8
1
 62
7
 10
144.5499999999999
 20
0
 30
0
 40
53.00000000000004
 50
299.9999999999998
 51
359.9999999999999
  0
ARC
  8
1
 62
7
 10
144.5499999999999
 20
0
 30
0
 40
53.00000000000002
 50
60.00000000000001
 51
120
  0
ARC
  8
1
 62
7
 10
144.5499999999999
 20
47.5
 30
0
 40
4.499999999999989
 50
344.4992219332345
 51
195.5007780667638
  0
ARC
  8
1
 62
7
 10
103.4137933202391
 20
-23.74999999999997
 30
0
 40
4.499999999999971
 50
104.4992219332357
 51
315.5007780667655
  0
ARC
  8
1
 62
7
 10
185.6862066797607
 20
-23.75
 30
0
 40
4.499999999999972
 50
224.4992219332347
 51
75.50077806676555
  0
CIRCLE
  8
1
 62
7
 10
144.5499999999998
 20
-38
 30
0
 40
2.5
  0
CIRCLE
  8
1
 62
7
 10
111.6410346561912
 20
19.00000000000006
 30
0
 40
2.500000000000199
  0
CIRCLE
  8
1
 62
7
 10
144.5499999999998
 20
-38
 30
0
 40
5
  0
CIRCLE
  8
1
 62
7
 10
111.6410346561912
 20
19.00000000000006
 30
0
 40
5
  0
CIRCLE
  8
1
 62
7
 10
177.4589653438085
 20
18.99999999999997
 30
0
 40
5
  0
CIRCLE
  8
1
 62
7
 10
177.4589653438085
 20
18.99999999999997
 30
0
 40
2.5
  0
CIRCLE
  8
1
 62
3
 10
128.0500784628575
 20
-16.49992153714229
 30
0
 40
2.5
  0
CIRCLE
  8
1
 62
7
 10
128.0500784628575
 20
-16.49992153714229
 30
0
 40
2
  0
CIRCLE
  8
1
 62
3
 10
161.0003325724761
 20
16.4503325724763
 30
0
 40
2.5
  0
CIRCLE
  8
1
 62
7
 10
161.0003325724761
 20
16.4503325724763
 30
0
 40
2
  0
CIRCLE
  8
1
 62
7
 10
144.5499999999999
 20
0
 30
0
 40
46.49999999999992
  0
CIRCLE
  8
1
 62
7
 10
101.4164863476205
 20
-43.13351365237939
 30
0
 40
3.25
  0
CIRCLE
  8
1
 62
7
 10
187.6835136523793
 20
-43.13351365237939
 30
0
 40
3.25
  0
CIRCLE
  8
1
 62
7
 10
187.6835136523793
 20
43.13351365237939
 30
0
 40
3.25
  0
CIRCLE
  8
1
 62
7
 10
101.4164863476205
 20
43.13351365237939
 30
0
 40
3.25
  0
CIRCLE
  8
1
 62
7
 10
144.5499999999999
 20
0
 30
0
 40
53.99999999999992
  0
TEXT
  8
1
 62
7
 10
-91.90888074067225
 20
106.8067889549323
 30
0
 40
4
  1
TMB 2.5HI
 41
0.9
  7
SIMPLEX
  0
TEXT
  8
1
 62
7
 10
-91.58233094238744
 20
99.59749016522331
 30
0
 40
4
  1
DC1709
 41
0.9
  7
SIMPLEX
  0
ENDSEC
  0
EOF
