  0
SECTION
  2
HEADER
  9
$ACADVER
  1
AC1009
  9
$INSBASE
 10
0
 20
0
  9
$EXTMIN
 10
-186.7852824512448
 20
-132.5
  9
$EXTMAX
 10
378.3653753709335
 20
222.3629537073191
  9
$LIMMIN
 10
-186.7852824512448
 20
-132.5
  9
$LIMMAX
 10
378.3653753709335
 20
222.3629537073191
  9
$VIEWCTR
 10
10
 20
10
  9
$VIEWSIZE
 40
10
  9
$SNAPMODE
 70
0
  9
$SNAPUNIT
 10
1
 20
1
  9
$SNAPBASE
 10
0
 20
0
  9
$SNAPANG
 50
0
  9
$SNAPSTYLE
 70
0
  9
$SNAPISOPAIR
 70
0
  9
$GRIDMODE
 70
0
  9
$GRIDUNIT
 10
0
 20
0
  9
$ORTHOMODE
 70
0
  9
$REGENMODE
 70
1
  9
$FILLMODE
 70
1
  9
$QTEXTMODE
 70
0
  9
$DRAGMODE
 70
2
  9
$LTSCALE
 40
1
  9
$OSMODE
 70
0
  9
$ATTMODE
 70
1
  9
$TEXTSIZE
 40
3.5
  9
$TRACEWID
 40
0.5
  9
$TEXTSTYLE
  7
STANDARD
  9
$CLAYER
  8
0
  9
$CELTYPE
  6
BYLAYER
  9
$CECOLOR
 62
256
  9
$DIMSCALE
 40
1
  9
$DIMASZ
 40
0.18
  9
$DIMEXO
 40
0.0625
  9
$DIMDLI
 40
0.38
  9
$DIMRND
 40
0
  9
$DIMDLE
 40
0
  9
$DIMEXE
 40
0.18
  9
$DIMTP
 40
0
  9
$DIMTM
 40
0
  9
$DIMTXT
 40
0.18
  9
$DIMCEN
 40
0.09
  9
$DIMTSZ
 40
0
  9
$DIMTOL
 70
0
  9
$DIMLIM
 70
0
  9
$DIMTIH
 70
1
  9
$DIMTOH
 70
1
  9
$DIMSE1
 70
0
  9
$DIMSE2
 70
0
  9
$DIMTAD
 70
0
  9
$DIMZIN
 70
0
  9
$DIMBLK
  1

  9
$DIMASO
 70
1
  9
$DIMSHO
 70
1
  9
$DIMPOST
  1

  9
$DIMAPOST
  1

  9
$DIMALT
 70
0
  9
$DIMALTD
 70
2
  9
$DIMALTF
 40
25.4
  9
$DIMLFAC
 40
1
  9
$DIMTOFL
 70
0
  9
$DIMTVP
 40
0
  9
$DIMTIX
 70
0
  9
$DIMSOXD
 70
0
  9
$DIMSAH
 70
0
  9
$DIMBLK1
  1

  9
$DIMBLK2
  1

  9
$DIMSTYLE
  2
*UNNAMED
  9
$DIMCLRD
 70
0
  9
$DIMCLRE
 70
0
  9
$DIMCLRT
 70
0
  9
$DIMTFAC
 40
1
  9
$DIMGAP
 40
0.09
  9
$LUNITS
 70
2
  9
$LUPREC
 70
4
  9
$AXISMODE
 70
0
  9
$AXISUNIT
 10
0
 20
0
  9
$SKETCHINC
 40
0.1
  9
$FILLETRAD
 40
2
  9
$AUNITS
 70
0
  9
$AUPREC
 70
0
  9
$MENU
  1
ACAD
  9
$ELEVATION
 40
0
  9
$THICKNESS
 40
0
  9
$VIEWDIR
 10
0
 20
0
 30
1
  9
$LIMCHECK
 70
0
  9
$BLIPMODE
 70
1
  9
$CHAMFERA
 40
0
  9
$CHAMFERB
 40
0
  9
$FASTZOOM
 70
1
  9
$SKPOLY
 70
0
  9
$ANGBASE
 50
0
  9
$ANGDIR
 70
0
  9
$PDMODE
 70
0
  9
$PDSIZE
 40
0
  9
$PLINEWID
 40
0
  9
$COORDS
 70
2
  0
ENDSEC
  0
SECTION
  2
TABLES
  0
TABLE
  2
DIMSTYLE
 70
0
  0
ENDTAB
  0
TABLE
  2
LTYPE
 70
9
  0
LTYPE
  2
CONTINUOUS
 70
64
  3
Solid line
 72
65
 73
0
 40
0
  0
LTYPE
  2
BORDER
 70
64
  3
__ __ . __ __ .
 72
65
 73
6
 40
26.02667503128453
 49
7.436192866081294
 49
-3.718096433040647
 49
7.436192866081294
 49
-3.718096433040647
 49
0
 49
-3.718096433040647
  0
LTYPE
  2
CENTER
 70
64
  3
____ _ ____ _
 72
65
 73
4
 40
29.74477146432518
 49
18.59048216520323
 49
-3.718096433040647
 49
3.718096433040647
 49
-3.718096433040647
  0
LTYPE
  2
DASHDOT
 70
64
  3
__ . __ . __ .
 72
65
 73
4
 40
14.87238573216259
 49
7.436192866081294
 49
-3.718096433040647
 49
0
 49
-3.718096433040647
  0
LTYPE
  2
DASHED
 70
64
  3
__ __ __ __ __
 72
65
 73
2
 40
11.15428929912194
 49
7.436192866081294
 49
-3.718096433040647
  0
LTYPE
  2
DIVIDE
 70
64
  3
__ . . __ . . 
 72
65
 73
6
 40
18.59048216520323
 49
7.436192866081294
 49
-3.718096433040647
 49
0
 49
-3.718096433040647
 49
0
 49
-3.718096433040647
  0
LTYPE
  2
DOT
 70
64
  3
..............
 72
65
 73
4
 40
7.436192866081294
 49
0
 49
-3.718096433040647
 49
0
 49
-3.718096433040647
  0
LTYPE
  2
HIDDEN
 70
64
  3
_ _ _ _ _ _ _
 72
65
 73
2
 40
5.577144649560971
 49
3.718096433040647
 49
-1.859048216520324
  0
LTYPE
  2
PHANTOM
 70
64
  3
_____ _ _ _____ _ _ 
 72
65
 73
6
 40
37.18096433040647
 49
18.59048216520323
 49
-3.718096433040647
 49
3.718096433040647
 49
-3.718096433040647
 49
3.718096433040647
 49
-3.718096433040647
  0
ENDTAB
  0
TABLE
  2
LAYER
 70
3
  0
LAYER
  2
1
 70
0
 62
7
  6
CONTINUOUS
  0
LAYER
  2
0
 70
0
 62
7
  6
CONTINUOUS
  0
ENDTAB
  0
TABLE
  2
STYLE
 70
4
  0
STYLE
  2
STANDARD
 70
0
 40
0
 41
1
 50
0
 71
0
 42
3.5
  3
txt
  4

  0
STYLE
  2
SIMPLEX
 70
0
 40
0
 41
1
 50
0
 71
0
 42
3.5
  3
simplex
  4

  0
STYLE
  2
COMPLEX
 70
0
 40
0
 41
1
 50
0
 71
0
 42
3.5
  3
complex
  4

  0
STYLE
  2
ITALIC
 70
0
 40
0
 41
1
 50
0
 71
0
 42
3.5
  3
italic
  4

  0
ENDTAB
  0
TABLE
  2
VIEW
 70
0
  0
ENDTAB
  0
ENDSEC
  0
SECTION
  2
BLOCKS
  0
ENDSEC
  0
SECTION
  2
ENTITIES
  0
LINE
  8
1
 62
7
 10
42.59999999999977
 20
-48
 30
0
 11
42.59999999999977
 21
-74
 31
0
  0
LINE
  8
1
 62
7
 10
40.99999999999979
 20
-48
 30
0
 11
40.99999999999979
 21
-106.5
 31
0
  0
LINE
  8
1
 62
7
 10
31.59999999999975
 20
-48
 30
0
 11
31.59999999999975
 21
-107.5
 31
0
  0
LINE
  8
1
 62
7
 10
31.19999999999974
 20
47.99999999999994
 30
0
 11
31.19999999999974
 21
106.9999999999999
 31
0
  0
LINE
  8
1
 62
7
 10
47.49999999999989
 20
-74
 30
0
 11
47.4999999999999
 21
-41
 31
0
  0
LINE
  8
1
 62
7
 10
56.4999999999999
 20
20
 30
0
 11
6.499999999999886
 21
20
 31
0
  0
LINE
  8
1
 62
7
 10
-114.4577686011513
 20
107.4999999999999
 30
0
 11
-114.4577686011513
 21
-107.5
 31
0
  0
LINE
  8
1
 62
7
 10
-112.8577686011514
 20
83.62845421394019
 30
0
 11
-112.8577686011514
 21
106.4999999999999
 31
0
  0
LINE
  8
1
 62
7
 10
-111.6577686011514
 20
79.00000000000006
 30
0
 11
-111.6577686011514
 21
-106.5
 31
0
  0
LINE
  8
1
 62
7
 10
-123.0577686011513
 20
106.9924612812092
 30
0
 11
-148.2577686011514
 21
106.9924612812092
 31
0
  0
LINE
  8
1
 62
7
 10
-151.2577686011514
 20
103.9999999999999
 30
0
 11
-151.2577686011514
 21
-132.5
 31
0
  0
LINE
  8
1
 62
7
 10
-154.2577686011514
 20
99.99999999999994
 30
0
 11
-154.2577686011514
 21
-132.5
 31
0
  0
LINE
  8
1
 62
7
 10
41.39999999999979
 20
83.62845421394019
 30
0
 11
41.39999999999979
 21
106.4999999999999
 31
0
  0
LINE
  8
1
 62
7
 10
39.79999999999976
 20
107.4999999999999
 30
0
 11
39.79999999999976
 21
79.00000000000006
 31
0
  0
LINE
  8
1
 62
7
 10
0
 20
-132.5
 30
0
 11
0
 21
100
 31
0
  0
LINE
  8
1
 62
7
 10
3
 20
-80.00000000000003
 30
0
 11
3
 21
-132.5
 31
0
  0
LINE
  8
1
 62
7
 10
-123.0577686011513
 20
-107
 30
0
 11
-123.0577686011513
 21
106.9924612812092
 31
0
  0
LINE
  8
1
 62
7
 10
31.19999999999974
 20
-107
 30
0
 11
31.19999999999974
 21
-48
 31
0
  0
LINE
  8
1
 62
7
 10
-142.2237120513016
 20
162.9999999999999
 30
0
 11
-142.2237120513016
 21
167.9999999999999
 31
0
  0
LINE
  8
1
 62
7
 10
-141.8226989868485
 20
162.9999999999999
 30
0
 11
-141.8226989868485
 21
167.9999999999999
 31
0
  0
LINE
  8
1
 62
7
 10
-140.6380717714475
 20
167.9999999999999
 30
0
 11
-140.6380717714475
 21
162.9999999999999
 31
0
  0
LINE
  8
1
 62
7
 10
-141.0390848359005
 20
167.9999999999999
 30
0
 11
-141.0390848359005
 21
162.9999999999999
 31
0
  0
LINE
  8
1
 62
7
 10
-140.1642540065775
 20
162.9999999999999
 30
0
 11
-140.1642540065775
 21
106.9924612812092
 31
0
  0
LINE
  8
1
 62
7
 10
-142.6975298161713
 20
162.9999999999999
 30
0
 11
-142.6975298161713
 21
107.0003465620391
 31
0
  0
LINE
  8
1
 62
3
  6
DASHDOT
 10
-160.9911422747673
 20
0
 30
0
 11
-154.2577686011514
 21
0
 31
0
  0
LINE
  8
1
 62
7
 10
-151.2577686011514
 20
103.9999999999999
 30
0
 11
-148.2577686011514
 21
106.9999999999999
 31
0
  0
LINE
  8
1
 62
7
 10
-148.2577686011514
 20
-107
 30
0
 11
-123.0577686011513
 21
-107
 31
0
  0
LINE
  8
1
 62
7
 10
-148.2577686011514
 20
-107
 30
0
 11
-151.2577686011514
 21
-104
 31
0
  0
LINE
  8
1
 62
3
  6
DASHDOT
 10
-157.4985881289831
 20
-120
 30
0
 11
-149.0165066573783
 21
-120
 31
0
  0
LINE
  8
1
 62
7
 10
-154.2577686011514
 20
-132.5
 30
0
 11
-151.2577686011514
 21
-132.5
 31
0
  0
LINE
  8
1
 62
7
 10
-154.2577686011514
 20
99.99999999999994
 30
0
 11
-151.2577686011514
 21
99.99999999999994
 31
0
  0
LINE
  8
1
 62
7
 10
-122.6577686011513
 20
107.4999999999999
 30
0
 11
-114.4577686011513
 21
107.4999999999999
 31
0
  0
LINE
  8
1
 62
7
 10
-114.4577686011513
 20
79.00000000000006
 30
0
 11
-113.2577686011513
 21
79.00000000000006
 31
0
  0
LINE
  8
1
 62
7
 10
-114.4577686011513
 20
106.4999999999999
 30
0
 11
-112.8577686011514
 21
106.4999999999999
 31
0
  0
LINE
  8
1
 62
7
 10
-114.4577686011513
 20
83.47846096908262
 30
0
 11
-113.2577686011513
 21
79.00000000000006
 31
0
  0
LINE
  8
1
 62
7
 10
-112.8577686011514
 20
83.62845421394019
 30
0
 11
-111.6577686011514
 21
79.00000000000006
 31
0
  0
LINE
  8
1
 62
7
 10
-112.8577686011514
 20
103.9999999999999
 30
0
 11
-109.0577686011514
 21
103.9999999999999
 31
0
  0
LINE
  8
1
 62
7
 10
-108.0577686011514
 20
102.9999999999999
 30
0
 11
-108.0577686011514
 21
89.00000000000006
 31
0
  0
LINE
  8
1
 62
7
 10
-112.8577686011514
 20
88.00000000000006
 30
0
 11
-109.0577686011514
 21
88.00000000000006
 31
0
  0
LINE
  8
1
 62
7
 10
-111.8577686011514
 20
103.9999999999999
 30
0
 11
-111.8577686011514
 21
88.00000000000006
 31
0
  0
LINE
  8
1
 62
7
 10
-108.0577686011514
 20
102.9999999999999
 30
0
 11
-109.0577686011514
 21
103.9999999999999
 31
0
  0
LINE
  8
1
 62
7
 10
-109.0577686011514
 20
88.00000000000006
 30
0
 11
-108.0577686011514
 21
89.00000000000006
 31
0
  0
LINE
  8
1
 62
7
 10
-113.2577686011513
 20
79.00000000000006
 30
0
 11
-113.2577686011513
 21
-106.5
 31
0
  0
LINE
  8
1
 62
7
 10
-114.4577686011513
 20
-107.5
 30
0
 11
-122.6577686011513
 21
-107.5
 31
0
  0
LINE
  8
1
 62
7
 10
-113.2577686011513
 20
-106.5
 30
0
 11
-111.6577686011514
 21
-106.5
 31
0
  0
LINE
  8
1
 62
7
 10
-122.6577686011513
 20
107.4999999999999
 30
0
 11
-122.6577686011513
 21
-107.5
 31
0
  0
LINE
  8
1
 62
7
 10
-111.6577686011514
 20
-69.5
 30
0
 11
-106.7577686011514
 21
-69.5
 31
0
  0
LINE
  8
1
 62
7
 10
-106.7577686011514
 20
-88.5
 30
0
 11
-111.6577686011514
 21
-88.5
 31
0
  0
LINE
  8
1
 62
7
 10
-142.6975298161713
 20
162.9999999999999
 30
0
 11
-140.1642540065775
 21
162.9999999999999
 31
0
  0
LINE
  8
1
 62
7
 10
31.59999999999988
 20
53.50000000000006
 30
0
 11
32.69999999999968
 21
53.50000000000006
 31
0
  0
LINE
  8
1
 62
7
 10
32.69953488372065
 20
53.50000000000006
 30
0
 11
40.99999999999979
 21
53.50000000000006
 31
0
  0
LINE
  8
1
 62
7
 10
-2.415845301584341e-013
 20
-53.5
 30
0
 11
31.19999999999974
 21
-53.5
 31
0
  0
LINE
  8
1
 62
7
 10
270.1685741585453
 20
163.0000000000002
 30
0
 11
270.1685741585453
 21
167.9999999999999
 31
0
  0
LINE
  8
1
 62
7
 10
269.5765027277951
 20
163.0000000000002
 30
0
 11
269.5765027277951
 21
167.9999999999999
 31
0
  0
LINE
  8
1
 62
7
 10
268.8972018374757
 20
163.0000000000002
 30
0
 11
268.8972018374757
 21
167.9999999999999
 31
0
  0
LINE
  8
1
 62
7
 10
272.833548904391
 20
167.9999999999999
 30
0
 11
272.833548904391
 21
163.0000000000002
 31
0
  0
LINE
  8
1
 62
7
 10
272.1572125942201
 20
167.9999999999999
 30
0
 11
272.1572125942201
 21
163.0000000000002
 31
0
  0
LINE
  8
1
 62
7
 10
271.5621765833215
 20
167.9999999999999
 30
0
 11
271.5621765833215
 21
163.0000000000002
 31
0
  0
LINE
  8
1
 62
7
 10
268.1653753709333
 20
163.0000000000002
 30
0
 11
273.5653753709333
 21
163.0000000000002
 31
0
  0
LINE
  8
1
 62
7
 10
268.1653753709333
 20
163.0000000000002
 30
0
 11
268.1653753709334
 21
107.4660876742055
 31
0
  0
LINE
  8
1
 62
7
 10
273.5653753709333
 20
163.0000000000002
 30
0
 11
273.5653753709334
 21
107.4660876742055
 31
0
  0
LINE
  8
1
 62
7
 10
12.03405654984958
 20
162.9999999999999
 30
0
 11
12.03405654984958
 21
167.9999999999999
 31
0
  0
LINE
  8
1
 62
7
 10
12.43506961430255
 20
162.9999999999999
 30
0
 11
12.43506961430255
 21
167.9999999999999
 31
0
  0
LINE
  8
1
 62
7
 10
13.61969682970367
 20
167.9999999999999
 30
0
 11
13.61969682970367
 21
162.9999999999999
 31
0
  0
LINE
  8
1
 62
7
 10
13.21868376525065
 20
167.9999999999999
 30
0
 11
13.21868376525065
 21
162.9999999999999
 31
0
  0
LINE
  8
1
 62
7
 10
14.09351459457359
 20
162.9999999999999
 30
0
 11
14.09351459457359
 21
106.9999999999999
 31
0
  0
LINE
  8
1
 62
7
 10
11.56023878497988
 20
162.9999999999999
 30
0
 11
11.56023878497988
 21
107.0003465620391
 31
0
  0
LINE
  8
1
 62
7
 10
183.9386821173648
 20
99.99999999999994
 30
0
 11
231.4160407757846
 21
99.99999999999994
 31
0
  0
LINE
  8
1
 62
7
 10
310.3147099660822
 20
99.99999999999994
 30
0
 11
357.792068624502
 21
99.99999999999994
 31
0
  0
LINE
  8
1
 62
7
 10
183.9386821173648
 20
-99.99999999999994
 30
0
 11
231.4160407757846
 21
-99.99999999999994
 31
0
  0
LINE
  8
1
 62
7
 10
310.3147099660822
 20
-99.99999999999994
 30
0
 11
357.792068624502
 21
-99.99999999999994
 31
0
  0
LINE
  8
1
 62
7
 10
370.8653753709334
 20
86.92669325356863
 30
0
 11
370.8653753709334
 21
39.44933459514886
 31
0
  0
LINE
  8
1
 62
7
 10
370.8653753709334
 20
-39.44933459514869
 30
0
 11
370.8653753709334
 21
-86.92669325356852
 31
0
  0
LINE
  8
1
 62
7
 10
170.8653753709334
 20
-86.92669325356854
 30
0
 11
170.8653753709334
 21
-36.63673020344464
 31
0
  0
LINE
  8
1
 62
7
 10
170.8653753709335
 20
86.92669325356863
 30
0
 11
170.8653753709334
 21
39.44933459514886
 31
0
  0
LINE
  8
1
 62
3
  6
DASHDOT
 10
179.2211307666168
 20
91.64424460431664
 30
0
 11
193.481562421293
 21
77.38381294964034
 31
0
  0
LINE
  8
1
 62
3
  6
DASHDOT
 10
364.557023878151
 20
93.69164850721762
 30
0
 11
349.9268861623003
 21
79.06151079136697
 31
0
  0
LINE
  8
1
 62
3
  6
DASHDOT
 10
179.2211307666167
 20
-91.6442446043165
 30
0
 11
194.8513963933796
 21
-76.01397897755381
 31
0
  0
LINE
  8
1
 62
3
  6
DASHDOT
 10
-6.733373673616157
 20
0
 30
0
 11
-2.415845301584341e-013
 21
0
 31
0
  0
LINE
  8
1
 62
7
 10
3
 20
80.00000000000003
 30
0
 11
3
 21
104
 31
0
  0
LINE
  8
1
 62
7
 10
3
 20
80.00000000000003
 30
0
 11
0
 21
80.00000000000003
 31
0
  0
LINE
  8
1
 62
7
 10
-2.415845301584341e-013
 20
53.50000000000006
 30
0
 11
31.19999999999993
 21
53.50000000000003
 31
0
  0
LINE
  8
1
 62
7
 10
3
 20
104
 30
0
 11
6
 21
107
 31
0
  0
LINE
  8
1
 62
7
 10
31.19999999999974
 20
106.9999999999999
 30
0
 11
6
 21
107
 31
0
  0
LINE
  8
1
 62
7
 10
5.999999999999758
 20
-107
 30
0
 11
31.19999999999974
 21
-107
 31
0
  0
LINE
  8
1
 62
7
 10
5.999999999999758
 20
-107
 30
0
 11
3
 21
-104
 31
0
  0
LINE
  8
1
 62
7
 10
-2.415845301584341e-013
 20
-80
 30
0
 11
3
 21
-80.00000000000003
 31
0
  0
LINE
  8
1
 62
3
  6
DASHDOT
 10
-3.24081952783196
 20
-120
 30
0
 11
5.241261943772869
 21
-120
 31
0
  0
LINE
  8
1
 62
7
 10
0
 20
-114.5
 30
0
 11
3
 21
-114.5
 31
0
  0
LINE
  8
1
 62
7
 10
0
 20
-125.5
 30
0
 11
3
 21
-125.5
 31
0
  0
LINE
  8
1
 62
7
 10
0
 20
-132.5
 30
0
 11
3
 21
-132.5
 31
0
  0
LINE
  8
1
 62
7
 10
0
 20
100
 30
0
 11
3
 21
100
 31
0
  0
LINE
  8
1
 62
7
 10
31.59999999999975
 20
107.4999999999999
 30
0
 11
39.79999999999976
 21
107.4999999999999
 31
0
  0
LINE
  8
1
 62
7
 10
39.79999999999976
 20
79.00000000000006
 30
0
 11
40.99999999999979
 21
79.00000000000006
 31
0
  0
LINE
  8
1
 62
7
 10
39.79999999999976
 20
83.47846096908262
 30
0
 11
40.99999999999979
 21
79.00000000000006
 31
0
  0
LINE
  8
1
 62
7
 10
39.79999999999976
 20
106.4999999999999
 30
0
 11
41.39999999999979
 21
106.4999999999999
 31
0
  0
LINE
  8
1
 62
7
 10
41.39999999999979
 20
83.62845421394019
 30
0
 11
42.59999999999977
 21
79.00000000000006
 31
0
  0
LINE
  8
1
 62
7
 10
39.79999999999976
 20
85.50000000000006
 30
0
 11
41.39999999999979
 21
85.50000000000006
 31
0
  0
LINE
  8
1
 62
7
 10
41.39999999999979
 20
103.9999999999999
 30
0
 11
45.19999999999978
 21
103.9999999999999
 31
0
  0
LINE
  8
1
 62
7
 10
46.19999999999978
 20
102.9999999999999
 30
0
 11
46.19999999999978
 21
89.00000000000006
 31
0
  0
LINE
  8
1
 62
7
 10
41.39999999999979
 20
88.00000000000006
 30
0
 11
45.19999999999978
 21
88.00000000000006
 31
0
  0
LINE
  8
1
 62
7
 10
42.39999999999978
 20
103.9999999999999
 30
0
 11
42.39999999999978
 21
88.00000000000006
 31
0
  0
LINE
  8
1
 62
7
 10
46.19999999999978
 20
102.9999999999999
 30
0
 11
45.19999999999978
 21
103.9999999999999
 31
0
  0
LINE
  8
1
 62
7
 10
45.19999999999978
 20
88.00000000000006
 30
0
 11
46.19999999999978
 21
89.00000000000006
 31
0
  0
LINE
  8
1
 62
7
 10
40.99999999999979
 20
-53.5
 30
0
 11
31.59999999999975
 21
-53.5
 31
0
  0
LINE
  8
1
 62
7
 10
39.79999999999976
 20
-107.5
 30
0
 11
31.59999999999975
 21
-107.5
 31
0
  0
LINE
  8
1
 62
7
 10
40.99999999999979
 20
-106.5
 30
0
 11
42.59999999999977
 21
-106.5
 31
0
  0
LINE
  8
1
 62
7
 10
31.59999999999975
 20
-69
 30
0
 11
40.99999999999979
 21
-69
 31
0
  0
LINE
  8
1
 62
7
 10
31.59999999999975
 20
-89
 30
0
 11
39.79999999999976
 21
-89
 31
0
  0
LINE
  8
1
 62
7
 10
39.79999999999976
 20
-89
 30
0
 11
39.79999999999976
 21
-107.5
 31
0
  0
LINE
  8
1
 62
7
 10
31.59999999999975
 20
107.4999999999999
 30
0
 11
31.59999999999975
 21
47.99999999999994
 31
0
  0
LINE
  8
1
 62
7
 10
42.59999999999977
 20
-69.5
 30
0
 11
47.49999999999989
 21
-69.5
 31
0
  0
LINE
  8
1
 62
7
 10
42.59999999999977
 20
79.00000000000006
 30
0
 11
42.59999999999977
 21
47.99999999999994
 31
0
  0
LINE
  8
1
 62
7
 10
47.49999999999989
 20
-88.5
 30
0
 11
42.59999999999977
 21
-88.5
 31
0
  0
LINE
  8
1
 62
7
 10
42.59999999999977
 20
-84
 30
0
 11
42.59999999999977
 21
-106.5
 31
0
  0
LINE
  8
1
 62
7
 10
40.99999999999968
 20
-66.5
 30
0
 11
42.59999999999965
 21
-66.5
 31
0
  0
LINE
  8
1
 62
7
 10
40.99999999999979
 20
79.00000000000006
 30
0
 11
40.99999999999979
 21
47.99999999999994
 31
0
  0
LINE
  8
1
 62
7
 10
40.99999999999979
 20
-93.23278449816661
 30
0
 11
42.59999999999977
 21
-93.23278449816661
 31
0
  0
LINE
  8
1
 62
7
 10
11.56023878497988
 20
162.9999999999999
 30
0
 11
14.09351459457359
 21
162.9999999999999
 31
0
  0
LINE
  8
1
 62
7
 10
270.8653753709334
 20
163.0000000000002
 30
0
 11
270.8653753709334
 21
107.5226479459421
 31
0
  0
LINE
  8
1
 62
3
  6
DASHDOT
 10
348.1185334267701
 20
-77.25315805583671
 30
0
 11
363.6690245444243
 21
-92.80364917349084
 31
0
  0
LINE
  8
1
 62
7
 10
-148.2577686011514
 20
106.9999999999999
 30
0
 11
-148.2577686011514
 21
-107.0071143513191
 31
0
  0
LINE
  8
1
 62
7
 10
-106.7577686011514
 20
93.50000000000006
 30
0
 11
-106.7577686011514
 21
-93.5
 31
0
  0
LINE
  8
1
 62
7
 10
-97.7577686011514
 20
93.50000000000006
 30
0
 11
-97.7577686011514
 21
-93.5
 31
0
  0
LINE
  8
1
 62
7
 10
36.49999999999978
 20
-88
 30
0
 11
40.99999999999978
 21
-88
 31
0
  0
LINE
  8
1
 62
7
 10
275.8653753709334
 20
23.50000000000006
 30
0
 11
275.8653753709334
 21
19.36491673103706
 31
0
  0
LINE
  8
1
 62
7
 10
265.8653753709334
 20
23.50000000000006
 30
0
 11
275.8653753709334
 21
23.50000000000006
 31
0
  0
LINE
  8
1
 62
7
 10
265.8653753709334
 20
19.36491673103714
 30
0
 11
265.8653753709334
 21
23.50000000000006
 31
0
  0
LINE
  8
1
 62
7
 10
39.99999999999978
 20
-70
 30
0
 11
39.99999999999978
 21
-88
 31
0
  0
LINE
  8
1
 62
7
 10
47.4999999999999
 20
93.50000000000006
 30
0
 11
56.4999999999999
 21
93.50000000000006
 31
0
  0
LINE
  8
1
 62
7
 10
46.49999999999989
 20
40
 30
0
 11
6.499999999999886
 21
39.99999999999994
 31
0
  0
LINE
  8
1
 62
7
 10
47.4999999999999
 20
93.50000000000006
 30
0
 11
47.49999999999989
 21
41
 31
0
  0
LINE
  8
1
 62
7
 10
56.4999999999999
 20
-93.5
 30
0
 11
56.49999999999989
 21
-92.50000000000001
 31
0
  0
LINE
  8
1
 62
7
 10
56.4999999999999
 20
-93.5
 30
0
 11
47.4999999999999
 21
-93.5
 31
0
  0
LINE
  8
1
 62
7
 10
56.4999999999999
 20
-93.5
 30
0
 11
47.4999999999999
 21
-93.5
 31
0
  0
LINE
  8
1
 62
7
 10
56.4999999999999
 20
-93.5
 30
0
 11
47.4999999999999
 21
-93.5
 31
0
  0
LINE
  8
1
 62
7
 10
47.4999999999999
 20
-93.5
 30
0
 11
47.49999999999989
 21
-84
 31
0
  0
LINE
  8
1
 62
7
 10
6.499999999999886
 20
-40
 30
0
 11
46.4999999999999
 21
-40
 31
0
  0
LINE
  8
1
 62
7
 10
6.499999999999886
 20
39.99999999999994
 30
0
 11
6.499999999999886
 21
-40
 31
0
  0
LINE
  8
1
 62
7
 10
6.499999999999886
 20
23.50000000000006
 30
0
 11
56.4999999999999
 21
23.50000000000006
 31
0
  0
LINE
  8
1
 62
7
 10
6.499999999999886
 20
-19.99999999999994
 30
0
 11
56.4999999999999
 21
-19.99999999999994
 31
0
  0
LINE
  8
1
 62
7
 10
56.4999999999999
 20
93.50000000000006
 30
0
 11
56.49999999999989
 21
-92.50000000000001
 31
0
  0
LINE
  8
1
 62
7
 10
40.99999999999978
 20
-74
 30
0
 11
51.4999999999999
 21
-74
 31
0
  0
LINE
  8
1
 62
7
 10
51.4999999999999
 20
-74
 30
0
 11
56.4999999999999
 21
-69
 31
0
  0
LINE
  8
1
 62
7
 10
51.4999999999999
 20
-84
 30
0
 11
40.99999999999978
 21
-84
 31
0
  0
LINE
  8
1
 62
7
 10
51.4999999999999
 20
-74
 30
0
 11
51.4999999999999
 21
-84
 31
0
  0
LINE
  8
1
 62
7
 10
56.4999999999999
 20
-89
 30
0
 11
51.4999999999999
 21
-84
 31
0
  0
LINE
  8
1
 62
7
 10
40.99999999999978
 20
-70
 30
0
 11
36.49999999999978
 21
-70
 31
0
  0
LINE
  8
1
 62
7
 10
36.19999999999983
 20
-87.70000000000005
 30
0
 11
36.19999999999983
 21
-70.30000000000001
 31
0
  0
LINE
  8
1
 62
7
 10
36.49999999999978
 20
-88
 30
0
 11
36.19999999999983
 21
-87.70000000000005
 31
0
  0
LINE
  8
1
 62
7
 10
36.19999999999983
 20
-70.30000000000001
 30
0
 11
36.49999999999978
 21
-70
 31
0
  0
LINE
  8
1
 62
3
 10
56.49999999999989
 20
51.50000000000003
 30
0
 11
47.49999999999989
 21
51.50000000000003
 31
0
  0
LINE
  8
1
 62
3
 10
56.49999999999989
 20
43.5
 30
0
 11
47.49999999999989
 21
43.5
 31
0
  0
LINE
  8
1
 62
3
  6
DASHDOT
 10
58.29999999999993
 20
47.50000000000006
 30
0
 11
45.69999999999979
 21
47.50000000000006
 31
0
  0
LINE
  8
1
 62
7
 10
56.49999999999989
 20
50.7
 30
0
 11
47.49999999999989
 21
50.7
 31
0
  0
LINE
  8
1
 62
7
 10
56.49999999999989
 20
44.3
 30
0
 11
47.49999999999989
 21
44.3
 31
0
  0
LINE
  8
1
 62
3
  6
DASHDOT
 10
278.9934514586691
 20
5.684341886080802e-014
 30
0
 11
262.7372992831976
 21
5.684341886080802e-014
 31
0
  0
LINE
  8
1
 62
3
  6
DASHDOT
 10
270.8653753709334
 20
8.128076087735792
 30
0
 11
270.8653753709334
 21
-8.128076087735735
 31
0
  0
LINE
  8
1
 62
3
  6
DASHDOT
 10
65.77860547894356
 20
0
 30
0
 11
56.4999999999999
 21
0
 31
0
  0
LINE
  8
1
 62
7
 10
-106.7577686011514
 20
93.50000000000006
 30
0
 11
-97.7577686011514
 21
93.50000000000006
 31
0
  0
LINE
  8
1
 62
7
 10
-97.7577686011514
 20
-93.5
 30
0
 11
-105.7577686011514
 21
-93.5
 31
0
  0
LINE
  8
1
 62
7
 10
-97.7577686011514
 20
-93.5
 30
0
 11
-105.7577686011514
 21
-93.5
 31
0
  0
LINE
  8
1
 62
7
 10
-97.7577686011514
 20
-93.5
 30
0
 11
-106.7577686011514
 21
-93.5
 31
0
  0
LINE
  8
1
 62
3
  6
DASHDOT
 10
-88.47916312220771
 20
0
 30
0
 11
-97.7577686011514
 21
0
 31
0
  0
LINE
  8
1
 62
7
 10
-107.7577686011514
 20
39.99999999999994
 30
0
 11
-111.6577686011514
 21
39.99999999999994
 31
0
  0
LINE
  8
1
 62
7
 10
-107.7577686011514
 20
-40
 30
0
 11
-111.6577686011514
 21
-40
 31
0
  0
ARC
  8
1
 62
7
 10
354.0038141342395
 20
-48.00000000000001
 30
0
 40
7.999999999999986
 50
219.5067116781804
 51
80.49328832181976
  0
ARC
  8
1
 62
7
 10
187.7269366076273
 20
-47.99999999999993
 30
0
 40
7.999999999999988
 50
99.50671167818094
 51
320.4932883218186
  0
ARC
  8
1
 62
7
 10
270.8653753709334
 20
96.00000000000003
 30
0
 40
8.000000000000002
 50
339.506711678181
 51
200.4932883218187
  0
ARC
  8
1
 62
7
 10
242.6153753709334
 20
48.93043531382085
 30
0
 40
49.99999999999996
 50
120
 51
169.7457365550782
  0
ARC
  8
1
 62
7
 10
214.3653753709334
 20
5.684341886080802e-014
 30
0
 40
50
 50
130.2542634449217
 51
180
  0
ARC
  8
1
 62
7
 10
168.6743777243696
 20
59.00000000000006
 30
0
 40
24.76721550183342
 50
302.7047028571633
 51
357.2952971428371
  0
ARC
  8
1
 62
7
 10
299.1153753709334
 20
-48.93043531382074
 30
0
 40
49.99999999999994
 50
250.254263444922
 51
300.0000000000001
  0
ARC
  8
1
 62
7
 10
270.8653753709334
 20
5.684341886080802e-014
 30
0
 40
106.5
 50
180
 51
240
  0
ARC
  8
1
 62
7
 10
242.6153753709334
 20
-48.93043531382074
 30
0
 40
49.99999999999996
 50
240
 51
289.7457365550781
  0
ARC
  8
1
 62
7
 10
270.8653753709334
 20
-118
 30
0
 40
24.76721550183352
 50
62.70470285716276
 51
117.2952971428371
  0
ARC
  8
1
 62
7
 10
299.1153753709334
 20
48.93043531382085
 30
0
 40
49.99999999999997
 50
10.25426344492182
 51
59.99999999999999
  0
ARC
  8
1
 62
7
 10
270.8653753709334
 20
5.684341886080802e-014
 30
0
 40
106.5
 50
59.99999999999999
 51
120
  0
ARC
  8
1
 62
7
 10
270.8653753709334
 20
5.684341886080802e-014
 30
0
 40
106.5
 50
300.0000000000001
 51
359.9999999999999
  0
ARC
  8
1
 62
7
 10
327.3653753709334
 20
0
 30
0
 40
50
 50
359.9999999999999
 51
49.74573655507835
  0
ARC
  8
1
 62
7
 10
373.0563730174972
 20
59.00000000000006
 30
0
 40
24.76721550183347
 50
182.704702857163
 51
237.2952971428366
  0
ARC
  8
1
 62
7
 10
270.8653753709334
 20
5.684341886080802e-014
 30
0
 40
132.4999999999999
 50
130.9993536502047
 51
139.0006463497953
  0
ARC
  8
1
 62
7
 10
270.8653753709334
 20
5.684341886080802e-014
 30
0
 40
132.5
 50
40.99935365020468
 51
49.00064634979528
  0
ARC
  8
1
 62
7
 10
270.8653753709334
 20
5.684341886080802e-014
 30
0
 40
132.5
 50
310.9993536502047
 51
319.0006463497953
  0
ARC
  8
1
 62
7
 10
270.8653753709334
 20
5.684341886080802e-014
 30
0
 40
132.5
 50
220.9993536502047
 51
229.0006463497953
  0
ARC
  8
1
 62
3
  6
DASHDOT
 10
270.8653753709334
 20
5.684341886080802e-014
 30
0
 40
120.0000000000001
 50
129.6495206376373
 51
140.4900962260115
  0
ARC
  8
1
 62
3
  6
DASHDOT
 10
270.8653753709334
 20
5.684341886080802e-014
 30
0
 40
119.9999999999999
 50
38.78446579847802
 51
50.88758054269726
  0
ARC
  8
1
 62
3
  6
DASHDOT
 10
270.8653753709334
 20
5.684341886080802e-014
 30
0
 40
119.9999999999999
 50
309.2148806862679
 51
321.4631433408305
  0
ARC
  8
1
 62
3
  6
DASHDOT
 10
270.8653753709334
 20
5.684341886080802e-014
 30
0
 40
119.9999999999999
 50
218.8676389157644
 51
231.6414961294262
  0
ARC
  8
1
 62
7
 10
46.49999999999989
 20
41
 30
0
 40
1
 50
270
 51
0
  0
ARC
  8
1
 62
7
 10
46.4999999999999
 20
-41
 30
0
 40
1
 50
0
 51
90
  0
ARC
  8
1
 62
7
 10
-107.7577686011514
 20
40.99999999999994
 30
0
 40
1
 50
270
 51
0
  0
ARC
  8
1
 62
7
 10
-107.7577686011514
 20
-41
 30
0
 40
1
 50
0
 51
90
  0
ARC
  8
1
 62
7
 10
270.8653753709334
 20
5.684341886080802e-014
 30
0
 40
20
 50
104.4775121859299
 51
75.52248781407002
  0
CIRCLE
  8
1
 62
7
 10
270.8653753709334
 20
5.684341886080802e-014
 30
0
 40
107.5000000000001
  0
CIRCLE
  8
1
 62
7
 10
186.0125616285476
 20
84.85281374238576
 30
0
 40
5.5
  0
CIRCLE
  8
1
 62
7
 10
186.0125616285477
 20
-84.85281374238568
 30
0
 40
5.5
  0
CIRCLE
  8
1
 62
7
 10
355.7181891133191
 20
-84.85281374238559
 30
0
 40
5.500000000000114
  0
CIRCLE
  8
1
 62
7
 10
355.7181891133192
 20
84.85281374238582
 30
0
 40
5.5
  0
CIRCLE
  8
1
 62
7
 10
270.8653753709334
 20
5.684341886080802e-014
 30
0
 40
93.5
  0
CIRCLE
  8
1
 62
7
 10
339.281382269904
 20
39.50000000000006
 30
0
 40
5
  0
CIRCLE
  8
1
 62
7
 10
339.281382269904
 20
39.50000000000006
 30
0
 40
10
  0
CIRCLE
  8
1
 62
7
 10
202.4493684719627
 20
39.50000000000006
 30
0
 40
10
  0
CIRCLE
  8
1
 62
7
 10
270.8653753709334
 20
-78.99999999999994
 30
0
 40
10
  0
CIRCLE
  8
1
 62
7
 10
202.4493684719627
 20
39.50000000000006
 30
0
 40
5.000000000000085
  0
CIRCLE
  8
1
 62
7
 10
270.8653753709334
 20
-78.99999999999994
 30
0
 40
4.999999999999886
  0
CIRCLE
  8
1
 62
7
 10
304.4529474772944
 20
33.58757210636111
 30
0
 40
3.200000000000102
  0
CIRCLE
  8
1
 62
3
 10
304.4529474772944
 20
33.58757210636111
 30
0
 40
4
  0
CIRCLE
  8
1
 62
7
 10
237.2778032645724
 20
-33.58757210636094
 30
0
 40
3.200000000000017
  0
CIRCLE
  8
1
 62
3
 10
237.2778032645724
 20
-33.58757210636094
 30
0
 40
4
  0
TEXT
  8
1
 62
7
 10
-186.7852824512448
 20
198.3629537073191
 30
0
 40
9
  1
DC1712
 41
0.9
  7
SIMPLEX
  0
TEXT
  8
1
 62
7
 10
-186.7852824512448
 20
213.3629537073191
 30
0
 40
9
  1
TMB 20HI
 41
0.9
  7
SIMPLEX
  0
ENDSEC
  0
EOF
