  0
SECTION
  2
HEADER
  9
$ACADVER
  1
AC1009
  9
$INSBASE
 10
0
 20
0
  9
$EXTMIN
 10
-284.1011265701955
 20
-59.1543091162231
  9
$EXTMAX
 10
0.783605842723953
 20
166.9243324653756
  9
$LIMMIN
 10
-284.1011265701955
 20
-59.1543091162231
  9
$LIMMAX
 10
0.783605842723953
 20
166.9243324653756
  9
$VIEWCTR
 10
10
 20
10
  9
$VIEWSIZE
 40
10
  9
$SNAPMODE
 70
0
  9
$SNAPUNIT
 10
1
 20
1
  9
$SNAPBASE
 10
0
 20
0
  9
$SNAPANG
 50
0
  9
$SNAPSTYLE
 70
0
  9
$SNAPISOPAIR
 70
0
  9
$GRIDMODE
 70
0
  9
$GRIDUNIT
 10
0
 20
0
  9
$ORTHOMODE
 70
0
  9
$REGENMODE
 70
1
  9
$FILLMODE
 70
1
  9
$QTEXTMODE
 70
0
  9
$DRAGMODE
 70
2
  9
$LTSCALE
 40
1
  9
$OSMODE
 70
0
  9
$ATTMODE
 70
1
  9
$TEXTSIZE
 40
3.5
  9
$TRACEWID
 40
0.5
  9
$TEXTSTYLE
  7
STANDARD
  9
$CLAYER
  8
0
  9
$CELTYPE
  6
BYLAYER
  9
$CECOLOR
 62
256
  9
$DIMSCALE
 40
1
  9
$DIMASZ
 40
0.18
  9
$DIMEXO
 40
0.0625
  9
$DIMDLI
 40
0.38
  9
$DIMRND
 40
0
  9
$DIMDLE
 40
0
  9
$DIMEXE
 40
0.18
  9
$DIMTP
 40
0
  9
$DIMTM
 40
0
  9
$DIMTXT
 40
0.18
  9
$DIMCEN
 40
0.09
  9
$DIMTSZ
 40
0
  9
$DIMTOL
 70
0
  9
$DIMLIM
 70
0
  9
$DIMTIH
 70
1
  9
$DIMTOH
 70
1
  9
$DIMSE1
 70
0
  9
$DIMSE2
 70
0
  9
$DIMTAD
 70
0
  9
$DIMZIN
 70
0
  9
$DIMBLK
  1

  9
$DIMASO
 70
1
  9
$DIMSHO
 70
1
  9
$DIMPOST
  1

  9
$DIMAPOST
  1

  9
$DIMALT
 70
0
  9
$DIMALTD
 70
2
  9
$DIMALTF
 40
25.4
  9
$DIMLFAC
 40
1
  9
$DIMTOFL
 70
0
  9
$DIMTVP
 40
0
  9
$DIMTIX
 70
0
  9
$DIMSOXD
 70
0
  9
$DIMSAH
 70
0
  9
$DIMBLK1
  1

  9
$DIMBLK2
  1

  9
$DIMSTYLE
  2
*UNNAMED
  9
$DIMCLRD
 70
0
  9
$DIMCLRE
 70
0
  9
$DIMCLRT
 70
0
  9
$DIMTFAC
 40
1
  9
$DIMGAP
 40
0.09
  9
$LUNITS
 70
2
  9
$LUPREC
 70
4
  9
$AXISMODE
 70
0
  9
$AXISUNIT
 10
0
 20
0
  9
$SKETCHINC
 40
0.1
  9
$FILLETRAD
 40
2
  9
$AUNITS
 70
0
  9
$AUPREC
 70
0
  9
$MENU
  1
ACAD
  9
$ELEVATION
 40
0
  9
$THICKNESS
 40
0
  9
$VIEWDIR
 10
0
 20
0
 30
1
  9
$LIMCHECK
 70
0
  9
$BLIPMODE
 70
1
  9
$CHAMFERA
 40
0
  9
$CHAMFERB
 40
0
  9
$FASTZOOM
 70
1
  9
$SKPOLY
 70
0
  9
$ANGBASE
 50
0
  9
$ANGDIR
 70
0
  9
$PDMODE
 70
0
  9
$PDSIZE
 40
0
  9
$PLINEWID
 40
0
  9
$COORDS
 70
2
  0
ENDSEC
  0
SECTION
  2
TABLES
  0
TABLE
  2
DIMSTYLE
 70
0
  0
ENDTAB
  0
TABLE
  2
LTYPE
 70
9
  0
LTYPE
  2
CONTINUOUS
 70
64
  3
Solid line
 72
65
 73
0
 40
0
  0
LTYPE
  2
BORDER
 70
64
  3
__ __ . __ __ .
 72
65
 73
6
 40
13.11969162427918
 49
3.748483321222624
 49
-1.874241660611312
 49
3.748483321222624
 49
-1.874241660611312
 49
0
 49
-1.874241660611312
  0
LTYPE
  2
CENTER
 70
64
  3
____ _ ____ _
 72
65
 73
4
 40
14.9939332848905
 49
9.371208303056561
 49
-1.874241660611312
 49
1.874241660611312
 49
-1.874241660611312
  0
LTYPE
  2
DASHDOT
 70
64
  3
__ . __ . __ .
 72
65
 73
4
 40
7.496966642445249
 49
3.748483321222624
 49
-1.874241660611312
 49
0
 49
-1.874241660611312
  0
LTYPE
  2
DASHED
 70
64
  3
__ __ __ __ __
 72
65
 73
2
 40
5.622724981833937
 49
3.748483321222624
 49
-1.874241660611312
  0
LTYPE
  2
DIVIDE
 70
64
  3
__ . . __ . . 
 72
65
 73
6
 40
9.371208303056561
 49
3.748483321222624
 49
-1.874241660611312
 49
0
 49
-1.874241660611312
 49
0
 49
-1.874241660611312
  0
LTYPE
  2
DOT
 70
64
  3
..............
 72
65
 73
4
 40
3.748483321222624
 49
0
 49
-1.874241660611312
 49
0
 49
-1.874241660611312
  0
LTYPE
  2
HIDDEN
 70
64
  3
_ _ _ _ _ _ _
 72
65
 73
2
 40
2.811362490916968
 49
1.874241660611312
 49
-0.9371208303056561
  0
LTYPE
  2
PHANTOM
 70
64
  3
_____ _ _ _____ _ _ 
 72
65
 73
6
 40
18.74241660611312
 49
9.371208303056561
 49
-1.874241660611312
 49
1.874241660611312
 49
-1.874241660611312
 49
1.874241660611312
 49
-1.874241660611312
  0
ENDTAB
  0
TABLE
  2
LAYER
 70
3
  0
LAYER
  2
1
 70
0
 62
7
  6
CONTINUOUS
  0
LAYER
  2
0
 70
0
 62
7
  6
CONTINUOUS
  0
ENDTAB
  0
TABLE
  2
STYLE
 70
4
  0
STYLE
  2
STANDARD
 70
0
 40
0
 41
1
 50
0
 71
0
 42
3.5
  3
txt
  4

  0
STYLE
  2
SIMPLEX
 70
0
 40
0
 41
1
 50
0
 71
0
 42
3.5
  3
simplex
  4

  0
STYLE
  2
COMPLEX
 70
0
 40
0
 41
1
 50
0
 71
0
 42
3.5
  3
complex
  4

  0
STYLE
  2
ITALIC
 70
0
 40
0
 41
1
 50
0
 71
0
 42
3.5
  3
italic
  4

  0
ENDTAB
  0
TABLE
  2
VIEW
 70
0
  0
ENDTAB
  0
ENDSEC
  0
SECTION
  2
BLOCKS
  0
ENDSEC
  0
SECTION
  2
ENTITIES
  0
LINE
  8
1
 62
7
 10
-35.4165486232794
 20
23.0000000000001
 30
0
 11
-35.8165486232794
 21
23.0000000000001
 31
0
  0
LINE
  8
1
 62
3
  6
DASHDOT
 10
-221.4496522898856
 20
-13.07783477327881
 30
0
 11
-227.5607016256765
 21
-9.549618794228806
 31
0
  0
LINE
  8
1
 62
3
  6
DASHDOT
 10
-266.7526008505052
 20
-13.07783477327878
 30
0
 11
-260.6415515147144
 21
-9.549618794228792
 31
0
  0
LINE
  8
1
 62
7
 10
-2.216394157276
 20
120.9243324653756
 30
0
 11
-27.216394157276
 21
120.9243324653756
 31
0
  0
LINE
  8
1
 62
7
 10
-29.216394157276
 20
119.4243324653756
 30
0
 11
-27.216394157276
 21
119.4243324653756
 31
0
  0
LINE
  8
1
 62
7
 10
-29.216394157276
 20
134.4243324653756
 30
0
 11
-27.216394157276
 21
134.4243324653756
 31
0
  0
LINE
  8
1
 62
7
 10
-27.216394157276
 20
132.9243324653756
 30
0
 11
-2.216394157276
 21
132.9243324653756
 31
0
  0
LINE
  8
1
 62
7
 10
-157.216394157276
 20
116.7824558082058
 30
0
 11
-159.0301963042486
 21
113.6408583347718
 31
0
  0
LINE
  8
1
 62
7
 10
-157.216394157276
 20
-10.14187665716977
 30
0
 11
-159.0301963042486
 21
-13.28347413060379
 31
0
  0
LINE
  8
1
 62
7
 10
-27.216394157276
 20
7.5
 30
0
 11
-29.216394157276
 21
7.5
 31
0
  0
LINE
  8
1
 62
7
 10
-27.216394157276
 20
-7.5
 30
0
 11
-29.1652396912726
 21
-7.5
 31
0
  0
LINE
  8
1
 62
7
 10
-275.1011265701953
 20
29.2777867450496
 30
0
 11
-275.1011265701953
 21
16.24807680927192
 31
0
  0
LINE
  8
1
 62
7
 10
-275.1011265701953
 20
-16.24807680927192
 30
0
 11
-275.1011265701953
 21
-29.2777867450496
 31
0
  0
LINE
  8
1
 62
7
 10
-213.1011265701955
 20
-16.24807680927192
 30
0
 11
-213.1011265701955
 21
-29.2777867450496
 31
0
  0
LINE
  8
1
 62
7
 10
-213.1011265701955
 20
29.2777867450496
 30
0
 11
-213.1011265701955
 21
16.24807680927192
 31
0
  0
LINE
  8
1
 62
7
 10
-227.8530497609235
 20
-30.99999999999999
 30
0
 11
-214.8233398251459
 21
-30.99999999999999
 31
0
  0
LINE
  8
1
 62
7
 10
-273.3789133152451
 20
-30.99999999999999
 30
0
 11
-260.3492033794674
 21
-30.99999999999999
 31
0
  0
LINE
  8
1
 62
7
 10
-227.8530497609235
 20
31
 30
0
 11
-214.8233398251459
 21
31
 31
0
  0
LINE
  8
1
 62
7
 10
-273.378913315245
 20
31
 30
0
 11
-260.3492033794674
 21
31
 31
0
  0
LINE
  8
1
 62
7
 10
-20.216394157276
 20
124.9243324653756
 30
0
 11
-2.216394157276
 21
124.9243324653756
 31
0
  0
LINE
  8
1
 62
7
 10
-20.216394157276
 20
128.9243324653756
 30
0
 11
-2.216394157276
 21
128.9243324653756
 31
0
  0
LINE
  8
1
 62
7
 10
-22.216394157276
 20
7.5
 30
0
 11
-2.216394157276
 21
7.5
 31
0
  0
LINE
  8
1
 62
7
 10
-22.216394157276
 20
6
 30
0
 11
-22.216394157276
 21
7.5
 31
0
  0
LINE
  8
1
 62
7
 10
-59.21639415727599
 20
-30.99999999999999
 30
0
 11
-56.41639415727587
 21
-30.99999999999999
 31
0
  0
LINE
  8
1
 62
7
 10
-59.21639415727599
 20
31
 30
0
 11
-56.41639415727587
 21
31
 31
0
  0
LINE
  8
1
 62
7
 10
-56.41639415727587
 20
-30.99999999999999
 30
0
 11
-56.41639415727587
 21
31
 31
0
  0
LINE
  8
1
 62
7
 10
-29.216394157276
 20
9.853605762250993
 30
0
 11
-29.216394157276
 21
-9.853605762250993
 31
0
  0
LINE
  8
1
 62
7
 10
-29.216394157276
 20
-9.853605762250993
 30
0
 11
-30.21654862327937
 21
-9.853605762250993
 31
0
  0
LINE
  8
1
 62
7
 10
-30.21654862327937
 20
9.853605762250993
 30
0
 11
-29.216394157276
 21
9.853605762250993
 31
0
  0
LINE
  8
1
 62
7
 10
-27.216394157276
 20
7.5
 30
0
 11
-27.216394157276
 21
-7.5
 31
0
  0
LINE
  8
1
 62
7
 10
-27.216394157276
 20
-6
 30
0
 11
-2.216394157276085
 21
-6
 31
0
  0
LINE
  8
1
 62
7
 10
-27.216394157276
 20
6
 30
0
 11
-2.216394157276085
 21
6
 31
0
  0
LINE
  8
1
 62
7
 10
-39.016394157276
 20
33
 30
0
 11
-49.91754862327929
 21
33.00000000000006
 31
0
  0
LINE
  8
1
 62
7
 10
-39.016394157276
 20
33
 30
0
 11
-39.016394157276
 21
-33.00000000000003
 31
0
  0
LINE
  8
1
 62
7
 10
-49.91754862327929
 20
-33.00000000000006
 30
0
 11
-39.016394157276
 21
-33.00000000000003
 31
0
  0
LINE
  8
1
 62
7
 10
-35.8165486232794
 20
33.5000000000001
 30
0
 11
-35.8165486232794
 21
-33.49999999999999
 31
0
  0
LINE
  8
1
 62
7
 10
-35.01654862327929
 20
-19.49999999999999
 30
0
 11
-33.71654862327937
 21
-19.49999999999999
 31
0
  0
LINE
  8
1
 62
7
 10
-35.01654862327928
 20
23.103527618041
 30
0
 11
-35.01654862327929
 21
-32.74999999999999
 31
0
  0
LINE
  8
1
 62
7
 10
-35.01654862327929
 20
-26.49999999999999
 30
0
 11
-33.71654862327937
 21
-26.49999999999999
 31
0
  0
LINE
  8
1
 62
7
 10
-35.4165486232794
 20
23.0000000000001
 30
0
 11
-35.4165486232794
 21
-32.74999999999999
 31
0
  0
LINE
  8
1
 62
7
 10
-35.4165486232794
 20
-32.74999999999999
 30
0
 11
-35.01654862327929
 21
-32.74999999999999
 31
0
  0
LINE
  8
1
 62
7
 10
-35.4165486232794
 20
23.0000000000001
 30
0
 11
-35.8165486232794
 21
24.4928203230276
 31
0
  0
LINE
  8
1
 62
7
 10
-35.4165486232794
 20
24.5454813220626
 30
0
 11
-35.01654862327928
 21
23.103527618041
 31
0
  0
LINE
  8
1
 62
7
 10
-35.4165486232794
 20
24.5454813220626
 30
0
 11
-35.01654862327928
 21
23.103527618041
 31
0
  0
LINE
  8
1
 62
7
 10
-35.4165486232794
 20
32.7500000000001
 30
0
 11
-35.4165486232794
 21
24.5454813220626
 31
0
  0
LINE
  8
1
 62
7
 10
-35.8165486232794
 20
32.7500000000001
 30
0
 11
-35.4165486232794
 21
32.7500000000001
 31
0
  0
LINE
  8
1
 62
7
 10
-35.8165486232794
 20
32.7500000000001
 30
0
 11
-35.4165486232794
 21
32.7500000000001
 31
0
  0
LINE
  8
1
 62
7
 10
-35.8165486232794
 20
32.7500000000001
 30
0
 11
-35.4165486232794
 21
32.7500000000001
 31
0
  0
LINE
  8
1
 62
7
 10
-38.8165486232794
 20
33.5000000000001
 30
0
 11
-35.8165486232794
 21
33.5000000000001
 31
0
  0
LINE
  8
1
 62
7
 10
-38.8165486232794
 20
-33.49999999999999
 30
0
 11
-35.8165486232794
 21
-33.49999999999999
 31
0
  0
LINE
  8
1
 62
7
 10
-33.8165486232794
 20
31.70000000000009
 30
0
 11
-33.8165486232794
 21
26.3
 31
0
  0
LINE
  8
1
 62
7
 10
-35.4165486232794
 20
26.0000000000001
 30
0
 11
-34.11654862327938
 21
26.0000000000001
 31
0
  0
LINE
  8
1
 62
7
 10
-34.9165486232794
 20
26.0000000000001
 30
0
 11
-34.9165486232794
 21
32.0000000000001
 31
0
  0
LINE
  8
1
 62
7
 10
-35.4165486232794
 20
32.0000000000001
 30
0
 11
-34.11654862327938
 21
32.0000000000001
 31
0
  0
LINE
  8
1
 62
7
 10
-35.4165486232794
 20
26.0000000000001
 30
0
 11
-35.4165486232794
 21
32.0000000000001
 31
0
  0
LINE
  8
1
 62
7
 10
-34.11654862327938
 20
32.0000000000001
 30
0
 11
-33.8165486232794
 21
31.70000000000009
 31
0
  0
LINE
  8
1
 62
7
 10
-34.11654862327938
 20
26.0000000000001
 30
0
 11
-33.8165486232794
 21
26.3
 31
0
  0
LINE
  8
1
 62
7
 10
-33.71654862327937
 20
28.0000000000001
 30
0
 11
-30.21654862327937
 21
28.0000000000001
 31
0
  0
LINE
  8
1
 62
7
 10
-30.21654862327937
 20
28.0000000000001
 30
0
 11
-30.21654862327937
 21
-27.99999999999999
 31
0
  0
LINE
  8
1
 62
7
 10
-30.21654862327937
 20
-27.99999999999999
 30
0
 11
-33.71654862327937
 21
-27.99999999999999
 31
0
  0
LINE
  8
1
 62
7
 10
-30.21654862327937
 20
-27.99999999999999
 30
0
 11
-33.71654862327937
 21
-27.99999999999999
 31
0
  0
LINE
  8
1
 62
7
 10
-30.21654862327937
 20
-27.99999999999999
 30
0
 11
-33.71654862327937
 21
-27.99999999999999
 31
0
  0
LINE
  8
1
 62
7
 10
-34.71654862327937
 20
-13
 30
0
 11
-35.01654862327929
 21
-13
 31
0
  0
LINE
  8
1
 62
7
 10
-38.8165486232794
 20
-33.49999999999999
 30
0
 11
-38.8165486232794
 21
33.5000000000001
 31
0
  0
LINE
  8
1
 62
7
 10
-34.71654862327937
 20
13
 30
0
 11
-35.01654862327929
 21
13
 31
0
  0
LINE
  8
1
 62
3
  6
DASHDOT
 10
-44.49017859183297
 20
96.92433246537559
 30
0
 11
-53.94260972271899
 21
96.92433246537559
 31
0
  0
LINE
  8
1
 62
3
  6
DASHDOT
 10
-49.21639415727599
 20
92.19811689993259
 30
0
 11
-49.21639415727599
 21
101.6505480308186
 31
0
  0
LINE
  8
1
 62
3
  6
DASHDOT
 10
-49.21639415727599
 20
152.0672750295716
 30
0
 11
-49.21639415727599
 21
161.7813899011796
 31
0
  0
LINE
  8
1
 62
3
  6
DASHDOT
 10
-44.35933672147198
 20
156.9243324653756
 30
0
 11
-54.07345159307999
 21
156.9243324653756
 31
0
  0
LINE
  8
1
 62
7
 10
-61.21639415727599
 20
93.92433246537559
 30
0
 11
-107.216394157276
 21
93.92433246537559
 31
0
  0
LINE
  8
1
 62
7
 10
-61.21639415727599
 20
93.92433246537559
 30
0
 11
-107.216394157276
 21
93.92433246537559
 31
0
  0
LINE
  8
1
 62
7
 10
-61.21639415727599
 20
93.92433246537559
 30
0
 11
-107.216394157276
 21
93.92433246537559
 31
0
  0
LINE
  8
1
 62
7
 10
-108.216394157276
 20
164.9243324653756
 30
0
 11
-108.216394157276
 21
88.92433246537559
 31
0
  0
LINE
  8
1
 62
7
 10
-60.21639415727599
 20
159.9243324653756
 30
0
 11
-60.21639415727599
 21
88.92433246537559
 31
0
  0
LINE
  8
1
 62
7
 10
-107.216394157276
 20
159.9243324653756
 30
0
 11
-61.21639415727599
 21
159.9243324653756
 31
0
  0
LINE
  8
1
 62
7
 10
-29.216394157276
 20
136.7779382276266
 30
0
 11
-29.216394157276
 21
117.0707267031246
 31
0
  0
LINE
  8
1
 62
7
 10
-29.216394157276
 20
117.0707267031246
 30
0
 11
-30.21654862327937
 21
117.0707267031246
 31
0
  0
LINE
  8
1
 62
7
 10
-30.21654862327937
 20
136.7779382276266
 30
0
 11
-29.216394157276
 21
136.7779382276266
 31
0
  0
LINE
  8
1
 62
7
 10
-2.216394157276
 20
132.9243324653756
 30
0
 11
-2.216394157276
 21
120.9243324653756
 31
0
  0
LINE
  8
1
 62
7
 10
-59.21639415727599
 20
95.92433246537559
 30
0
 11
-56.41639415727587
 21
95.92433246537559
 31
0
  0
LINE
  8
1
 62
7
 10
-56.41639415727587
 20
157.9243324653756
 30
0
 11
-59.21639415727599
 21
157.9243324653756
 31
0
  0
LINE
  8
1
 62
7
 10
-39.0175486232794
 20
159.9243324653756
 30
0
 11
-49.91754862327929
 21
159.9243324653757
 31
0
  0
LINE
  8
1
 62
7
 10
-39.0175486232794
 20
159.9243324653756
 30
0
 11
-39.0175486232794
 21
93.92433246537559
 31
0
  0
LINE
  8
1
 62
7
 10
-49.91754862327929
 20
93.9243324653755
 30
0
 11
-39.0175486232794
 21
93.92433246537559
 31
0
  0
LINE
  8
1
 62
7
 10
-35.7675486232794
 20
160.4243324653756
 30
0
 11
-35.7675486232794
 21
93.42433246537559
 31
0
  0
LINE
  8
1
 62
7
 10
-35.01654862327929
 20
107.4243324653756
 30
0
 11
-33.71654862327937
 21
107.4243324653756
 31
0
  0
LINE
  8
1
 62
7
 10
-35.01654862327929
 20
150.0278600834166
 30
0
 11
-35.01654862327929
 21
94.17433246537559
 31
0
  0
LINE
  8
1
 62
7
 10
-35.01654862327929
 20
100.4243324653756
 30
0
 11
-33.71654862327937
 21
100.4243324653756
 31
0
  0
LINE
  8
1
 62
7
 10
-35.4165486232794
 20
149.9243324653756
 30
0
 11
-35.4165486232794
 21
94.17433246537559
 31
0
  0
LINE
  8
1
 62
7
 10
-35.4165486232794
 20
94.17433246537559
 30
0
 11
-35.01654862327929
 21
94.17433246537559
 31
0
  0
LINE
  8
1
 62
7
 10
-35.4165486232794
 20
149.9243324653756
 30
0
 11
-35.7675486232794
 21
151.4171527884031
 31
0
  0
LINE
  8
1
 62
7
 10
-35.4165486232794
 20
151.4698137874382
 30
0
 11
-35.01654862327929
 21
150.0278600834166
 31
0
  0
LINE
  8
1
 62
7
 10
-38.8165486232794
 20
160.4243324653756
 30
0
 11
-35.7675486232794
 21
160.4243324653756
 31
0
  0
LINE
  8
1
 62
7
 10
-38.8165486232794
 20
93.42433246537559
 30
0
 11
-35.7675486232794
 21
93.42433246537559
 31
0
  0
LINE
  8
1
 62
7
 10
-33.8165486232794
 20
158.6243324653756
 30
0
 11
-33.8165486232794
 21
153.2243324653756
 31
0
  0
LINE
  8
1
 62
7
 10
-35.4165486232794
 20
152.9243324653756
 30
0
 11
-34.11654862327938
 21
152.9243324653756
 31
0
  0
LINE
  8
1
 62
7
 10
-34.9165486232794
 20
152.9243324653756
 30
0
 11
-34.9165486232794
 21
158.9243324653756
 31
0
  0
LINE
  8
1
 62
7
 10
-35.4165486232794
 20
158.9243324653756
 30
0
 11
-34.11654862327938
 21
158.9243324653756
 31
0
  0
LINE
  8
1
 62
7
 10
-35.4165486232794
 20
151.4698137874382
 30
0
 11
-35.4165486232794
 21
159.6743324653756
 31
0
  0
LINE
  8
1
 62
7
 10
-34.11654862327938
 20
158.9243324653756
 30
0
 11
-33.8165486232794
 21
158.6243324653756
 31
0
  0
LINE
  8
1
 62
7
 10
-34.11654862327938
 20
152.9243324653756
 30
0
 11
-33.8165486232794
 21
153.2243324653756
 31
0
  0
LINE
  8
1
 62
7
 10
-30.21654862327937
 20
154.9243324653756
 30
0
 11
-30.21654862327937
 21
98.92433246537559
 31
0
  0
LINE
  8
1
 62
7
 10
-33.71654862327937
 20
98.92433246537559
 30
0
 11
-33.71654862327937
 21
154.9243324653756
 31
0
  0
LINE
  8
1
 62
7
 10
-34.71654862327937
 20
113.9243324653756
 30
0
 11
-35.01654862327929
 21
113.9243324653756
 31
0
  0
LINE
  8
1
 62
7
 10
-38.8165486232794
 20
93.42433246537559
 30
0
 11
-38.8165486232794
 21
160.4243324653756
 31
0
  0
LINE
  8
1
 62
7
 10
-34.71654862327937
 20
139.9243324653756
 30
0
 11
-35.01654862327929
 21
139.9243324653756
 31
0
  0
LINE
  8
1
 62
3
  6
DASHDOT
 10
0.6948902758666122
 20
126.9243324653756
 30
0
 11
-2.216394157276
 21
126.9243324653756
 31
0
  0
LINE
  8
1
 62
7
 10
-112.316394157276
 20
95.92433246537559
 30
0
 11
-109.216394157276
 21
95.92433246537559
 31
0
  0
LINE
  8
1
 62
7
 10
-58.21639415727599
 20
95.92433246537559
 30
0
 11
-58.21639415727599
 21
157.9243324653756
 31
0
  0
LINE
  8
1
 62
7
 10
-127.216394157276
 20
166.9243324653756
 30
0
 11
-41.21639415727599
 21
166.9243324653756
 31
0
  0
LINE
  8
1
 62
7
 10
-39.21639415727599
 20
164.9243324653756
 30
0
 11
-39.21639415727599
 21
159.9243324653756
 31
0
  0
LINE
  8
1
 62
7
 10
-60.21639415727599
 20
164.9243324653756
 30
0
 11
-60.21639415727599
 21
158.9243324653756
 31
0
  0
LINE
  8
1
 62
7
 10
-127.216394157276
 20
86.92433246537559
 30
0
 11
-41.21639415727599
 21
86.92433246537559
 31
0
  0
LINE
  8
1
 62
7
 10
-39.21639415727599
 20
88.92433246537559
 30
0
 11
-39.21639415727599
 21
93.92433246537559
 31
0
  0
LINE
  8
1
 62
7
 10
-112.316394157276
 20
-30.99999999999999
 30
0
 11
-109.216394157276
 21
-30.99999999999999
 31
0
  0
LINE
  8
1
 62
7
 10
-112.316394157276
 20
31
 30
0
 11
-112.316394157276
 21
-30.99999999999999
 31
0
  0
LINE
  8
1
 62
7
 10
-159.4632090061408
 20
13.03347413060374
 30
0
 11
-159.4632090061408
 21
-13.03347413060379
 31
0
  0
LINE
  8
1
 62
7
 10
-159.4632090061408
 20
-13.03347413060379
 30
0
 11
-159.0301963042486
 21
-13.28347413060379
 31
0
  0
LINE
  8
1
 62
7
 10
-159.4632090061408
 20
0
 30
0
 11
-159.4632090061408
 21
-13.03347413060379
 31
0
  0
LINE
  8
1
 62
7
 10
-161.716394157276
 20
-5.500000000000057
 30
0
 11
-163.216394157276
 21
-5.500000000000057
 31
0
  0
LINE
  8
1
 62
7
 10
-163.216394157276
 20
5.5
 30
0
 11
-161.716394157276
 21
5.5
 31
0
  0
LINE
  8
1
 62
7
 10
-161.716394157276
 20
10.86784247217452
 30
0
 11
-159.4632090061408
 21
10.86784247217452
 31
0
  0
LINE
  8
1
 62
7
 10
-159.0301963042486
 20
13.28347413060374
 30
0
 11
-159.4632090061408
 21
13.03347413060374
 31
0
  0
LINE
  8
1
 62
7
 10
-159.0301963042486
 20
13.28347413060374
 30
0
 11
-157.216394157276
 21
10.14187665716972
 31
0
  0
LINE
  8
1
 62
3
  6
DASHDOT
 10
-165.5536591000401
 20
0
 30
0
 11
-163.216394157276
 21
0
 31
0
  0
LINE
  8
1
 62
7
 10
-163.216394157276
 20
-6
 30
0
 11
-161.716394157276
 21
-6
 31
0
  0
LINE
  8
1
 62
7
 10
-163.216394157276
 20
6
 30
0
 11
-161.716394157276
 21
6
 31
0
  0
LINE
  8
1
 62
7
 10
-161.716394157276
 20
-10.86784247217452
 30
0
 11
-159.3675815235604
 21
-10.86784247217452
 31
0
  0
LINE
  8
1
 62
7
 10
-161.716394157276
 20
10.86784247217452
 30
0
 11
-161.716394157276
 21
-10.86784247217452
 31
0
  0
LINE
  8
1
 62
7
 10
-163.216394157276
 20
6
 30
0
 11
-163.216394157276
 21
-6
 31
0
  0
LINE
  8
1
 62
7
 10
-157.216394157276
 20
-17.49999999999999
 30
0
 11
-145.216394157276
 21
-17.49999999999999
 31
0
  0
LINE
  8
1
 62
7
 10
-157.216394157276
 20
17.5
 30
0
 11
-145.216394157276
 21
17.5
 31
0
  0
LINE
  8
1
 62
7
 10
-157.216394157276
 20
17.5
 30
0
 11
-157.216394157276
 21
-17.49999999999999
 31
0
  0
LINE
  8
1
 62
7
 10
-139.216394157276
 20
28
 30
0
 11
-139.216394157276
 21
-27.99999999999999
 31
0
  0
LINE
  8
1
 62
7
 10
-145.216394157276
 20
28
 30
0
 11
-145.216394157276
 21
-27.99999999999999
 31
0
  0
LINE
  8
1
 62
7
 10
-139.216394157276
 20
-27.99999999999999
 30
0
 11
-145.216394157276
 21
-27.99999999999999
 31
0
  0
LINE
  8
1
 62
7
 10
-139.216394157276
 20
28
 30
0
 11
-145.216394157276
 21
28
 31
0
  0
LINE
  8
1
 62
7
 10
-137.516394157276
 20
23
 30
0
 11
-137.516394157276
 21
-32.75
 31
0
  0
LINE
  8
1
 62
7
 10
-137.916394157276
 20
-32.74999999999999
 30
0
 11
-137.516394157276
 21
-32.75
 31
0
  0
LINE
  8
1
 62
7
 10
-131.8616936188968
 20
-34.99999999999999
 30
0
 11
-123.316394157276
 21
-34.99999999999999
 31
0
  0
LINE
  8
1
 62
7
 10
-133.016394157276
 20
-32.99999999999999
 30
0
 11
-133.816394157276
 21
-32.99999999999999
 31
0
  0
LINE
  8
1
 62
7
 10
-131.8616936188968
 20
-34.99999999999999
 30
0
 11
-133.016394157276
 21
-32.99999999999999
 31
0
  0
LINE
  8
1
 62
7
 10
-118.816394157276
 20
-32.99999999999999
 30
0
 11
-123.316394157276
 21
-32.99999999999999
 31
0
  0
LINE
  8
1
 62
7
 10
-134.116394157276
 20
-33.49999999999999
 30
0
 11
-137.116394157276
 21
-33.49999999999999
 31
0
  0
LINE
  8
1
 62
7
 10
-134.116394157276
 20
33.5
 30
0
 11
-134.116394157276
 21
-33.49999999999999
 31
0
  0
LINE
  8
1
 62
7
 10
-123.316394157276
 20
-34.99999999999999
 30
0
 11
-123.316394157276
 21
35
 31
0
  0
LINE
  8
1
 62
7
 10
-131.8616936188968
 20
-34.99999999999999
 30
0
 11
-131.8616936188968
 21
35
 31
0
  0
LINE
  8
1
 62
7
 10
-133.016394157276
 20
-32.99999999999999
 30
0
 11
-133.016394157276
 21
33
 31
0
  0
LINE
  8
1
 62
7
 10
-133.816394157276
 20
-32.99999999999999
 30
0
 11
-133.816394157276
 21
33
 31
0
  0
LINE
  8
1
 62
7
 10
-123.316394157276
 20
35
 30
0
 11
-131.8616936188968
 21
35
 31
0
  0
LINE
  8
1
 62
7
 10
-133.816394157276
 20
33
 30
0
 11
-133.016394157276
 21
33
 31
0
  0
LINE
  8
1
 62
7
 10
-133.016394157276
 20
33
 30
0
 11
-131.8616936188968
 21
35
 31
0
  0
LINE
  8
1
 62
7
 10
-123.316394157276
 20
33
 30
0
 11
-118.816394157276
 21
33
 31
0
  0
LINE
  8
1
 62
7
 10
-139.216394157276
 20
-19.49999999999999
 30
0
 11
-137.9117023826048
 21
-19.49999999999999
 31
0
  0
LINE
  8
1
 62
7
 10
-139.216394157276
 20
-26.49999999999999
 30
0
 11
-137.9117023826048
 21
-26.49999999999999
 31
0
  0
LINE
  8
1
 62
7
 10
-137.516394157276
 20
25.25
 30
0
 11
-137.116394157276
 21
25.25
 31
0
  0
LINE
  8
1
 62
7
 10
-137.116394157276
 20
24.4928203230276
 30
0
 11
-137.516394157276
 21
23
 31
0
  0
LINE
  8
1
 62
7
 10
-137.516394157276
 20
18
 30
0
 11
-137.916394157276
 21
18
 31
0
  0
LINE
  8
1
 62
7
 10
-137.916394157276
 20
23.103527618041
 30
0
 11
-137.916394157276
 21
-32.74999999999999
 31
0
  0
LINE
  8
1
 62
7
 10
-137.916394157276
 20
23.103527618041
 30
0
 11
-137.516394157276
 21
24.5454813220625
 31
0
  0
LINE
  8
1
 62
7
 10
-137.916394157276
 20
23.103527618041
 30
0
 11
-137.516394157276
 21
24.5454813220625
 31
0
  0
LINE
  8
1
 62
7
 10
-137.516394157276
 20
24.5454813220625
 30
0
 11
-137.516394157276
 21
32.75
 31
0
  0
LINE
  8
1
 62
7
 10
-137.516394157276
 20
32.75
 30
0
 11
-137.116394157276
 21
32.75
 31
0
  0
LINE
  8
1
 62
7
 10
-137.516394157276
 20
32.75
 30
0
 11
-137.116394157276
 21
32.75
 31
0
  0
LINE
  8
1
 62
7
 10
-137.516394157276
 20
32.75
 30
0
 11
-137.116394157276
 21
32.75
 31
0
  0
LINE
  8
1
 62
7
 10
-137.116394157276
 20
33.5
 30
0
 11
-134.116394157276
 21
33.5
 31
0
  0
LINE
  8
1
 62
7
 10
-137.516394157276
 20
23
 30
0
 11
-137.116394157276
 21
23
 31
0
  0
LINE
  8
1
 62
7
 10
-139.016394157276
 20
26.3
 30
0
 11
-139.016394157276
 21
31.69999999999999
 31
0
  0
LINE
  8
1
 62
7
 10
-138.016394157276
 20
32
 30
0
 11
-138.016394157276
 21
26
 31
0
  0
LINE
  8
1
 62
7
 10
-138.716394157276
 20
32
 30
0
 11
-137.516394157276
 21
32
 31
0
  0
LINE
  8
1
 62
7
 10
-139.016394157276
 20
31.69999999999999
 30
0
 11
-138.716394157276
 21
32
 31
0
  0
LINE
  8
1
 62
7
 10
-139.016394157276
 20
26.3
 30
0
 11
-138.716394157276
 21
26
 31
0
  0
LINE
  8
1
 62
7
 10
-137.116394157276
 20
33.5
 30
0
 11
-137.116394157276
 21
-33.49999999999999
 31
0
  0
LINE
  8
1
 62
3
  6
DASHDOT
 10
-119.216394157276
 20
101.6505480308186
 30
0
 11
-119.216394157276
 21
92.19811689993259
 31
0
  0
LINE
  8
1
 62
3
  6
DASHDOT
 10
-114.490178591833
 20
96.92433246537559
 30
0
 11
-123.942609722719
 21
96.92433246537559
 31
0
  0
LINE
  8
1
 62
3
  6
DASHDOT
 10
-119.216394157276
 20
161.7813899011796
 30
0
 11
-119.216394157276
 21
152.0672750295716
 31
0
  0
LINE
  8
1
 62
3
  6
DASHDOT
 10
-114.359336721472
 20
156.9243324653756
 30
0
 11
-124.07345159308
 21
156.9243324653756
 31
0
  0
LINE
  8
1
 62
7
 10
-129.216394157276
 20
91.92433246537559
 30
0
 11
-129.216394157276
 21
88.92433246537559
 31
0
  0
LINE
  8
1
 62
7
 10
-129.216394157276
 20
164.9243324653756
 30
0
 11
-129.216394157276
 21
161.9243324653756
 31
0
  0
LINE
  8
1
 62
7
 10
-112.316394157276
 20
157.9243324653756
 30
0
 11
-109.216394157276
 21
157.9243324653756
 31
0
  0
LINE
  8
1
 62
7
 10
-110.216394157276
 20
157.9243324653756
 30
0
 11
-110.216394157276
 21
95.92433246537559
 31
0
  0
LINE
  8
1
 62
7
 10
-159.4632090061408
 20
139.9578065959793
 30
0
 11
-159.4632090061408
 21
113.8908583347718
 31
0
  0
LINE
  8
1
 62
7
 10
-159.4632090061408
 20
113.8908583347718
 30
0
 11
-159.0301963042486
 21
113.6408583347718
 31
0
  0
LINE
  8
1
 62
7
 10
-159.4632090061408
 20
126.9243324653756
 30
0
 11
-159.4632090061408
 21
113.8908583347718
 31
0
  0
LINE
  8
1
 62
7
 10
-161.716394157276
 20
121.4243324653755
 30
0
 11
-163.216394157276
 21
121.4243324653755
 31
0
  0
LINE
  8
1
 62
7
 10
-163.216394157276
 20
132.4243324653756
 30
0
 11
-161.716394157276
 21
132.4243324653756
 31
0
  0
LINE
  8
1
 62
7
 10
-161.716394157276
 20
137.7921749375501
 30
0
 11
-159.4632090061408
 21
137.7921749375501
 31
0
  0
LINE
  8
1
 62
7
 10
-159.0301963042486
 20
140.2078065959793
 30
0
 11
-159.4632090061408
 21
139.9578065959793
 31
0
  0
LINE
  8
1
 62
7
 10
-159.0301963042486
 20
140.2078065959793
 30
0
 11
-157.216394157276
 21
137.0662091225453
 31
0
  0
LINE
  8
1
 62
3
  6
DASHDOT
 10
-165.5536591000401
 20
126.9243324653756
 30
0
 11
-163.216394157276
 21
126.9243324653756
 31
0
  0
LINE
  8
1
 62
7
 10
-163.216394157276
 20
120.9243324653756
 30
0
 11
-161.716394157276
 21
120.9243324653756
 31
0
  0
LINE
  8
1
 62
7
 10
-163.216394157276
 20
132.9243324653756
 30
0
 11
-161.716394157276
 21
132.9243324653756
 31
0
  0
LINE
  8
1
 62
7
 10
-161.716394157276
 20
116.0564899932011
 30
0
 11
-159.3675815235604
 21
116.0564899932011
 31
0
  0
LINE
  8
1
 62
7
 10
-161.716394157276
 20
137.7921749375501
 30
0
 11
-161.716394157276
 21
116.0564899932011
 31
0
  0
LINE
  8
1
 62
7
 10
-163.216394157276
 20
132.9243324653756
 30
0
 11
-163.216394157276
 21
120.9243324653756
 31
0
  0
LINE
  8
1
 62
7
 10
-157.216394157276
 20
109.4243324653756
 30
0
 11
-145.216394157276
 21
109.4243324653756
 31
0
  0
LINE
  8
1
 62
7
 10
-157.216394157276
 20
144.4243324653756
 30
0
 11
-145.216394157276
 21
144.4243324653756
 31
0
  0
LINE
  8
1
 62
7
 10
-157.216394157276
 20
144.4243324653756
 30
0
 11
-157.216394157276
 21
109.4243324653756
 31
0
  0
LINE
  8
1
 62
7
 10
-139.216394157276
 20
154.9243324653756
 30
0
 11
-139.216394157276
 21
98.92433246537559
 31
0
  0
LINE
  8
1
 62
7
 10
-145.216394157276
 20
154.9243324653756
 30
0
 11
-145.216394157276
 21
98.92433246537559
 31
0
  0
LINE
  8
1
 62
7
 10
-139.216394157276
 20
98.92433246537559
 30
0
 11
-145.216394157276
 21
98.92433246537559
 31
0
  0
LINE
  8
1
 62
7
 10
-131.8616936188968
 20
91.92433246537559
 30
0
 11
-123.316394157276
 21
91.92433246537559
 31
0
  0
LINE
  8
1
 62
7
 10
-133.016394157276
 20
93.92433246537559
 30
0
 11
-133.816394157276
 21
93.92433246537559
 31
0
  0
LINE
  8
1
 62
7
 10
-131.8616936188968
 20
91.92433246537559
 30
0
 11
-133.016394157276
 21
93.92433246537559
 31
0
  0
LINE
  8
1
 62
7
 10
-118.816394157276
 20
93.92433246537559
 30
0
 11
-123.316394157276
 21
93.92433246537559
 31
0
  0
LINE
  8
1
 62
7
 10
-134.116394157276
 20
93.42433246537559
 30
0
 11
-137.116394157276
 21
93.42433246537559
 31
0
  0
LINE
  8
1
 62
7
 10
-134.116394157276
 20
160.4243324653756
 30
0
 11
-134.116394157276
 21
93.42433246537559
 31
0
  0
LINE
  8
1
 62
7
 10
-123.316394157276
 20
91.92433246537559
 30
0
 11
-123.316394157276
 21
161.9243324653756
 31
0
  0
LINE
  8
1
 62
7
 10
-131.8616936188968
 20
91.92433246537559
 30
0
 11
-131.8616936188968
 21
161.9243324653756
 31
0
  0
LINE
  8
1
 62
7
 10
-133.016394157276
 20
93.92433246537559
 30
0
 11
-133.016394157276
 21
159.9243324653756
 31
0
  0
LINE
  8
1
 62
7
 10
-133.816394157276
 20
93.92433246537559
 30
0
 11
-133.816394157276
 21
159.9243324653756
 31
0
  0
LINE
  8
1
 62
7
 10
-123.316394157276
 20
161.9243324653756
 30
0
 11
-131.8616936188968
 21
161.9243324653756
 31
0
  0
LINE
  8
1
 62
7
 10
-133.816394157276
 20
159.9243324653756
 30
0
 11
-133.016394157276
 21
159.9243324653756
 31
0
  0
LINE
  8
1
 62
7
 10
-133.016394157276
 20
159.9243324653756
 30
0
 11
-131.8616936188968
 21
161.9243324653756
 31
0
  0
LINE
  8
1
 62
7
 10
-123.316394157276
 20
159.9243324653756
 30
0
 11
-118.816394157276
 21
159.9243324653756
 31
0
  0
LINE
  8
1
 62
7
 10
-139.216394157276
 20
107.4243324653756
 30
0
 11
-137.9117023826048
 21
107.4243324653756
 31
0
  0
LINE
  8
1
 62
7
 10
-139.216394157276
 20
100.4243324653756
 30
0
 11
-137.9117023826048
 21
100.4243324653756
 31
0
  0
LINE
  8
1
 62
7
 10
-137.516394157276
 20
152.1743324653756
 30
0
 11
-137.116394157276
 21
152.1743324653756
 31
0
  0
LINE
  8
1
 62
7
 10
-137.116394157276
 20
151.4171527884031
 30
0
 11
-137.516394157276
 21
149.9243324653756
 31
0
  0
LINE
  8
1
 62
7
 10
-137.516394157276
 20
144.9243324653756
 30
0
 11
-137.916394157276
 21
144.9243324653756
 31
0
  0
LINE
  8
1
 62
7
 10
-137.916394157276
 20
150.0278600834166
 30
0
 11
-137.916394157276
 21
94.17433246537561
 31
0
  0
LINE
  8
1
 62
7
 10
-137.916394157276
 20
150.0278600834166
 30
0
 11
-137.516394157276
 21
151.4698137874381
 31
0
  0
LINE
  8
1
 62
7
 10
-137.916394157276
 20
150.0278600834166
 30
0
 11
-137.516394157276
 21
151.4698137874381
 31
0
  0
LINE
  8
1
 62
7
 10
-137.516394157276
 20
159.6743324653756
 30
0
 11
-137.116394157276
 21
159.6743324653756
 31
0
  0
LINE
  8
1
 62
7
 10
-137.116394157276
 20
160.4243324653756
 30
0
 11
-134.116394157276
 21
160.4243324653756
 31
0
  0
LINE
  8
1
 62
7
 10
-137.516394157276
 20
149.9243324653756
 30
0
 11
-137.116394157276
 21
149.9243324653756
 31
0
  0
LINE
  8
1
 62
7
 10
-137.516394157276
 20
94.17433246537559
 30
0
 11
-137.516394157276
 21
149.9243324653756
 31
0
  0
LINE
  8
1
 62
7
 10
-139.116394157276
 20
153.2243324653756
 30
0
 11
-139.116394157276
 21
158.6243324653756
 31
0
  0
LINE
  8
1
 62
7
 10
-138.816394157276
 20
152.9243324653756
 30
0
 11
-137.516394157276
 21
152.9243324653756
 31
0
  0
LINE
  8
1
 62
7
 10
-138.016394157276
 20
158.9243324653756
 30
0
 11
-138.016394157276
 21
152.9243324653756
 31
0
  0
LINE
  8
1
 62
7
 10
-138.816394157276
 20
158.9243324653756
 30
0
 11
-137.516394157276
 21
158.9243324653756
 31
0
  0
LINE
  8
1
 62
7
 10
-139.116394157276
 20
158.6243324653756
 30
0
 11
-138.816394157276
 21
158.9243324653756
 31
0
  0
LINE
  8
1
 62
7
 10
-139.116394157276
 20
153.2243324653756
 30
0
 11
-138.816394157276
 21
152.9243324653756
 31
0
  0
LINE
  8
1
 62
7
 10
-137.116394157276
 20
160.4243324653756
 30
0
 11
-137.116394157276
 21
93.42433246537559
 31
0
  0
LINE
  8
1
 62
7
 10
-74.72446077244638
 20
-46.99999999999999
 30
0
 11
-41.21639415727599
 21
-46.99999999999999
 31
0
  0
LINE
  8
1
 62
7
 10
-89.1708453073793
 20
-46.99999999999999
 30
0
 11
-79.26194300717268
 21
-46.99999999999999
 31
0
  0
LINE
  8
1
 62
7
 10
-79.34976489796699
 20
-51.13568953006741
 30
0
 11
-78.73033113181029
 21
-50.43123982524303
 31
0
  0
LINE
  8
1
 62
7
 10
-78.66409468659398
 20
-51.574518465346
 30
0
 11
-78.094769748262
 21
-50.9742222143734
 31
0
  0
LINE
  8
1
 62
7
 10
-78.99321638805299
 20
-51.39571320813931
 30
0
 11
-78.41816830550567
 21
-50.69793148023039
 31
0
  0
LINE
  8
1
 62
7
 10
-80.666251703803
 20
-49.95633676650601
 30
0
 11
-79.8535004358009
 21
-49.22424017780581
 31
0
  0
LINE
  8
1
 62
7
 10
-80.85823936298698
 20
-49.7094954904118
 30
0
 11
-80.07908128497698
 21
-48.95514126154075
 31
0
  0
LINE
  8
1
 62
7
 10
-80.44683723616399
 20
-50.2306048510552
 30
0
 11
-79.66625353219769
 21
-49.44760993200988
 31
0
  0
LINE
  8
1
 62
7
 10
-80.42113552887437
 20
-48.54709941458059
 30
0
 11
-79.12269436109048
 21
-50.09603015210011
 31
0
  0
LINE
  8
1
 62
7
 10
-79.12269436109048
 20
-50.09603015210011
 30
0
 11
-77.60141415420659
 21
-51.39571320813931
 31
0
  0
LINE
  8
1
 62
7
 10
-89.70245718274168
 20
-50.43123982524303
 30
0
 11
-89.08302341658498
 21
-51.13568953006741
 31
0
  0
LINE
  8
1
 62
7
 10
-90.33801856628998
 20
-50.9742222143734
 30
0
 11
-89.76869362795799
 21
-51.574518465346
 31
0
  0
LINE
  8
1
 62
7
 10
-90.0146200090463
 20
-50.69793148023039
 30
0
 11
-89.43957192649899
 21
-51.39571320813931
 31
0
  0
LINE
  8
1
 62
7
 10
-88.57928787875107
 20
-49.22424017780581
 30
0
 11
-87.766536610749
 21
-49.95633676650601
 31
0
  0
LINE
  8
1
 62
7
 10
-88.35370702957499
 20
-48.95514126154075
 30
0
 11
-87.57454895156499
 21
-49.7094954904118
 31
0
  0
LINE
  8
1
 62
7
 10
-88.76653478235429
 20
-49.44760993200988
 30
0
 11
-87.98595107838798
 21
-50.2306048510552
 31
0
  0
LINE
  8
1
 62
7
 10
-89.31009395346149
 20
-50.09603015210011
 30
0
 11
-88.0116527856776
 21
-48.54709941458059
 31
0
  0
LINE
  8
1
 62
7
 10
-90.83137416034538
 20
-51.39571320813931
 30
0
 11
-89.31009395346149
 21
-50.09603015210011
 31
0
  0
LINE
  8
1
 62
7
 10
-60.21639415727599
 20
33
 30
0
 11
-60.21639415727599
 21
-44.99999999999999
 31
0
  0
LINE
  8
1
 62
7
 10
-108.216394157276
 20
33
 30
0
 11
-60.21639415727599
 21
33
 31
0
  0
LINE
  8
1
 62
7
 10
-58.21639415727599
 20
-30.99999999999999
 30
0
 11
-58.21639415727599
 21
31
 31
0
  0
LINE
  8
1
 62
3
  6
DASHDOT
 10
-49.21639415727599
 20
-59.1543091162231
 30
0
 11
-49.21639415727599
 21
-44.72176522104051
 31
0
  0
LINE
  8
1
 62
7
 10
-101.216394157276
 20
-52
 30
0
 11
-67.216394157276
 21
-52
 31
0
  0
LINE
  8
1
 62
7
 10
-65.216394157276
 20
-55
 30
0
 11
-65.216394157276
 21
-54
 31
0
  0
LINE
  8
1
 62
7
 10
-65.216394157276
 20
-55
 30
0
 11
-39.21639415727599
 21
-55
 31
0
  0
LINE
  8
1
 62
7
 10
-39.21639415727599
 20
-55
 30
0
 11
-39.21639415727599
 21
-48.99999999999999
 31
0
  0
LINE
  8
1
 62
7
 10
-108.216394157276
 20
-44.99999999999999
 30
0
 11
-108.216394157276
 21
33
 31
0
  0
LINE
  8
1
 62
7
 10
-110.216394157276
 20
31
 30
0
 11
-110.216394157276
 21
-30.99999999999999
 31
0
  0
LINE
  8
1
 62
3
  6
DASHDOT
 10
-119.216394157276
 20
-44.72176522104051
 30
0
 11
-119.216394157276
 21
-59.1543091162231
 31
0
  0
LINE
  8
1
 62
7
 10
-103.216394157276
 20
-54
 30
0
 11
-103.216394157276
 21
-55
 31
0
  0
LINE
  8
1
 62
7
 10
-129.216394157276
 20
-55
 30
0
 11
-103.216394157276
 21
-55
 31
0
  0
LINE
  8
1
 62
7
 10
-127.216394157276
 20
-46.99999999999999
 30
0
 11
-93.70832754210568
 21
-46.99999999999999
 31
0
  0
LINE
  8
1
 62
7
 10
-129.216394157276
 20
-48.99999999999999
 30
0
 11
-129.216394157276
 21
-55
 31
0
  0
LINE
  8
1
 62
3
  6
DASHDOT
 10
-244.1011265701955
 20
26.15566954655759
 30
0
 11
-244.1011265701955
 21
19.0992375884576
 31
0
  0
LINE
  8
1
 62
7
 10
-233.2332840980209
 20
1.699999999999989
 30
0
 11
-235.1011265701955
 21
1.699999999999989
 31
0
  0
LINE
  8
1
 62
7
 10
-235.1011265701955
 20
1.699999999999989
 30
0
 11
-235.1011265701955
 21
-1.700000000000017
 31
0
  0
LINE
  8
1
 62
7
 10
-235.1011265701955
 20
-1.700000000000017
 30
0
 11
-233.233284098021
 21
-1.700000000000017
 31
0
  0
LINE
  8
1
 62
7
 10
-245.8011265701955
 20
-9
 30
0
 11
-245.8011265701955
 21
-10.8678424721745
 31
0
  0
LINE
  8
1
 62
7
 10
-242.4011265701955
 20
-10.86784247217452
 30
0
 11
-242.4011265701955
 21
-9.000000000000014
 31
0
  0
LINE
  8
1
 62
7
 10
-242.4011265701955
 20
-9.000000000000014
 30
0
 11
-245.8011265701955
 21
-9
 31
0
  0
LINE
  8
1
 62
7
 10
-253.1011265701955
 20
1.700000000000003
 30
0
 11
-254.96896904237
 21
1.700000000000003
 31
0
  0
LINE
  8
1
 62
7
 10
-253.1011265701955
 20
-1.700000000000003
 30
0
 11
-253.1011265701955
 21
1.700000000000003
 31
0
  0
LINE
  8
1
 62
7
 10
-254.96896904237
 20
-1.700000000000003
 30
0
 11
-253.1011265701955
 21
-1.700000000000003
 31
0
  0
LINE
  8
1
 62
7
 10
-242.4011265701955
 20
9
 30
0
 11
-242.4011265701955
 21
10.8678424721745
 31
0
  0
LINE
  8
1
 62
7
 10
-245.8011265701955
 20
9
 30
0
 11
-242.4011265701955
 21
9
 31
0
  0
LINE
  8
1
 62
7
 10
-245.8011265701955
 20
10.8678424721745
 30
0
 11
-245.8011265701955
 21
9
 31
0
  0
LINE
  8
1
 62
7
 10
-211.1011265701955
 20
-11.6619037896906
 30
0
 11
-211.1011265701955
 21
-24.99999999999999
 31
0
  0
LINE
  8
1
 62
7
 10
-211.1011265701955
 20
-24.99999999999999
 30
0
 11
-204.1952750101689
 21
-46.70410490294051
 31
0
  0
LINE
  8
1
 62
7
 10
-224.1011265701955
 20
-55
 30
0
 11
-224.1011265701955
 21
-48.99999999999999
 31
0
  0
LINE
  8
1
 62
7
 10
-224.1011265701955
 20
-55
 30
0
 11
-204.1011265701955
 21
-55
 31
0
  0
LINE
  8
1
 62
3
  6
DASHDOT
 10
-214.1011265701955
 20
-57.48691294651451
 30
0
 11
-214.1011265701955
 21
-44.55414866714241
 31
0
  0
LINE
  8
1
 62
7
 10
-222.1011265701955
 20
-46.99999999999999
 30
0
 11
-206.1011265701955
 21
-46.99999999999999
 31
0
  0
LINE
  8
1
 62
7
 10
-262.1011265701953
 20
-52
 30
0
 11
-226.1011265701955
 21
-52
 31
0
  0
LINE
  8
1
 62
3
  6
DASHDOT
 10
-274.1011265701953
 20
-44.55414866714241
 30
0
 11
-274.1011265701953
 21
-57.48691294651451
 31
0
  0
LINE
  8
1
 62
7
 10
-246.1011265701955
 20
-34.94281041931229
 30
0
 11
-246.1011265701955
 21
-41.87900815193181
 31
0
  0
LINE
  8
1
 62
7
 10
-242.1011265701955
 20
-34.94281041931229
 30
0
 11
-242.1011265701955
 21
-41.87900815193181
 31
0
  0
LINE
  8
1
 62
7
 10
-244.1011265701955
 20
-34.99999999999999
 30
0
 11
-244.1011265701955
 21
-41.87900815193181
 31
0
  0
LINE
  8
1
 62
7
 10
-284.1011265701953
 20
-55
 30
0
 11
-264.1011265701953
 21
-55
 31
0
  0
LINE
  8
1
 62
7
 10
-282.1011265701953
 20
-46.99999999999999
 30
0
 11
-266.1011265701953
 21
-46.99999999999999
 31
0
  0
LINE
  8
1
 62
7
 10
-277.1011265701953
 20
-24.99999999999999
 30
0
 11
-277.1011265701953
 21
-11.6619037896906
 31
0
  0
LINE
  8
1
 62
7
 10
-284.006978130222
 20
-46.70410490294051
 30
0
 11
-277.1011265701953
 21
-24.99999999999999
 31
0
  0
LINE
  8
1
 62
7
 10
-211.1011265701955
 20
29
 30
0
 11
-211.1011265701955
 21
11.6619037896906
 31
0
  0
LINE
  8
1
 62
7
 10
-277.1011265701953
 20
29
 30
0
 11
-277.1011265701953
 21
11.6619037896906
 31
0
  0
LINE
  8
1
 62
7
 10
-232.4392227805049
 20
33
 30
0
 11
-215.1011265701955
 21
33
 31
0
  0
LINE
  8
1
 62
7
 10
-273.1011265701953
 20
33
 30
0
 11
-255.7630303598861
 21
33
 31
0
  0
LINE
  8
1
 62
7
 10
-217.1363345396159
 20
-24.84347168701993
 30
0
 11
-218.8093671470915
 21
-25.29175942310395
 31
0
  0
LINE
  8
1
 62
7
 10
-215.9115896682243
 20
-26.06821655841153
 30
0
 11
-217.1363345396159
 21
-24.84347168701993
 31
0
  0
LINE
  8
1
 62
7
 10
-218.032910011784
 20
-28.18953690197115
 30
0
 11
-216.3598774043083
 21
-27.74124916588713
 31
0
  0
LINE
  8
1
 62
7
 10
-219.2576548831756
 20
-26.96479203057957
 30
0
 11
-218.032910011784
 21
-28.18953690197115
 31
0
  0
LINE
  8
1
 62
7
 10
-218.8093671470915
 20
-25.29175942310395
 30
0
 11
-219.2576548831756
 21
-26.96479203057957
 31
0
  0
LINE
  8
1
 62
7
 10
-216.3598774043083
 20
-27.74124916588713
 30
0
 11
-215.9115896682243
 21
-26.06821655841153
 31
0
  0
LINE
  8
1
 62
7
 10
-268.9445982572154
 20
-26.96479203057957
 30
0
 11
-269.3928859932994
 21
-25.29175942310395
 31
0
  0
LINE
  8
1
 62
7
 10
-270.169343128607
 20
-28.18953690197115
 30
0
 11
-268.9445982572154
 21
-26.96479203057957
 31
0
  0
LINE
  8
1
 62
7
 10
-272.2906634721666
 20
-26.06821655841151
 30
0
 11
-271.8423757360825
 21
-27.74124916588713
 31
0
  0
LINE
  8
1
 62
7
 10
-271.065918600775
 20
-24.84347168701993
 30
0
 11
-272.2906634721666
 21
-26.06821655841151
 31
0
  0
LINE
  8
1
 62
7
 10
-269.3928859932994
 20
-25.29175942310395
 30
0
 11
-271.065918600775
 21
-24.84347168701993
 31
0
  0
LINE
  8
1
 62
7
 10
-271.8423757360825
 20
-27.74124916588713
 30
0
 11
-270.169343128607
 21
-28.18953690197115
 31
0
  0
LINE
  8
1
 62
7
 10
-270.169343128607
 20
28.1895369019711
 30
0
 11
-271.8423757360825
 21
27.7412491658871
 31
0
  0
LINE
  8
1
 62
7
 10
-268.9445982572154
 20
26.96479203057959
 30
0
 11
-270.169343128607
 21
28.1895369019711
 31
0
  0
LINE
  8
1
 62
7
 10
-269.3928859932994
 20
25.2917594231039
 30
0
 11
-268.9445982572154
 21
26.96479203057959
 31
0
  0
LINE
  8
1
 62
7
 10
-271.065918600775
 20
24.8434716870199
 30
0
 11
-269.3928859932994
 21
25.2917594231039
 31
0
  0
LINE
  8
1
 62
7
 10
-272.2906634721666
 20
26.06821655841149
 30
0
 11
-271.065918600775
 21
24.8434716870199
 31
0
  0
LINE
  8
1
 62
7
 10
-271.8423757360825
 20
27.7412491658871
 30
0
 11
-272.2906634721666
 21
26.06821655841149
 31
0
  0
LINE
  8
1
 62
7
 10
-215.9115896682243
 20
26.06821655841149
 30
0
 11
-216.3598774043083
 21
27.7412491658871
 31
0
  0
LINE
  8
1
 62
7
 10
-217.1363345396159
 20
24.8434716870199
 30
0
 11
-215.9115896682243
 21
26.06821655841149
 31
0
  0
LINE
  8
1
 62
7
 10
-218.8093671470915
 20
25.2917594231039
 30
0
 11
-217.1363345396159
 21
24.8434716870199
 31
0
  0
LINE
  8
1
 62
7
 10
-219.2576548831756
 20
26.96479203057959
 30
0
 11
-218.8093671470915
 21
25.2917594231039
 31
0
  0
LINE
  8
1
 62
7
 10
-218.032910011784
 20
28.18953690197119
 30
0
 11
-219.2576548831756
 21
26.96479203057959
 31
0
  0
LINE
  8
1
 62
7
 10
-216.3598774043083
 20
27.7412491658871
 30
0
 11
-218.032910011784
 21
28.18953690197119
 31
0
  0
LINE
  8
1
 62
3
  6
DASHDOT
 10
-244.1011265701955
 20
3.937342646762801
 30
0
 11
-244.1011265701955
 21
-3.937342646762801
 31
0
  0
LINE
  8
1
 62
3
  6
DASHDOT
 10
-240.1637839234327
 20
0
 30
0
 11
-248.0384692169583
 21
0
 31
0
  0
LINE
  8
1
 62
7
 10
-138.716394157276
 20
26
 30
0
 11
-137.516394157276
 21
26
 31
0
  0
LINE
  8
1
 62
7
 10
-139.216394157276
 20
16
 30
0
 11
-137.916394157276
 21
16
 31
0
  0
LINE
  8
1
 62
7
 10
-139.216394157276
 20
-16
 30
0
 11
-137.916394157276
 21
-16
 31
0
  0
LINE
  8
1
 62
7
 10
-112.316394157276
 20
31
 30
0
 11
-109.216394157276
 21
31
 31
0
  0
LINE
  8
1
 62
7
 10
-33.71654862327937
 20
28.0000000000001
 30
0
 11
-33.71654862327937
 21
-27.99999999999999
 31
0
  0
LINE
  8
1
 62
7
 10
-112.316394157276
 20
157.9243324653756
 30
0
 11
-112.316394157276
 21
95.92433246537559
 31
0
  0
LINE
  8
1
 62
7
 10
-204.1011265701955
 20
-47.3105122174944
 30
0
 11
-204.1011265701955
 21
-55
 31
0
  0
LINE
  8
1
 62
7
 10
-264.1011265701953
 20
-48.99999999999999
 30
0
 11
-264.1011265701953
 21
-55
 31
0
  0
LINE
  8
1
 62
7
 10
-284.1011265701953
 20
-55
 30
0
 11
-284.1011265701955
 21
-47.3105122174944
 31
0
  0
LINE
  8
1
 62
7
 10
-137.516394157276
 20
159.6743324653756
 30
0
 11
-137.516394157276
 21
151.4698137874381
 31
0
  0
LINE
  8
1
 62
7
 10
-145.216394157276
 20
154.9243324653756
 30
0
 11
-139.216394157276
 21
154.9243324653756
 31
0
  0
LINE
  8
1
 62
7
 10
-137.516394157276
 20
94.17433246537559
 30
0
 11
-137.916394157276
 21
94.17433246537561
 31
0
  0
LINE
  8
1
 62
7
 10
-56.41639415727587
 20
157.9243324653756
 30
0
 11
-56.41639415727587
 21
95.92433246537559
 31
0
  0
LINE
  8
1
 62
7
 10
-35.4165486232794
 20
159.6743324653756
 30
0
 11
-35.7675486232794
 21
159.6743324653756
 31
0
  0
LINE
  8
1
 62
7
 10
-30.21654862327937
 20
98.92433246537559
 30
0
 11
-33.71654862327937
 21
98.92433246537559
 31
0
  0
LINE
  8
1
 62
7
 10
-30.21654862327937
 20
154.9243324653756
 30
0
 11
-33.71654862327937
 21
154.9243324653756
 31
0
  0
LINE
  8
1
 62
7
 10
-27.216394157276
 20
134.4243324653756
 30
0
 11
-27.216394157276
 21
119.4243324653756
 31
0
  0
LINE
  8
1
 62
7
 10
-2.216394157276
 20
7.5
 30
0
 11
-2.216394157276085
 21
-6
 31
0
  0
LINE
  8
1
 62
7
 10
-139.216394157276
 20
142.9243324653756
 30
0
 11
-137.916394157276
 21
142.9243324653756
 31
0
  0
LINE
  8
1
 62
7
 10
-139.216394157276
 20
110.9243324653756
 30
0
 11
-137.916394157276
 21
110.9243324653756
 31
0
  0
LINE
  8
1
 62
3
  6
DASHED
 10
-2.216394157276047
 20
-1.4
 30
0
 11
-13.01639415727605
 21
-1.399999999999999
 31
0
  0
LINE
  8
1
 62
3
  6
DASHED
 10
-13.01639415727605
 20
-1.399999999999999
 30
0
 11
-13.01639415727605
 21
1.400000000000001
 31
0
  0
LINE
  8
1
 62
3
  6
DASHED
 10
-13.01639415727605
 20
1.400000000000001
 30
0
 11
-2.216394157276047
 21
1.4
 31
0
  0
LINE
  8
1
 62
3
  6
DASHED
 10
-13.01639415727605
 20
-1.399999999999999
 30
0
 11
-14.1710946956553
 21
1.463980223734303e-015
 31
0
  0
LINE
  8
1
 62
3
  6
DASHED
 10
-14.1710946956553
 20
1.463980223734303e-015
 30
0
 11
-13.01639415727605
 21
1.400000000000001
 31
0
  0
LINE
  8
1
 62
3
  6
DASHED
 10
-2.216394157276048
 20
-2
 30
0
 11
-10.21639415727605
 21
-1.999999999999999
 31
0
  0
LINE
  8
1
 62
3
  6
DASHED
 10
-10.21639415727605
 20
-1.999999999999999
 30
0
 11
-10.21639415727605
 21
2.000000000000001
 31
0
  0
LINE
  8
1
 62
3
  6
DASHED
 10
-10.21639415727605
 20
2.000000000000001
 30
0
 11
-2.216394157276047
 21
2
 31
0
  0
LINE
  8
1
 62
3
  6
DASHED
 10
-10.21639415727605
 20
-1.999999999999999
 30
0
 11
-11.25562464181737
 21
-1.399999999999999
 31
0
  0
LINE
  8
1
 62
3
  6
DASHED
 10
-10.21639415727605
 20
2.000000000000001
 30
0
 11
-11.25562464181737
 21
1.400000000000001
 31
0
  0
LINE
  8
1
 62
3
  6
DASHDOT
 10
0.783605842723953
 20
-3.673819061467132e-016
 30
0
 11
-18.02468453414152
 21
1.935893283857861e-015
 31
0
  0
LINE
  8
1
 62
7
 10
-35.4165486232794
 20
149.9243324653756
 30
0
 11
-35.7675486232794
 21
149.9243324653756
 31
0
  0
ARC
  8
1
 62
3
  6
DASHDOT
 10
-244.1011265701955
 20
0
 30
0
 40
22.50000000000001
 50
319.4117177356504
 51
341.5680213729536
  0
ARC
  8
1
 62
3
  6
DASHDOT
 10
-244.1011265701955
 20
0
 30
0
 40
22.49999999999992
 50
199.4117177356504
 51
221.5680213729538
  0
ARC
  8
1
 62
7
 10
-244.1011265701955
 20
0
 30
0
 40
42.64022510128906
 50
313.3634317184163
 51
316.6365682815837
  0
ARC
  8
1
 62
7
 10
-244.1011265701937
 20
-1.787014980436652e-012
 30
0
 40
42.64022510128897
 50
223.3634317184132
 51
226.6365682815803
  0
ARC
  8
1
 62
7
 10
-244.1011265701955
 20
0
 30
0
 40
42.64022510128897
 50
133.3634317184163
 51
136.6365682815834
  0
ARC
  8
1
 62
7
 10
-244.1011265701955
 20
0
 30
0
 40
42.64022510128906
 50
43.36343171841636
 51
46.63656828158364
  0
ARC
  8
1
 62
3
  6
DASHDOT
 10
-244.1011265701955
 20
0
 30
0
 40
22.49999999999998
 50
79.41171773565031
 51
101.5680213729535
  0
ARC
  8
1
 62
7
 10
-118.816394157276
 20
-25.50000000000003
 30
0
 40
7.499999999999965
 50
270
 51
330.0735651333858
  0
ARC
  8
1
 62
7
 10
-118.816394157276
 20
25.5
 30
0
 40
7.499999999999975
 50
29.92643486661391
 51
90
  0
ARC
  8
1
 62
7
 10
-118.816394157276
 20
101.4243324653756
 30
0
 40
7.500000000000014
 50
270
 51
330.0735651333853
  0
ARC
  8
1
 62
7
 10
-118.816394157276
 20
152.4243324653756
 30
0
 40
7.499999999999969
 50
29.92643486661384
 51
90
  0
ARC
  8
1
 62
7
 10
-75.216394157276
 20
-39.99999999999999
 30
0
 40
3.000000000000045
 50
307.6698869643305
 51
223.7617426926809
  0
ARC
  8
1
 62
7
 10
-90.216394157276
 20
-39.99999999999999
 30
0
 40
17.00000000000006
 50
317.9069917721907
 51
0
  0
ARC
  8
1
 62
7
 10
-90.216394157276
 20
-39.99999999999999
 30
0
 40
15.00000000000005
 50
317.69564914039
 51
0
  0
ARC
  8
1
 62
7
 10
-74.216394157276
 20
-39.99999999999999
 30
0
 40
1.000000000000057
 50
0
 51
180
  0
ARC
  8
1
 62
7
 10
-76.216394157276
 20
-39.99999999999999
 30
0
 40
1
 50
0
 51
180
  0
ARC
  8
1
 62
7
 10
-90.216394157276
 20
-39.99999999999999
 30
0
 40
13.00000000000002
 50
318.8928570641601
 51
0
  0
ARC
  8
1
 62
7
 10
-93.216394157276
 20
-39.99999999999999
 30
0
 40
2.999999999999959
 50
316.2382573073193
 51
232.3301130356695
  0
ARC
  8
1
 62
7
 10
-78.21639415727604
 20
-39.99999999999999
 30
0
 40
16.99999999999996
 50
180
 51
222.0930082278094
  0
ARC
  8
1
 62
7
 10
-78.21639415727604
 20
-39.99999999999999
 30
0
 40
14.99999999999996
 50
180
 51
222.3043508596102
  0
ARC
  8
1
 62
7
 10
-94.216394157276
 20
-39.99999999999999
 30
0
 40
1
 50
0
 51
180
  0
ARC
  8
1
 62
7
 10
-92.216394157276
 20
-39.99999999999999
 30
0
 40
1
 50
0
 51
180
  0
ARC
  8
1
 62
7
 10
-78.21639415727604
 20
-39.99999999999999
 30
0
 40
12.99999999999996
 50
180
 51
221.1071429358401
  0
ARC
  8
1
 62
7
 10
-244.1011265701955
 20
0
 30
0
 40
10.99999999999999
 50
188.8904350669842
 51
261.1095649330159
  0
ARC
  8
1
 62
7
 10
-244.1011265701955
 20
0
 30
0
 40
11
 50
98.8904350669841
 51
171.1095649330158
  0
ARC
  8
1
 62
7
 10
-244.1011265701955
 20
0
 30
0
 40
11.00000000000002
 50
278.8904350669843
 51
351.1095649330158
  0
ARC
  8
1
 62
7
 10
-244.1011265701955
 20
0
 30
0
 40
11.0000000000001
 50
8.890435066984018
 51
81.10956493301576
  0
ARC
  8
1
 62
7
 10
-244.1011265701955
 20
-41.87900815193181
 30
0
 40
2.999999999999992
 50
131.8103148957787
 51
48.18968510422136
  0
ARC
  8
1
 62
7
 10
-245.1011265701955
 20
-41.87900815193181
 30
0
 40
1
 50
180
 51
0
  0
ARC
  8
1
 62
7
 10
-243.1011265701955
 20
-41.87900815193181
 30
0
 40
1
 50
180
 51
0
  0
ARC
  8
1
 62
7
 10
-270.617630864691
 20
-26.51650429449555
 30
0
 40
3.500000000000018
 50
87.51140377793725
 51
2.488596222063029
  0
ARC
  8
1
 62
7
 10
-270.617630864691
 20
26.51650429449549
 30
0
 40
3.500000000000195
 50
357.511403777938
 51
272.4885962220628
  0
ARC
  8
1
 62
7
 10
-217.5846222756999
 20
26.51650429449549
 30
0
 40
3.499999999999962
 50
267.5114037779358
 51
182.4885962220623
  0
ARC
  8
1
 62
7
 10
-20.216394157276
 20
126.9243324653756
 30
0
 40
2.000000000000014
 50
90
 51
270
  0
ARC
  8
1
 62
7
 10
-49.91754862327929
 20
-25.50000000000006
 30
0
 40
7.499999999999942
 50
209.9441084016518
 51
270
  0
ARC
  8
1
 62
7
 10
-34.71654862327937
 20
-14
 30
0
 40
1
 50
0
 51
90
  0
ARC
  8
1
 62
7
 10
-34.71654862327937
 20
14
 30
0
 40
1
 50
270
 51
356.0369495881898
  0
ARC
  8
1
 62
7
 10
-107.216394157276
 20
94.92433246537559
 30
0
 40
1
 50
180
 51
270
  0
ARC
  8
1
 62
7
 10
-61.21639415727599
 20
94.92433246537559
 30
0
 40
1
 50
270
 51
0
  0
ARC
  8
1
 62
7
 10
-110.216394157276
 20
88.92433246537559
 30
0
 40
2
 50
270
 51
0
  0
ARC
  8
1
 62
7
 10
-58.21639415727599
 20
88.92433246537559
 30
0
 40
2
 50
180
 51
270
  0
ARC
  8
1
 62
7
 10
-110.216394157276
 20
164.9243324653756
 30
0
 40
2
 50
0
 51
90
  0
ARC
  8
1
 62
7
 10
-58.21639415727599
 20
164.9243324653756
 30
0
 40
2
 50
90
 51
180
  0
ARC
  8
1
 62
7
 10
-61.21639415727599
 20
158.9243324653756
 30
0
 40
1
 50
0
 51
90
  0
ARC
  8
1
 62
7
 10
-107.216394157276
 20
158.9243324653756
 30
0
 40
1
 50
90
 51
180
  0
ARC
  8
1
 62
7
 10
-49.91754862327929
 20
101.4243324653755
 30
0
 40
7.499999999999957
 50
209.944108401652
 51
270
  0
ARC
  8
1
 62
7
 10
-34.71654862327937
 20
112.9243324653756
 30
0
 40
1
 50
0
 51
90
  0
ARC
  8
1
 62
7
 10
-34.71654862327937
 20
140.9243324653756
 30
0
 40
1
 50
270
 51
356.03694958819
  0
ARC
  8
1
 62
7
 10
-59.21639415727599
 20
158.9243324653756
 30
0
 40
1
 50
180
 51
270
  0
ARC
  8
1
 62
7
 10
-41.21639415727599
 20
164.9243324653756
 30
0
 40
2
 50
0
 51
90
  0
ARC
  8
1
 62
7
 10
-59.21639415727599
 20
94.92433246537559
 30
0
 40
1
 50
90
 51
180
  0
ARC
  8
1
 62
7
 10
-41.21639415727599
 20
88.92433246537559
 30
0
 40
2
 50
270
 51
0
  0
ARC
  8
1
 62
7
 10
-127.216394157276
 20
88.92433246537559
 30
0
 40
2
 50
180
 51
270
  0
ARC
  8
1
 62
7
 10
-127.216394157276
 20
164.9243324653756
 30
0
 40
2
 50
90
 51
180
  0
ARC
  8
1
 62
7
 10
-109.216394157276
 20
94.92433246537559
 30
0
 40
1
 50
0
 51
90
  0
ARC
  8
1
 62
7
 10
-109.216394157276
 20
158.9243324653756
 30
0
 40
1
 50
270
 51
0
  0
ARC
  8
1
 62
7
 10
-41.21639415727599
 20
-48.99999999999999
 30
0
 40
2
 50
0
 51
90
  0
ARC
  8
1
 62
7
 10
-58.21639415727599
 20
-44.99999999999999
 30
0
 40
2
 50
180
 51
270
  0
ARC
  8
1
 62
7
 10
-67.216394157276
 20
-54
 30
0
 40
2
 50
0
 51
90
  0
ARC
  8
1
 62
7
 10
-110.216394157276
 20
-44.99999999999999
 30
0
 40
2
 50
270
 51
0
  0
ARC
  8
1
 62
7
 10
-101.216394157276
 20
-54
 30
0
 40
2
 50
90
 51
180
  0
ARC
  8
1
 62
7
 10
-127.216394157276
 20
-48.99999999999999
 30
0
 40
2
 50
90
 51
180
  0
ARC
  8
1
 62
7
 10
-59.21639415727599
 20
-31.99999999999999
 30
0
 40
1
 50
90
 51
180
  0
ARC
  8
1
 62
7
 10
-59.21639415727599
 20
32
 30
0
 40
1
 50
180
 51
270
  0
ARC
  8
1
 62
7
 10
-109.216394157276
 20
-31.99999999999999
 30
0
 40
1
 50
0
 51
90
  0
ARC
  8
1
 62
7
 10
-109.216394157276
 20
32
 30
0
 40
1
 50
270
 51
0
  0
ARC
  8
1
 62
7
 10
-226.1011265701955
 20
-54
 30
0
 40
2
 50
0
 51
90
  0
ARC
  8
1
 62
7
 10
-206.1011265701955
 20
-48.99999999999999
 30
0
 40
2
 50
0
 51
90
  0
ARC
  8
1
 62
7
 10
-206.1011265701955
 20
-47.3105122174944
 30
0
 40
2
 50
0
 51
17.65012421992935
  0
ARC
  8
1
 62
7
 10
-222.1011265701955
 20
-48.99999999999999
 30
0
 40
2
 50
90
 51
180
  0
ARC
  8
1
 62
7
 10
-226.1011265701955
 20
-54
 30
0
 40
2
 50
0
 51
90
  0
ARC
  8
1
 62
7
 10
-262.1011265701953
 20
-54
 30
0
 40
2
 50
90
 51
180
  0
ARC
  8
1
 62
7
 10
-266.1011265701953
 20
-48.99999999999999
 30
0
 40
2
 50
0
 51
90
  0
ARC
  8
1
 62
7
 10
-282.1011265701953
 20
-48.99999999999999
 30
0
 40
2
 50
90
 51
180
  0
ARC
  8
1
 62
7
 10
-282.1011265701953
 20
-47.3105122174944
 30
0
 40
2.000000000000211
 50
162.3498757800719
 51
180
  0
ARC
  8
1
 62
7
 10
-273.1011265701953
 20
29
 30
0
 40
4
 50
90
 51
180
  0
ARC
  8
1
 62
7
 10
-215.1011265701955
 20
29
 30
0
 40
4
 50
0
 51
90
  0
ARC
  8
1
 62
7
 10
-49.91754862327929
 20
25.5
 30
0
 40
7.500000000000057
 50
90
 51
150.0558915983478
  0
ARC
  8
1
 62
7
 10
-217.5846222757
 20
-26.51650429449555
 30
0
 40
3.499999999999941
 50
177.511403777937
 51
92.48859622206228
  0
ARC
  8
1
 62
7
 10
-49.91754862327929
 20
152.4243324653757
 30
0
 40
7.5
 50
90
 51
150.0558915983482
  0
ARC
  8
1
 62
7
 10
-119.216394157276
 20
96.92433246537559
 30
0
 40
3.500000000000002
 50
238.997280866126
 51
306.6798254076527
  0
ARC
  8
1
 62
7
  6
DASHED
 10
-119.216394157276
 20
96.92433246537559
 30
0
 40
3.500000000000028
 50
306.6798254076527
 51
238.997280866126
  0
ARC
  8
1
 62
7
  6
DASHED
 10
-119.216394157276
 20
156.9243324653756
 30
0
 40
3.500000000000002
 50
121.002719133874
 51
53.32017459234707
  0
ARC
  8
1
 62
7
 10
-119.216394157276
 20
156.9243324653756
 30
0
 40
3.500000000000004
 50
53.32017459234707
 51
121.002719133874
  0
ARC
  8
1
 62
7
 10
-49.21639415727599
 20
96.92433246537559
 30
0
 40
3.499999999999999
 50
235.7055648991136
 51
301.0027191338716
  0
ARC
  8
1
 62
7
  6
DASHED
 10
-49.21639415727599
 20
96.92433246537559
 30
0
 40
3.499999999999996
 50
301.0027191338716
 51
235.7055648991136
  0
ARC
  8
1
 62
7
 10
-49.21639415727599
 20
156.9243324653756
 30
0
 40
3.500000000000001
 50
58.99728086612869
 51
124.2944351008857
  0
ARC
  8
1
 62
7
  6
DASHED
 10
-49.21639415727599
 20
156.9243324653756
 30
0
 40
3.499999999999982
 50
124.2944351008857
 51
58.99728086612869
  0
CIRCLE
  8
1
 62
7
 10
-224.6155549850456
 20
-11.25000000000001
 30
0
 40
1.599999999999994
  0
CIRCLE
  8
1
 62
3
 10
-224.6155549850456
 20
-11.25000000000001
 30
0
 40
2.5
  0
CIRCLE
  8
1
 62
7
 10
-263.5866981553453
 20
-11.24999999999999
 30
0
 40
1.599999999999966
  0
CIRCLE
  8
1
 62
3
 10
-263.5866981553453
 20
-11.24999999999999
 30
0
 40
2.5
  0
CIRCLE
  8
1
 62
3
 10
-244.1011265701955
 20
0
 30
0
 40
5.5
  0
CIRCLE
  8
1
 62
7
 10
-244.1011265701955
 20
0
 30
0
 40
6
  0
CIRCLE
  8
1
 62
7
 10
-244.1011265701955
 20
22.5
 30
0
 40
1.599999999999994
  0
CIRCLE
  8
1
 62
3
 10
-244.1011265701955
 20
22.5
 30
0
 40
2.5
  0
CIRCLE
  8
1
 62
7
 10
-244.1011265701955
 20
0
 30
0
 40
33.5
  0
CIRCLE
  8
1
 62
7
 10
-244.1011265701955
 20
0
 30
0
 40
35
  0
CIRCLE
  8
1
 62
7
 10
-244.1011265701955
 20
0
 30
0
 40
28
  0
CIRCLE
  8
1
 62
7
 10
-244.1011265701955
 20
0
 30
0
 40
17.5
  0
TEXT
  8
1
 62
7
 10
-266.1511265701956
 20
128.6502668074566
 30
0
 40
5
  1
TMP 0.6
 41
0.9
  7
SIMPLEX
  0
TEXT
  8
1
 62
7
 10
-266.1511265701956
 20
118.1502668074566
 30
0
 40
5
  1
DC1801
 41
0.9
  7
SIMPLEX
  0
TEXT
  8
1
 62
7
 10
-78.39619855108009
 20
-35.37898807271831
 30
0
 40
3.5
  1
BR
 41
0.8910000000000004
  7
SIMPLEX
  0
TEXT
  8
1
 62
7
 10
-96.36639415727609
 20
-35.37898807271831
 30
0
 40
3.5
  1
CL
 41
0.8910000000000004
  7
SIMPLEX
  0
ENDSEC
  0
EOF
