  0
SECTION
  2
HEADER
  9
$ACADVER
  1
AC1009
  9
$INSBASE
 10
0
 20
0
  9
$EXTMIN
 10
-437.6574917815199
 20
-85.742876058235
  9
$EXTMAX
 10
0.1
 20
280.642021395446
  9
$LIMMIN
 10
-437.6574917815199
 20
-85.742876058235
  9
$LIMMAX
 10
0.1
 20
280.642021395446
  9
$VIEWCTR
 10
10
 20
10
  9
$VIEWSIZE
 40
10
  9
$SNAPMODE
 70
0
  9
$SNAPUNIT
 10
1
 20
1
  9
$SNAPBASE
 10
0
 20
0
  9
$SNAPANG
 50
0
  9
$SNAPSTYLE
 70
0
  9
$SNAPISOPAIR
 70
0
  9
$GRIDMODE
 70
0
  9
$GRIDUNIT
 10
0
 20
0
  9
$ORTHOMODE
 70
0
  9
$REGENMODE
 70
1
  9
$FILLMODE
 70
1
  9
$QTEXTMODE
 70
0
  9
$DRAGMODE
 70
2
  9
$LTSCALE
 40
1
  9
$OSMODE
 70
0
  9
$ATTMODE
 70
1
  9
$TEXTSIZE
 40
3.5
  9
$TRACEWID
 40
0.5
  9
$TEXTSTYLE
  7
STANDARD
  9
$CLAYER
  8
0
  9
$CELTYPE
  6
BYLAYER
  9
$CECOLOR
 62
256
  9
$DIMSCALE
 40
1
  9
$DIMASZ
 40
0.18
  9
$DIMEXO
 40
0.0625
  9
$DIMDLI
 40
0.38
  9
$DIMRND
 40
0
  9
$DIMDLE
 40
0
  9
$DIMEXE
 40
0.18
  9
$DIMTP
 40
0
  9
$DIMTM
 40
0
  9
$DIMTXT
 40
0.18
  9
$DIMCEN
 40
0.09
  9
$DIMTSZ
 40
0
  9
$DIMTOL
 70
0
  9
$DIMLIM
 70
0
  9
$DIMTIH
 70
1
  9
$DIMTOH
 70
1
  9
$DIMSE1
 70
0
  9
$DIMSE2
 70
0
  9
$DIMTAD
 70
0
  9
$DIMZIN
 70
0
  9
$DIMBLK
  1

  9
$DIMASO
 70
1
  9
$DIMSHO
 70
1
  9
$DIMPOST
  1

  9
$DIMAPOST
  1

  9
$DIMALT
 70
0
  9
$DIMALTD
 70
2
  9
$DIMALTF
 40
25.4
  9
$DIMLFAC
 40
1
  9
$DIMTOFL
 70
0
  9
$DIMTVP
 40
0
  9
$DIMTIX
 70
0
  9
$DIMSOXD
 70
0
  9
$DIMSAH
 70
0
  9
$DIMBLK1
  1

  9
$DIMBLK2
  1

  9
$DIMSTYLE
  2
*UNNAMED
  9
$DIMCLRD
 70
0
  9
$DIMCLRE
 70
0
  9
$DIMCLRT
 70
0
  9
$DIMTFAC
 40
1
  9
$DIMGAP
 40
0.09
  9
$LUNITS
 70
2
  9
$LUPREC
 70
4
  9
$AXISMODE
 70
0
  9
$AXISUNIT
 10
0
 20
0
  9
$SKETCHINC
 40
0.1
  9
$FILLETRAD
 40
2
  9
$AUNITS
 70
0
  9
$AUPREC
 70
0
  9
$MENU
  1
ACAD
  9
$ELEVATION
 40
0
  9
$THICKNESS
 40
0
  9
$VIEWDIR
 10
0
 20
0
 30
1
  9
$LIMCHECK
 70
0
  9
$BLIPMODE
 70
1
  9
$CHAMFERA
 40
0
  9
$CHAMFERB
 40
0
  9
$FASTZOOM
 70
1
  9
$SKPOLY
 70
0
  9
$ANGBASE
 50
0
  9
$ANGDIR
 70
0
  9
$PDMODE
 70
0
  9
$PDSIZE
 40
0
  9
$PLINEWID
 40
0
  9
$COORDS
 70
2
  0
ENDSEC
  0
SECTION
  2
TABLES
  0
TABLE
  2
DIMSTYLE
 70
0
  0
ENDTAB
  0
TABLE
  2
LTYPE
 70
9
  0
LTYPE
  2
CONTINUOUS
 70
64
  3
Solid line
 72
65
 73
0
 40
0
  0
LTYPE
  2
BORDER
 70
64
  3
__ __ . __ __ .
 72
65
 73
6
 40
20.15988448993842
 49
5.759966997125263
 49
-2.879983498562631
 49
5.759966997125263
 49
-2.879983498562631
 49
0
 49
-2.879983498562631
  0
LTYPE
  2
CENTER
 70
64
  3
____ _ ____ _
 72
65
 73
4
 40
23.03986798850105
 49
14.39991749281316
 49
-2.879983498562631
 49
2.879983498562631
 49
-2.879983498562631
  0
LTYPE
  2
DASHDOT
 70
64
  3
__ . __ . __ .
 72
65
 73
4
 40
11.51993399425053
 49
5.759966997125263
 49
-2.879983498562631
 49
0
 49
-2.879983498562631
  0
LTYPE
  2
DASHED
 70
64
  3
__ __ __ __ __
 72
65
 73
2
 40
8.639950495687895
 49
5.759966997125263
 49
-2.879983498562631
  0
LTYPE
  2
DIVIDE
 70
64
  3
__ . . __ . . 
 72
65
 73
6
 40
14.39991749281316
 49
5.759966997125263
 49
-2.879983498562631
 49
0
 49
-2.879983498562631
 49
0
 49
-2.879983498562631
  0
LTYPE
  2
DOT
 70
64
  3
..............
 72
65
 73
4
 40
5.759966997125263
 49
0
 49
-2.879983498562631
 49
0
 49
-2.879983498562631
  0
LTYPE
  2
HIDDEN
 70
64
  3
_ _ _ _ _ _ _
 72
65
 73
2
 40
4.319975247843948
 49
2.879983498562631
 49
-1.439991749281316
  0
LTYPE
  2
PHANTOM
 70
64
  3
_____ _ _ _____ _ _ 
 72
65
 73
6
 40
28.79983498562631
 49
14.39991749281316
 49
-2.879983498562631
 49
2.879983498562631
 49
-2.879983498562631
 49
2.879983498562631
 49
-2.879983498562631
  0
ENDTAB
  0
TABLE
  2
LAYER
 70
3
  0
LAYER
  2
1
 70
0
 62
7
  6
CONTINUOUS
  0
LAYER
  2
0
 70
0
 62
7
  6
CONTINUOUS
  0
ENDTAB
  0
TABLE
  2
STYLE
 70
4
  0
STYLE
  2
STANDARD
 70
0
 40
0
 41
1
 50
0
 71
0
 42
3.5
  3
txt
  4

  0
STYLE
  2
SIMPLEX
 70
0
 40
0
 41
1
 50
0
 71
0
 42
3.5
  3
simplex
  4

  0
STYLE
  2
COMPLEX
 70
0
 40
0
 41
1
 50
0
 71
0
 42
3.5
  3
complex
  4

  0
STYLE
  2
ITALIC
 70
0
 40
0
 41
1
 50
0
 71
0
 42
3.5
  3
italic
  4

  0
ENDTAB
  0
TABLE
  2
VIEW
 70
0
  0
ENDTAB
  0
ENDSEC
  0
SECTION
  2
BLOCKS
  0
ENDSEC
  0
SECTION
  2
ENTITIES
  0
LINE
  8
1
 62
7
 10
-207.9197241571187
 20
170.142021395446
 30
0
 11
-205.3197241571189
 21
170.142021395446
 31
0
  0
LINE
  8
1
 62
7
 10
-207.9197241571187
 20
181.142021395446
 30
0
 11
-205.319724157119
 21
181.142021395446
 31
0
  0
LINE
  8
1
 62
7
 10
-207.9197241571187
 20
238.142021395446
 30
0
 11
-205.3197241571189
 21
238.142021395446
 31
0
  0
LINE
  8
1
 62
7
 10
-207.9197241571187
 20
189.142021395446
 30
0
 11
-205.3197241571189
 21
189.142021395446
 31
0
  0
LINE
  8
1
 62
7
 10
-172.5197241571187
 20
163.642021395446
 30
0
 11
-168.4197241571188
 21
163.642021395446
 31
0
  0
LINE
  8
1
 62
3
  6
DASHDOT
 10
-189.0275358322448
 20
158.642021395446
 30
0
 11
-175.8119124819929
 21
158.642021395446
 31
0
  0
LINE
  8
1
 62
7
 10
-207.9197241571187
 20
24.5
 30
0
 11
-205.3197241571189
 21
24.5
 31
0
  0
LINE
  8
1
 62
7
 10
-207.9197241571187
 20
-24.5
 30
0
 11
-205.3197241571189
 21
-24.5
 31
0
  0
LINE
  8
1
 62
7
 10
-51.51972415711903
 20
251.642021395446
 30
0
 11
-52.21972415711895
 21
251.642021395446
 31
0
  0
LINE
  8
1
 62
7
 10
-48.31972415711899
 20
167.142021395446
 30
0
 11
-48.31972415711899
 21
260.142021395446
 31
0
  0
LINE
  8
1
 62
7
 10
-43.31972415711903
 20
260.142021395446
 30
0
 11
-43.31972415711899
 21
167.142021395446
 31
0
  0
LINE
  8
1
 62
7
 10
-130.9197449322811
 20
-14.94323201169912
 30
0
 11
-130.9197449322811
 21
-10
 31
0
  0
LINE
  8
1
 62
7
 10
-118.9197033819565
 20
-10
 30
0
 11
-118.9197033819565
 21
-14.94323201169912
 31
0
  0
LINE
  8
1
 62
7
 10
-217.9197241571187
 20
-46.50000000000001
 30
0
 11
-207.9197241571187
 21
-46.50000000000004
 31
0
  0
LINE
  8
1
 62
7
 10
-123.9053105505547
 20
-5
 30
0
 11
-117.9197241571188
 21
-5
 31
0
  0
LINE
  8
1
 62
7
 10
-108.9197241571188
 20
-14.94323201169912
 30
0
 11
-108.9197241571188
 21
-12
 31
0
  0
LINE
  8
1
 62
7
 10
-110.9197241571188
 20
-14.94323201169912
 30
0
 11
-110.9197241571188
 21
-12
 31
0
  0
LINE
  8
1
 62
7
 10
-117.9197241571188
 20
-3
 30
0
 11
-123.9197764728456
 21
-3
 31
0
  0
LINE
  8
1
 62
7
 10
-123.9197241571188
 20
-7
 30
0
 11
-123.9220750701591
 21
-7
 31
0
  0
LINE
  8
1
 62
7
 10
-120.9197241571188
 20
-10
 30
0
 11
-120.9197241571188
 21
-14.94323201169912
 31
0
  0
LINE
  8
1
 62
7
 10
-131.9197241571188
 20
-5
 30
0
 11
-125.9341377636828
 21
-5
 31
0
  0
LINE
  8
1
 62
7
 10
-140.9197241571188
 20
-12
 30
0
 11
-140.9197241571188
 21
-14.94323201169912
 31
0
  0
LINE
  8
1
 62
7
 10
-138.9197241571188
 20
-12
 30
0
 11
-138.9197241571188
 21
-14.94323201169912
 31
0
  0
LINE
  8
1
 62
7
 10
-125.9196718413919
 20
-3
 30
0
 11
-131.9197241571188
 21
-3
 31
0
  0
LINE
  8
1
 62
7
 10
-125.9173732440784
 20
-7
 30
0
 11
-125.9197241571188
 21
-7
 31
0
  0
LINE
  8
1
 62
7
 10
-128.9197241571188
 20
-14.94323201169912
 30
0
 11
-128.9197241571188
 21
-10
 31
0
  0
LINE
  8
1
 62
7
 10
-3.919724157118844
 20
12
 30
0
 11
-3.919724157118844
 21
-10
 31
0
  0
LINE
  8
1
 62
7
 10
-35.91972415711884
 20
12
 30
0
 11
-3.919724157118844
 21
12
 31
0
  0
LINE
  8
1
 62
7
 10
-35.91972415711884
 20
10
 30
0
 11
-35.91972415711884
 21
12
 31
0
  0
LINE
  8
1
 62
7
 10
-152.9197241571188
 20
146.6420213954459
 30
0
 11
-190.9197241571188
 21
146.6420213954459
 31
0
  0
LINE
  8
1
 62
7
 10
-152.9197241571188
 20
144.7841156015831
 30
0
 11
-96.91972415711888
 21
144.7841156015831
 31
0
  0
LINE
  8
1
 62
7
 10
-96.91972415711888
 20
161.642021395446
 30
0
 11
-96.91972415711888
 21
144.7841156015831
 31
0
  0
LINE
  8
1
 62
7
 10
-152.9197241571188
 20
161.642021395446
 30
0
 11
-152.9197241571188
 21
144.7841156015831
 31
0
  0
LINE
  8
1
 62
7
 10
-54.91972415711882
 20
159.642021395446
 30
0
 11
-54.91972415711882
 21
150.6420213954459
 31
0
  0
LINE
  8
1
 62
7
 10
-58.91972415711882
 20
146.6420213954459
 30
0
 11
-96.91972415711888
 21
146.642021395446
 31
0
  0
LINE
  8
1
 62
7
 10
-194.9197241571188
 20
157.142021395446
 30
0
 11
-194.9197241571188
 21
150.6420213954459
 31
0
  0
LINE
  8
1
 62
3
  6
DASHDOT
 10
-74.02753583224478
 20
158.6420213954459
 30
0
 11
-60.81191248199286
 21
158.6420213954459
 31
0
  0
LINE
  8
1
 62
3
  6
DASHDOT
 10
-67.41972415711882
 20
165.2498330705719
 30
0
 11
-67.41972415711882
 21
152.03420972032
 31
0
  0
LINE
  8
1
 62
3
  6
DASHDOT
 10
-182.4197241571188
 20
165.2498330705719
 30
0
 11
-182.4197241571188
 21
152.03420972032
 31
0
  0
LINE
  8
1
 62
7
 10
-178.5197241571188
 20
160.142021395446
 30
0
 11
-185.3197241571189
 21
160.142021395446
 31
0
  0
LINE
  8
1
 62
3
  6
DASHDOT
 10
-60.81191248199286
 20
268.642021395446
 30
0
 11
-74.02753583224478
 21
268.642021395446
 31
0
  0
LINE
  8
1
 62
3
  6
DASHDOT
 10
-67.41972415711882
 20
275.249833070572
 30
0
 11
-67.41972415711882
 21
262.0342097203201
 31
0
  0
LINE
  8
1
 62
3
  6
DASHDOT
 10
-182.4197241571188
 20
275.249833070572
 30
0
 11
-182.4197241571188
 21
262.0342097203201
 31
0
  0
LINE
  8
1
 62
3
  6
DASHDOT
 10
-175.8119124819929
 20
268.642021395446
 30
0
 11
-189.0275358322448
 21
268.642021395446
 31
0
  0
LINE
  8
1
 62
7
 10
-54.91972415711882
 20
276.642021395446
 30
0
 11
-54.91972415711882
 21
267.642021395446
 31
0
  0
LINE
  8
1
 62
7
 10
-194.9197241571188
 20
276.642021395446
 30
0
 11
-194.9197241571188
 21
270.142021395446
 31
0
  0
LINE
  8
1
 62
7
 10
-190.9197241571188
 20
280.642021395446
 30
0
 11
-58.91972415711882
 21
280.642021395446
 31
0
  0
LINE
  8
1
 62
7
 10
-166.4197241571188
 20
161.642021395446
 30
0
 11
-83.41972415711888
 21
161.642021395446
 31
0
  0
LINE
  8
1
 62
7
 10
-166.4197241571188
 20
265.642021395446
 30
0
 11
-83.41972415711888
 21
265.642021395446
 31
0
  0
LINE
  8
1
 62
7
 10
-238.806475503067
 20
197.7675135290584
 30
0
 11
-240.9197241571187
 21
197.7675135290584
 31
0
  0
LINE
  8
1
 62
3
 10
-240.9197241571187
 20
205.1420213954459
 30
0
 11
-244.9197241571187
 21
205.1420213954459
 31
0
  0
LINE
  8
1
 62
7
 10
-240.9197241571187
 20
203.6420213954459
 30
0
 11
-244.9197241571187
 21
203.6420213954459
 31
0
  0
LINE
  8
1
 62
7
 10
-238.806475503067
 20
195.6420213954459
 30
0
 11
-235.9197241571187
 21
200.6420213954459
 31
0
  0
LINE
  8
1
 62
7
 10
-240.9197241571187
 20
229.5165292618335
 30
0
 11
-238.806475503067
 21
229.5165292618335
 31
0
  0
LINE
  8
1
 62
3
 10
-244.9197241571187
 20
222.142021395446
 30
0
 11
-240.9197241571187
 21
222.142021395446
 31
0
  0
LINE
  8
1
 62
7
 10
-244.9197241571187
 20
223.642021395446
 30
0
 11
-240.9197241571187
 21
223.642021395446
 31
0
  0
LINE
  8
1
 62
7
 10
-244.9197241571187
 20
223.642021395446
 30
0
 11
-244.9197241571187
 21
203.6420213954459
 31
0
  0
LINE
  8
1
 62
7
 10
-240.9197241571187
 20
229.5165292618335
 30
0
 11
-240.9197241571187
 21
197.7675135290584
 31
0
  0
LINE
  8
1
 62
7
 10
-238.806475503067
 20
231.642021395446
 30
0
 11
-238.806475503067
 21
195.6420213954459
 31
0
  0
LINE
  8
1
 62
7
 10
-235.9197241571187
 20
226.642021395446
 30
0
 11
-238.806475503067
 21
231.642021395446
 31
0
  0
LINE
  8
1
 62
7
 10
-217.9197241571187
 20
167.142021395446
 30
0
 11
-207.9197241571187
 21
167.1420213954459
 31
0
  0
LINE
  8
1
 62
7
 10
-217.9197241571187
 20
188.642021395446
 30
0
 11
-235.9197241571187
 21
188.6420213954459
 31
0
  0
LINE
  8
1
 62
7
 10
-207.9197241571187
 20
260.142021395446
 30
0
 11
-217.9197241571187
 21
260.142021395446
 31
0
  0
LINE
  8
1
 62
7
 10
-207.9197241571187
 20
260.142021395446
 30
0
 11
-207.9197241571187
 21
167.1420213954459
 31
0
  0
LINE
  8
1
 62
7
 10
-235.9197241571187
 20
238.642021395446
 30
0
 11
-217.9197241571187
 21
238.642021395446
 31
0
  0
LINE
  8
1
 62
7
 10
-217.9197241571187
 20
260.142021395446
 30
0
 11
-217.9197241571187
 21
167.142021395446
 31
0
  0
LINE
  8
1
 62
7
 10
-235.9197241571187
 20
188.6420213954459
 30
0
 11
-235.9197241571187
 21
238.642021395446
 31
0
  0
LINE
  8
1
 62
7
 10
-198.3197241571189
 20
267.142021395446
 30
0
 11
-198.3197241571189
 21
160.142021395446
 31
0
  0
LINE
  8
1
 62
7
 10
-196.5876733495502
 20
157.142021395446
 30
0
 11
-196.5876733495502
 21
270.142021395446
 31
0
  0
LINE
  8
1
 62
7
 10
-178.5197241571188
 20
160.142021395446
 30
0
 11
-185.3197241571189
 21
160.142021395446
 31
0
  0
LINE
  8
1
 62
7
 10
-185.3197241571189
 20
267.142021395446
 30
0
 11
-178.5197241571188
 21
267.142021395446
 31
0
  0
LINE
  8
1
 62
3
  6
DASHDOT
 10
-248.8754629748836
 20
213.642021395446
 30
0
 11
-244.9197241571187
 21
213.642021395446
 31
0
  0
LINE
  8
1
 62
7
 10
-172.5197241571187
 20
163.642021395446
 30
0
 11
-172.5197241571187
 21
263.642021395446
 31
0
  0
LINE
  8
1
 62
7
 10
-205.3197241571189
 20
160.6420213954459
 30
0
 11
-204.7197241571188
 21
160.6420213954459
 31
0
  0
LINE
  8
1
 62
7
 10
-200.0197241571187
 20
159.6420213954459
 30
0
 11
-204.0197241571187
 21
159.6420213954459
 31
0
  0
LINE
  8
1
 62
7
 10
-205.3197241571189
 20
160.6420213954459
 30
0
 11
-205.3197241571189
 21
251.642021395446
 31
0
  0
LINE
  8
1
 62
7
 10
-206.4197241571187
 20
256.642021395446
 30
0
 11
-206.9197241571187
 21
257.142021395446
 31
0
  0
LINE
  8
1
 62
7
 10
-206.4197241571187
 20
265.642021395446
 30
0
 11
-206.9197241571187
 21
265.142021395446
 31
0
  0
LINE
  8
1
 62
7
 10
-205.3197241571189
 20
256.642021395446
 30
0
 11
-205.3197241571189
 21
265.642021395446
 31
0
  0
LINE
  8
1
 62
7
 10
-206.4197241571187
 20
265.642021395446
 30
0
 11
-204.6197241571188
 21
265.642021395446
 31
0
  0
LINE
  8
1
 62
7
 10
-206.4197241571187
 20
256.642021395446
 30
0
 11
-204.6197241571188
 21
256.642021395446
 31
0
  0
LINE
  8
1
 62
7
 10
-206.9197241571187
 20
257.142021395446
 30
0
 11
-206.9197241571187
 21
265.142021395446
 31
0
  0
LINE
  8
1
 62
7
 10
-204.7197241571188
 20
251.642021395446
 30
0
 11
-204.0197241571187
 21
254.2544569607442
 31
0
  0
LINE
  8
1
 62
7
 10
-205.3197241571189
 20
251.642021395446
 30
0
 11
-204.6197241571188
 21
254.1833897614675
 31
0
  0
LINE
  8
1
 62
7
 10
-204.6197241571188
 20
254.1833897614675
 30
0
 11
-204.6197241571188
 21
266.642021395446
 31
0
  0
LINE
  8
1
 62
7
 10
-204.6197241571188
 20
266.642021395446
 30
0
 11
-204.0197241571187
 21
266.642021395446
 31
0
  0
LINE
  8
1
 62
7
 10
-204.7197241571188
 20
160.6420213954459
 30
0
 11
-204.7197241571188
 21
251.642021395446
 31
0
  0
LINE
  8
1
 62
7
 10
-204.0197241571187
 20
267.642021395446
 30
0
 11
-200.0197241571187
 21
267.642021395446
 31
0
  0
LINE
  8
1
 62
7
 10
-200.0197241571187
 20
159.6420213954459
 30
0
 11
-200.0197241571187
 21
267.642021395446
 31
0
  0
LINE
  8
1
 62
7
 10
-185.3197241571189
 20
270.142021395446
 30
0
 11
-185.3197241571189
 21
157.142021395446
 31
0
  0
LINE
  8
1
 62
7
 10
-185.3197241571189
 20
157.142021395446
 30
0
 11
-196.5876733495502
 21
157.142021395446
 31
0
  0
LINE
  8
1
 62
7
 10
-196.5876733495502
 20
157.142021395446
 30
0
 11
-198.3197241571189
 21
160.142021395446
 31
0
  0
LINE
  8
1
 62
7
 10
-198.3197241571189
 20
160.142021395446
 30
0
 11
-199.8197241571189
 21
160.142021395446
 31
0
  0
LINE
  8
1
 62
7
 10
-199.8197241571189
 20
267.142021395446
 30
0
 11
-198.3197241571189
 21
267.142021395446
 31
0
  0
LINE
  8
1
 62
7
 10
-198.3197241571189
 20
267.142021395446
 30
0
 11
-196.5876733495502
 21
270.142021395446
 31
0
  0
LINE
  8
1
 62
7
 10
-196.5876733495502
 20
270.142021395446
 30
0
 11
-185.3197241571189
 21
270.142021395446
 31
0
  0
LINE
  8
1
 62
7
 10
-199.8197241571189
 20
160.142021395446
 30
0
 11
-199.8197241571189
 21
267.142021395446
 31
0
  0
LINE
  8
1
 62
7
 10
-204.0197241571187
 20
267.642021395446
 30
0
 11
-204.0197241571187
 21
159.6420213954459
 31
0
  0
LINE
  8
1
 62
7
 10
-169.9197241571188
 20
263.642021395446
 30
0
 11
-169.9197241571188
 21
163.642021395446
 31
0
  0
LINE
  8
1
 62
7
 10
-167.4197241571188
 20
149.6420213954459
 30
0
 11
-167.4197241571188
 21
277.642021395446
 31
0
  0
LINE
  8
1
 62
7
 10
-172.5197241571187
 20
263.642021395446
 30
0
 11
-168.4197241571188
 21
263.642021395446
 31
0
  0
LINE
  8
1
 62
7
 10
-41.91972415711904
 20
201.642021395446
 30
0
 11
-40.01972415711884
 21
201.642021395446
 31
0
  0
LINE
  8
1
 62
7
 10
-41.91972415711904
 20
199.642021395446
 30
0
 11
-43.219724157119
 21
199.642021395446
 31
0
  0
LINE
  8
1
 62
7
 10
-40.01972415711884
 20
225.642021395446
 30
0
 11
-40.01972415711884
 21
201.642021395446
 31
0
  0
LINE
  8
1
 62
7
 10
-41.91972415711904
 20
225.642021395446
 30
0
 11
-40.01972415711884
 21
225.642021395446
 31
0
  0
LINE
  8
1
 62
7
 10
-41.91972415711904
 20
227.642021395446
 30
0
 11
-41.91972415711904
 21
199.642021395446
 31
0
  0
LINE
  8
1
 62
7
 10
-43.219724157119
 20
227.642021395446
 30
0
 11
-41.91972415711904
 21
227.642021395446
 31
0
  0
LINE
  8
1
 62
7
 10
-33.41972415711884
 20
211.142021395446
 30
0
 11
-3.919724157118849
 21
211.142021395446
 31
0
  0
LINE
  8
1
 62
7
 10
-3.919724157118844
 20
216.142021395446
 30
0
 11
-33.41972415711884
 21
216.142021395446
 31
0
  0
LINE
  8
1
 62
7
 10
-3.919724157118844
 20
203.642021395446
 30
0
 11
-40.01972415711884
 21
203.642021395446
 31
0
  0
LINE
  8
1
 62
7
 10
-3.919724157118846
 20
223.642021395446
 30
0
 11
-3.919724157118844
 21
203.642021395446
 31
0
  0
LINE
  8
1
 62
7
 10
-40.01972415711884
 20
223.642021395446
 30
0
 11
-3.919724157118846
 21
223.642021395446
 31
0
  0
LINE
  8
1
 62
3
  6
DASHDOT
 10
0.1
 20
213.642021395446
 30
0
 11
-3.919724157118844
 21
213.642021395446
 31
0
  0
LINE
  8
1
 62
7
 10
-56.21972415711895
 20
267.642021395446
 30
0
 11
-52.21972415711895
 21
267.642021395446
 31
0
  0
LINE
  8
1
 62
7
 10
-52.21972415711895
 20
266.642021395446
 30
0
 11
-51.51972415711903
 21
266.642021395446
 31
0
  0
LINE
  8
1
 62
7
 10
-51.51972415711903
 20
254.1833897614675
 30
0
 11
-50.91972415711901
 21
251.642021395446
 31
0
  0
LINE
  8
1
 62
7
 10
-52.21972415711895
 20
254.2544569607442
 30
0
 11
-51.51972415711903
 21
251.642021395446
 31
0
  0
LINE
  8
1
 62
7
 10
-51.51972415711903
 20
266.642021395446
 30
0
 11
-51.51972415711903
 21
254.1833897614675
 31
0
  0
LINE
  8
1
 62
7
 10
-50.81972415711898
 20
265.642021395446
 30
0
 11
-50.81972415711898
 21
256.642021395446
 31
0
  0
LINE
  8
1
 62
7
 10
-51.51972415711903
 20
265.642021395446
 30
0
 11
-49.71972415711895
 21
265.642021395446
 31
0
  0
LINE
  8
1
 62
7
 10
-49.21972415711895
 20
265.142021395446
 30
0
 11
-49.71972415711895
 21
265.642021395446
 31
0
  0
LINE
  8
1
 62
7
 10
-51.51972415711903
 20
256.642021395446
 30
0
 11
-49.71972415711895
 21
256.642021395446
 31
0
  0
LINE
  8
1
 62
7
 10
-49.21972415711895
 20
265.142021395446
 30
0
 11
-49.21972415711895
 21
257.142021395446
 31
0
  0
LINE
  8
1
 62
7
 10
-49.21972415711895
 20
257.142021395446
 30
0
 11
-49.71972415711895
 21
256.642021395446
 31
0
  0
LINE
  8
1
 62
7
 10
-52.21972415711895
 20
159.642021395446
 30
0
 11
-56.21972415711895
 21
159.642021395446
 31
0
  0
LINE
  8
1
 62
7
 10
-51.51972415711904
 20
160.642021395446
 30
0
 11
-50.91972415711901
 21
160.642021395446
 31
0
  0
LINE
  8
1
 62
7
 10
-51.51972415711904
 20
160.642021395446
 30
0
 11
-51.51972415711903
 21
251.642021395446
 31
0
  0
LINE
  8
1
 62
7
 10
-50.91972415711901
 20
170.142021395446
 30
0
 11
-48.31972415711899
 21
170.142021395446
 31
0
  0
LINE
  8
1
 62
7
 10
-48.31972415711899
 20
260.142021395446
 30
0
 11
-43.31972415711903
 21
260.142021395446
 31
0
  0
LINE
  8
1
 62
7
 10
-43.31972415711899
 20
167.142021395446
 30
0
 11
-48.31972415711899
 21
167.142021395446
 31
0
  0
LINE
  8
1
 62
7
 10
-56.21972415711895
 20
267.642021395446
 30
0
 11
-56.21972415711895
 21
159.642021395446
 31
0
  0
LINE
  8
1
 62
7
 10
-71.5197241571189
 20
160.1420213954461
 30
0
 11
-56.51972415711895
 21
160.1420213954461
 31
0
  0
LINE
  8
1
 62
7
 10
-56.51972415711895
 20
267.142021395446
 30
0
 11
-56.51972415711895
 21
160.1420213954461
 31
0
  0
LINE
  8
1
 62
7
 10
-50.91972415711901
 20
160.642021395446
 30
0
 11
-50.91972415711901
 21
251.642021395446
 31
0
  0
LINE
  8
1
 62
7
 10
-49.31972415711899
 20
233.642021395446
 30
0
 11
-50.91972415711901
 21
233.642021395446
 31
0
  0
LINE
  8
1
 62
7
 10
-49.31972415711899
 20
193.642021395446
 30
0
 11
-50.91972415711901
 21
193.642021395446
 31
0
  0
LINE
  8
1
 62
7
 10
-52.21972415711895
 20
159.642021395446
 30
0
 11
-52.21972415711895
 21
267.642021395446
 31
0
  0
LINE
  8
1
 62
7
 10
-238.806475503067
 20
-15.87450786638756
 30
0
 11
-240.9197241571187
 21
-15.87450786638756
 31
0
  0
LINE
  8
1
 62
3
 10
-240.9197241571187
 20
-8.5
 30
0
 11
-244.9197241571187
 21
-8.5
 31
0
  0
LINE
  8
1
 62
7
 10
-240.9197241571187
 20
-10
 30
0
 11
-244.9197241571187
 21
-10
 31
0
  0
LINE
  8
1
 62
7
 10
-244.9197241571187
 20
10
 30
0
 11
-244.9197241571187
 21
-10
 31
0
  0
LINE
  8
1
 62
7
 10
-240.9197241571187
 20
15.8745078663875
 30
0
 11
-240.9197241571187
 21
-15.87450786638756
 31
0
  0
LINE
  8
1
 62
7
 10
-238.806475503067
 20
17.99999999999999
 30
0
 11
-238.806475503067
 21
-18.00000000000004
 31
0
  0
LINE
  8
1
 62
7
 10
-238.806475503067
 20
-18.00000000000004
 30
0
 11
-235.9197241571187
 21
-13.00000000000003
 31
0
  0
LINE
  8
1
 62
7
 10
-240.9197241571187
 20
15.8745078663875
 30
0
 11
-238.806475503067
 21
15.8745078663875
 31
0
  0
LINE
  8
1
 62
3
 10
-244.9197241571187
 20
8.5
 30
0
 11
-240.9197241571187
 21
8.5
 31
0
  0
LINE
  8
1
 62
7
 10
-244.9197241571187
 20
10
 30
0
 11
-240.9197241571187
 21
10
 31
0
  0
LINE
  8
1
 62
7
 10
-235.9197241571187
 20
13
 30
0
 11
-238.806475503067
 21
17.99999999999999
 31
0
  0
LINE
  8
1
 62
7
 10
-217.9197241571187
 20
-25
 30
0
 11
-235.9197241571187
 21
-25.00000000000004
 31
0
  0
LINE
  8
1
 62
7
 10
-207.9197241571187
 20
46.49999999999999
 30
0
 11
-217.9197241571187
 21
46.49999999999999
 31
0
  0
LINE
  8
1
 62
7
 10
-207.9197241571187
 20
-43.50000000000004
 30
0
 11
-205.3197241571189
 21
-43.50000000000004
 31
0
  0
LINE
  8
1
 62
7
 10
-207.9197241571187
 20
-32.50000000000004
 30
0
 11
-205.3197241571189
 21
-32.50000000000004
 31
0
  0
LINE
  8
1
 62
7
 10
-207.9197241571187
 20
46.49999999999999
 30
0
 11
-207.9197241571187
 21
-46.50000000000004
 31
0
  0
LINE
  8
1
 62
7
 10
-235.9197241571187
 20
-25.00000000000004
 30
0
 11
-235.9197241571187
 21
24.99999999999999
 31
0
  0
LINE
  8
1
 62
7
 10
-235.9197241571187
 20
24.99999999999999
 30
0
 11
-217.9197241571187
 21
24.99999999999999
 31
0
  0
LINE
  8
1
 62
7
 10
-217.9197241571187
 20
46.49999999999999
 30
0
 11
-217.9197241571187
 21
-46.50000000000001
 31
0
  0
LINE
  8
1
 62
7
 10
-39.91972415711884
 20
12
 30
0
 11
-39.91972415711884
 21
-12
 31
0
  0
LINE
  8
1
 62
7
 10
-41.91972415711904
 20
-12
 30
0
 11
-39.91972415711884
 21
-12
 31
0
  0
LINE
  8
1
 62
7
 10
-41.91972415711904
 20
14
 30
0
 11
-41.91972415711904
 21
-14
 31
0
  0
LINE
  8
1
 62
7
 10
-41.91972415711904
 20
-14
 30
0
 11
-43.31972415711899
 21
-14
 31
0
  0
LINE
  8
1
 62
7
 10
-41.91972415711904
 20
12
 30
0
 11
-39.91972415711884
 21
12
 31
0
  0
LINE
  8
1
 62
7
 10
-43.31972415711899
 20
14
 30
0
 11
-41.91972415711904
 21
14
 31
0
  0
LINE
  8
1
 62
7
 10
-3.919724157118844
 20
-10
 30
0
 11
-39.91972415711884
 21
-10
 31
0
  0
LINE
  8
1
 62
7
 10
-39.91972415711884
 20
10
 30
0
 11
-3.919724157118844
 21
10
 31
0
  0
LINE
  8
1
 62
7
 10
-198.3197241571189
 20
53.49999999999999
 30
0
 11
-198.3197241571189
 21
-53.49999999999996
 31
0
  0
LINE
  8
1
 62
7
 10
-196.5876733495502
 20
-56.49999999999996
 30
0
 11
-196.5876733495502
 21
56.49999999999999
 31
0
  0
LINE
  8
1
 62
7
 10
-178.5197241571189
 20
-53.49999999999996
 30
0
 11
-185.3197241571189
 21
-53.49999999999996
 31
0
  0
LINE
  8
1
 62
7
 10
-185.3197241571189
 20
-56.49999999999996
 30
0
 11
-185.3197241571189
 21
56.49999999999999
 31
0
  0
LINE
  8
1
 62
7
 10
-185.3197241571189
 20
53.49999999999999
 30
0
 11
-178.5197241571189
 21
53.49999999999999
 31
0
  0
LINE
  8
1
 62
7
 10
-205.3197241571189
 20
-53.00000000000004
 30
0
 11
-205.3197241571189
 21
37.99999999999999
 31
0
  0
LINE
  8
1
 62
3
  6
DASHDOT
 10
-248.8754629748836
 20
0
 30
0
 11
-244.9197241571187
 21
0
 31
0
  0
LINE
  8
1
 62
7
 10
-172.5197241571188
 20
-50.00000000000001
 30
0
 11
-172.5197241571188
 21
49.99999999999999
 31
0
  0
LINE
  8
1
 62
7
 10
-172.5197241571188
 20
49.99999999999999
 30
0
 11
-168.4197241571188
 21
49.99999999999999
 31
0
  0
LINE
  8
1
 62
7
 10
-204.7197241571188
 20
-53.00000000000004
 30
0
 11
-204.7197241571188
 21
37.99999999999999
 31
0
  0
LINE
  8
1
 62
7
 10
-205.3197241571189
 20
-53.00000000000004
 30
0
 11
-204.7197241571188
 21
-53.00000000000004
 31
0
  0
LINE
  8
1
 62
7
 10
-200.0197241571187
 20
-54.00000000000004
 30
0
 11
-200.0197241571187
 21
53.99999999999999
 31
0
  0
LINE
  8
1
 62
7
 10
-200.0197241571187
 20
-54.00000000000004
 30
0
 11
-204.0197241571187
 21
-54.00000000000004
 31
0
  0
LINE
  8
1
 62
7
 10
-206.4197241571187
 20
42.99999999999999
 30
0
 11
-206.9197241571187
 21
43.49999999999999
 31
0
  0
LINE
  8
1
 62
7
 10
-206.9197241571187
 20
43.49999999999999
 30
0
 11
-206.9197241571187
 21
51.49999999999999
 31
0
  0
LINE
  8
1
 62
7
 10
-206.4197241571187
 20
42.99999999999999
 30
0
 11
-204.6197241571188
 21
42.99999999999999
 31
0
  0
LINE
  8
1
 62
7
 10
-206.4197241571187
 20
51.99999999999999
 30
0
 11
-206.9197241571187
 21
51.49999999999999
 31
0
  0
LINE
  8
1
 62
7
 10
-206.4197241571187
 20
51.99999999999999
 30
0
 11
-204.6197241571188
 21
51.99999999999999
 31
0
  0
LINE
  8
1
 62
7
 10
-205.3197241571189
 20
42.99999999999999
 30
0
 11
-205.3197241571189
 21
51.99999999999999
 31
0
  0
LINE
  8
1
 62
7
 10
-204.6197241571188
 20
40.5413683660215
 30
0
 11
-204.6197241571188
 21
52.99999999999999
 31
0
  0
LINE
  8
1
 62
7
 10
-204.0197241571187
 20
53.99999999999999
 30
0
 11
-204.0197241571187
 21
-54.00000000000004
 31
0
  0
LINE
  8
1
 62
7
 10
-204.7197241571188
 20
37.99999999999999
 30
0
 11
-204.0197241571187
 21
40.61243556529818
 31
0
  0
LINE
  8
1
 62
7
 10
-205.3197241571189
 20
37.99999999999999
 30
0
 11
-204.6197241571188
 21
40.5413683660215
 31
0
  0
LINE
  8
1
 62
7
 10
-204.6197241571188
 20
52.99999999999999
 30
0
 11
-204.0197241571187
 21
52.99999999999999
 31
0
  0
LINE
  8
1
 62
7
 10
-204.0197241571187
 20
53.99999999999999
 30
0
 11
-200.0197241571187
 21
53.99999999999999
 31
0
  0
LINE
  8
1
 62
7
 10
-185.3197241571189
 20
-56.49999999999996
 30
0
 11
-196.5876733495502
 21
-56.49999999999996
 31
0
  0
LINE
  8
1
 62
7
 10
-196.5876733495502
 20
-56.49999999999996
 30
0
 11
-198.3197241571189
 21
-53.49999999999996
 31
0
  0
LINE
  8
1
 62
7
 10
-198.3197241571189
 20
-53.49999999999996
 30
0
 11
-199.8197241571189
 21
-53.49999999999996
 31
0
  0
LINE
  8
1
 62
7
 10
-199.8197241571189
 20
-53.49999999999996
 30
0
 11
-199.8197241571189
 21
53.49999999999999
 31
0
  0
LINE
  8
1
 62
7
 10
-199.8197241571189
 20
53.49999999999999
 30
0
 11
-198.3197241571189
 21
53.49999999999999
 31
0
  0
LINE
  8
1
 62
7
 10
-198.3197241571189
 20
53.49999999999999
 30
0
 11
-196.5876733495502
 21
56.49999999999999
 31
0
  0
LINE
  8
1
 62
7
 10
-196.5876733495502
 20
56.49999999999999
 30
0
 11
-185.3197241571189
 21
56.49999999999999
 31
0
  0
LINE
  8
1
 62
7
 10
-56.51972415711895
 20
-53.49999999999987
 30
0
 11
-56.51972415711895
 21
53.49999999999999
 31
0
  0
LINE
  8
1
 62
7
 10
-56.21972415711895
 20
53.99999999999999
 30
0
 11
-56.21972415711895
 21
-53.99999999999996
 31
0
  0
LINE
  8
1
 62
7
 10
-56.21972415711895
 20
53.99999999999999
 30
0
 11
-52.21972415711895
 21
53.99999999999999
 31
0
  0
LINE
  8
1
 62
7
 10
-51.51972415711904
 20
37.99999999999999
 30
0
 11
-51.51972415711904
 21
-52.99999999999996
 31
0
  0
LINE
  8
1
 62
7
 10
-52.21972415711895
 20
52.99999999999999
 30
0
 11
-51.61972415711905
 21
52.99999999999999
 31
0
  0
LINE
  8
1
 62
7
 10
-51.61972415711905
 20
52.99999999999999
 30
0
 11
-51.61972415711905
 21
40.5413683660215
 31
0
  0
LINE
  8
1
 62
7
 10
-51.61972415711905
 20
40.5413683660215
 30
0
 11
-50.91972415711901
 21
37.99999999999999
 31
0
  0
LINE
  8
1
 62
7
 10
-52.21972415711895
 20
40.6124355652983
 30
0
 11
-51.51972415711904
 21
37.99999999999999
 31
0
  0
LINE
  8
1
 62
7
 10
-49.31972415711896
 20
51.49999999999999
 30
0
 11
-49.31972415711896
 21
43.49999999999999
 31
0
  0
LINE
  8
1
 62
7
 10
-51.61972415711905
 20
42.99999999999999
 30
0
 11
-49.81972415711896
 21
42.99999999999999
 31
0
  0
LINE
  8
1
 62
7
 10
-51.61972415711905
 20
51.99999999999999
 30
0
 11
-49.81972415711896
 21
51.99999999999999
 31
0
  0
LINE
  8
1
 62
7
 10
-50.91972415711899
 20
51.99999999999999
 30
0
 11
-50.91972415711899
 21
42.99999999999999
 31
0
  0
LINE
  8
1
 62
7
 10
-49.31972415711896
 20
51.49999999999999
 30
0
 11
-49.81972415711896
 21
51.99999999999999
 31
0
  0
LINE
  8
1
 62
7
 10
-49.31972415711896
 20
43.49999999999999
 30
0
 11
-49.81972415711896
 21
42.99999999999999
 31
0
  0
LINE
  8
1
 62
7
 10
-52.21972415711895
 20
-53.99999999999996
 30
0
 11
-56.21972415711895
 21
-53.99999999999996
 31
0
  0
LINE
  8
1
 62
7
 10
-51.51972415711904
 20
-52.99999999999996
 30
0
 11
-50.91972415711899
 21
-52.99999999999996
 31
0
  0
LINE
  8
1
 62
7
 10
-52.21972415711895
 20
53.99999999999999
 30
0
 11
-52.21972415711895
 21
-53.99999999999996
 31
0
  0
LINE
  8
1
 62
7
 10
-50.91972415711899
 20
-52.99999999999996
 30
0
 11
-50.91972415711901
 21
37.99999999999999
 31
0
  0
LINE
  8
1
 62
7
 10
-50.91972415711899
 20
-43.49999999999996
 30
0
 11
-48.31972415711899
 21
-43.49999999999996
 31
0
  0
LINE
  8
1
 62
7
 10
-48.31972415711899
 20
46.49999999999999
 30
0
 11
-43.31972415711899
 21
46.49999999999999
 31
0
  0
LINE
  8
1
 62
7
 10
-43.31972415711899
 20
-46.49999999999996
 30
0
 11
-48.31972415711899
 21
-46.49999999999996
 31
0
  0
LINE
  8
1
 62
7
 10
-71.5197241571189
 20
-53.49999999999987
 30
0
 11
-56.51972415711895
 21
-53.49999999999987
 31
0
  0
LINE
  8
1
 62
7
 10
-49.31972415711899
 20
19.99999999999999
 30
0
 11
-50.91972415711899
 21
19.99999999999999
 31
0
  0
LINE
  8
1
 62
7
 10
-49.31972415711899
 20
-19.99999999999999
 30
0
 11
-50.91972415711899
 21
-19.99999999999999
 31
0
  0
LINE
  8
1
 62
7
 10
-190.9197241571188
 20
-68
 30
0
 11
-58.91972415711882
 21
-68
 31
0
  0
LINE
  8
1
 62
3
  6
DASHDOT
 10
-67.41972415711882
 20
-85.742876058235
 30
0
 11
-67.41972415711882
 21
-63.9079389674523
 31
0
  0
LINE
  8
1
 62
7
 10
-54.91972415711882
 20
-72
 30
0
 11
-54.91972415711882
 21
-80
 31
0
  0
LINE
  8
1
 62
7
 10
-54.91972415711882
 20
-80
 30
0
 11
-94.91972415711888
 21
-80
 31
0
  0
LINE
  8
1
 62
7
 10
-98.91972415711888
 20
-76
 30
0
 11
-150.9197241571188
 21
-76
 31
0
  0
LINE
  8
1
 62
7
 10
-82.41972415711888
 20
-66
 30
0
 11
-82.41972415711888
 21
50.99999999999999
 31
0
  0
LINE
  8
1
 62
7
 10
-166.4197241571188
 20
51.99999999999999
 30
0
 11
-83.41972415711888
 21
51.99999999999999
 31
0
  0
LINE
  8
1
 62
7
 10
-167.4197241571188
 20
-66
 30
0
 11
-167.4197241571188
 21
50.99999999999999
 31
0
  0
LINE
  8
1
 62
3
  6
DASHDOT
 10
-182.4197241571188
 20
-63.9079389674523
 30
0
 11
-182.4197241571188
 21
-85.742876058235
 31
0
  0
LINE
  8
1
 62
7
 10
-194.9197241571188
 20
-80
 30
0
 11
-194.9197241571188
 21
-72
 31
0
  0
LINE
  8
1
 62
7
 10
-154.9197241571188
 20
-80
 30
0
 11
-194.9197241571188
 21
-80
 31
0
  0
LINE
  8
1
 62
7
 10
-316.1694213711581
 20
-14.94323201169912
 30
0
 11
-301.6574917815199
 21
-14.94323201169912
 31
0
  0
LINE
  8
1
 62
7
 10
-299.6574917815199
 20
-22.44323201169912
 30
0
 11
-301.6574917815199
 21
-22.44323201169912
 31
0
  0
LINE
  8
1
 62
7
 10
-299.6574917815199
 20
-17.44323201169912
 30
0
 11
-301.6574917815199
 21
-17.44323201169912
 31
0
  0
LINE
  8
1
 62
7
 10
-302.6574917815199
 20
-14.94323201169912
 30
0
 11
-302.6574917815199
 21
-34.94323201169912
 31
0
  0
LINE
  8
1
 62
7
 10
-318.6574917815199
 20
-34.94323201169912
 30
0
 11
-301.6574917815199
 21
-34.94323201169912
 31
0
  0
LINE
  8
1
 62
7
 10
-299.6574917815199
 20
-17.44323201169912
 30
0
 11
-299.6574917815199
 21
-22.44323201169912
 31
0
  0
LINE
  8
1
 62
7
 10
-301.6574917815199
 20
-14.94323201169912
 30
0
 11
-301.6574917815199
 21
-34.94323201169912
 31
0
  0
LINE
  8
1
 62
7
 10
-96.91972415711888
 20
-34.94323201169912
 30
0
 11
-152.9197241571188
 21
-34.94323201169912
 31
0
  0
LINE
  8
1
 62
7
 10
-152.9197241571188
 20
-34.94323201169912
 30
0
 11
-152.9197241571188
 21
-14.94323201169912
 31
0
  0
LINE
  8
1
 62
7
 10
-152.9197241571188
 20
-14.94323201169912
 30
0
 11
-96.91972415711888
 21
-14.94323201169912
 31
0
  0
LINE
  8
1
 62
7
 10
-148.6572241571187
 20
-18.19323201169912
 30
0
 11
-149.182224157119
 21
-18.19323201169912
 31
0
  0
LINE
  8
1
 62
7
 10
-150.6697241571188
 20
-19.68073201169913
 30
0
 11
-150.6697241571188
 21
-20.20573201169911
 31
0
  0
LINE
  8
1
 62
7
 10
-149.182224157119
 20
-21.69323201169912
 30
0
 11
-148.6572241571187
 21
-21.69323201169912
 31
0
  0
LINE
  8
1
 62
7
 10
-147.1697241571188
 20
-20.20573201169911
 30
0
 11
-147.1697241571188
 21
-19.68073201169913
 31
0
  0
LINE
  8
1
 62
7
 10
-128.4966717599809
 20
-28.89141067468414
 30
0
 11
-128.8679028201038
 21
-28.52017961456123
 31
0
  0
LINE
  8
1
 62
7
 10
-130.9715454941339
 20
-28.52017961456123
 30
0
 11
-131.3427765542568
 21
-28.89141067468414
 31
0
  0
LINE
  8
1
 62
7
 10
-131.3427765542568
 20
-30.99505334871411
 30
0
 11
-130.9715454941339
 21
-31.36628440883705
 31
0
  0
LINE
  8
1
 62
7
 10
-128.8679028201038
 20
-31.36628440883705
 30
0
 11
-128.4966717599809
 21
-30.99505334871411
 31
0
  0
LINE
  8
1
 62
7
 10
-138.496671759981
 20
-28.89141067468414
 30
0
 11
-138.8679028201038
 21
-28.52017961456123
 31
0
  0
LINE
  8
1
 62
7
 10
-140.9715454941339
 20
-28.52017961456123
 30
0
 11
-141.3427765542569
 21
-28.89141067468414
 31
0
  0
LINE
  8
1
 62
7
 10
-141.3427765542569
 20
-30.99505334871411
 30
0
 11
-140.9715454941339
 21
-31.36628440883705
 31
0
  0
LINE
  8
1
 62
7
 10
-138.8679028201038
 20
-31.36628440883705
 30
0
 11
-138.496671759981
 21
-30.99505334871411
 31
0
  0
LINE
  8
1
 62
7
 10
-133.9197241571188
 20
-34.58002872834122
 30
0
 11
-133.9197241571188
 21
-25.94323201169912
 31
0
  0
LINE
  8
1
 62
7
 10
-133.9197241571188
 20
-25.94323201169912
 30
0
 11
-125.9197241571188
 21
-25.94323201169912
 31
0
  0
LINE
  8
1
 62
7
 10
-125.9197241571188
 20
-25.94323201169912
 30
0
 11
-125.9197241571188
 21
-34.94323201169912
 31
0
  0
LINE
  8
1
 62
7
 10
-135.9197241571188
 20
-34.94323201169912
 30
0
 11
-135.9197241571188
 21
-25.94323201169912
 31
0
  0
LINE
  8
1
 62
7
 10
-135.9197241571188
 20
-25.94323201169912
 30
0
 11
-143.9197241571188
 21
-25.94323201169912
 31
0
  0
LINE
  8
1
 62
7
 10
-143.9197241571188
 20
-25.94323201169912
 30
0
 11
-143.9197241571188
 21
-34.94323201169912
 31
0
  0
LINE
  8
1
 62
7
 10
-96.91972415711888
 20
-14.94323201169912
 30
0
 11
-96.91972415711888
 21
-34.94323201169912
 31
0
  0
LINE
  8
1
 62
7
 10
-100.6572241571188
 20
-18.19323201169912
 30
0
 11
-101.1822241571189
 21
-18.19323201169912
 31
0
  0
LINE
  8
1
 62
7
 10
-99.16972415711888
 20
-20.20573201169911
 30
0
 11
-99.16972415711888
 21
-19.68073201169913
 31
0
  0
LINE
  8
1
 62
7
 10
-101.1822241571189
 20
-21.69323201169912
 30
0
 11
-100.6572241571188
 21
-21.69323201169912
 31
0
  0
LINE
  8
1
 62
7
 10
-102.6697241571189
 20
-19.68073201169913
 30
0
 11
-102.6697241571189
 21
-20.20573201169911
 31
0
  0
LINE
  8
1
 62
7
 10
-120.9715454941338
 20
-28.52017961456123
 30
0
 11
-121.3427765542568
 21
-28.89141067468414
 31
0
  0
LINE
  8
1
 62
7
 10
-118.4966717599809
 20
-28.89141067468414
 30
0
 11
-118.8679028201038
 21
-28.52017961456123
 31
0
  0
LINE
  8
1
 62
7
 10
-118.8679028201038
 20
-31.36628440883705
 30
0
 11
-118.4966717599809
 21
-30.99505334871411
 31
0
  0
LINE
  8
1
 62
7
 10
-121.3427765542568
 20
-30.99505334871411
 30
0
 11
-120.9715454941338
 21
-31.36628440883705
 31
0
  0
LINE
  8
1
 62
7
 10
-110.9715454941337
 20
-28.52017961456123
 30
0
 11
-111.3427765542568
 21
-28.89141067468414
 31
0
  0
LINE
  8
1
 62
7
 10
-108.4966717599809
 20
-28.89141067468414
 30
0
 11
-108.8679028201038
 21
-28.52017961456123
 31
0
  0
LINE
  8
1
 62
7
 10
-108.8679028201038
 20
-31.36628440883705
 30
0
 11
-108.4966717599809
 21
-30.99505334871411
 31
0
  0
LINE
  8
1
 62
7
 10
-111.3427765542568
 20
-30.99505334871411
 30
0
 11
-110.9715454941337
 21
-31.36628440883705
 31
0
  0
LINE
  8
1
 62
7
 10
-115.9197241571188
 20
-25.94323201169912
 30
0
 11
-115.9197241571188
 21
-34.58002872834122
 31
0
  0
LINE
  8
1
 62
7
 10
-123.9197241571188
 20
-25.94323201169912
 30
0
 11
-115.9197241571188
 21
-25.94323201169912
 31
0
  0
LINE
  8
1
 62
7
 10
-123.9197241571188
 20
-34.94323201169912
 30
0
 11
-123.9197241571188
 21
-25.94323201169912
 31
0
  0
LINE
  8
1
 62
7
 10
-113.9197241571188
 20
-25.94323201169912
 30
0
 11
-113.9197241571188
 21
-34.94323201169912
 31
0
  0
LINE
  8
1
 62
7
 10
-105.9197241571188
 20
-25.94323201169912
 30
0
 11
-113.9197241571188
 21
-25.94323201169912
 31
0
  0
LINE
  8
1
 62
7
 10
-105.9197241571188
 20
-34.94323201169912
 30
0
 11
-105.9197241571188
 21
-25.94323201169912
 31
0
  0
LINE
  8
1
 62
3
  6
DASHDOT
 10
-315.6574917815199
 20
-84.53240771879541
 30
0
 11
-315.6574917815199
 21
-63.98003329344161
 31
0
  0
LINE
  8
1
 62
3
  6
DASHDOT
 10
-425.6574917815199
 20
-63.98003329344161
 30
0
 11
-425.6574917815199
 21
-84.53240771879541
 31
0
  0
LINE
  8
1
 62
7
 10
-356.6574917815199
 20
-2
 30
0
 11
-354.7829839151323
 21
-2
 31
0
  0
LINE
  8
1
 62
7
 10
-356.6574917815199
 20
2
 30
0
 11
-356.6574917815199
 21
-2
 31
0
  0
LINE
  8
1
 62
7
 10
-354.7829839151323
 20
2
 30
0
 11
-356.6574917815199
 21
2
 31
0
  0
LINE
  8
1
 62
7
 10
-372.6574917815199
 20
-14.00000000000003
 30
0
 11
-372.6574917815199
 21
-15.87450786638755
 31
0
  0
LINE
  8
1
 62
7
 10
-368.6574917815199
 20
-14.00000000000003
 30
0
 11
-372.6574917815199
 21
-14.00000000000003
 31
0
  0
LINE
  8
1
 62
7
 10
-368.6574917815199
 20
-15.87450786638755
 30
0
 11
-368.6574917815199
 21
-14.00000000000003
 31
0
  0
LINE
  8
1
 62
7
 10
-384.6574917815199
 20
2
 30
0
 11
-386.5319996479075
 21
2
 31
0
  0
LINE
  8
1
 62
7
 10
-384.6574917815199
 20
-2
 30
0
 11
-384.6574917815199
 21
2
 31
0
  0
LINE
  8
1
 62
7
 10
-386.5319996479075
 20
-2
 30
0
 11
-384.6574917815199
 21
-2
 31
0
  0
LINE
  8
1
 62
7
 10
-368.6574917815199
 20
14
 30
0
 11
-368.6574917815199
 21
15.8745078663875
 31
0
  0
LINE
  8
1
 62
7
 10
-372.6574917815199
 20
14
 30
0
 11
-368.6574917815199
 21
14
 31
0
  0
LINE
  8
1
 62
7
 10
-372.6574917815199
 20
15.8745078663875
 30
0
 11
-372.6574917815199
 21
14
 31
0
  0
LINE
  8
1
 62
3
  6
DASHDOT
 10
-364.8138725066929
 20
0
 30
0
 11
-376.5011110563469
 21
0
 31
0
  0
LINE
  8
1
 62
3
  6
DASHDOT
 10
-370.6574917815199
 20
5.843619274826992
 30
0
 11
-370.6574917815199
 21
-5.843619274827006
 31
0
  0
LINE
  8
1
 62
7
 10
-303.6574917815199
 20
-80
 30
0
 11
-303.6574917815199
 21
-70.8679622641132
 31
0
  0
LINE
  8
1
 62
7
 10
-303.6574917815199
 20
-80
 30
0
 11
-335.6574917815199
 21
-80
 31
0
  0
LINE
  8
1
 62
7
 10
-335.6574917815199
 20
-72
 30
0
 11
-335.6574917815199
 21
-80
 31
0
  0
LINE
  8
1
 62
7
 10
-307.6574917815199
 20
-68
 30
0
 11
-331.6574917815199
 21
-68
 31
0
  0
LINE
  8
1
 62
7
 10
-318.6574917815199
 20
-44
 30
0
 11
-305.1775087414691
 21
-65.56797286408141
 31
0
  0
LINE
  8
1
 62
7
 10
-318.6574917815199
 20
-44
 30
0
 11
-305.1775087414691
 21
-65.56797286408141
 31
0
  0
LINE
  8
1
 62
7
 10
-318.6574917815199
 20
-22.09637979398435
 30
0
 11
-318.6574917815199
 21
-44
 31
0
  0
LINE
  8
1
 62
7
 10
-318.6574917815199
 20
47.99999999999999
 30
0
 11
-318.6574917815199
 21
22.09637979398438
 31
0
  0
LINE
  8
1
 62
7
 10
-348.5611119875355
 20
51.99999999999999
 30
0
 11
-322.6574917815199
 21
51.99999999999999
 31
0
  0
LINE
  8
1
 62
7
 10
-418.6574917815199
 20
51.99999999999999
 30
0
 11
-392.7538715755043
 21
51.99999999999999
 31
0
  0
LINE
  8
1
 62
7
 10
-422.6574917815199
 20
22.09637979398438
 30
0
 11
-422.6574917815199
 21
47.99999999999999
 31
0
  0
LINE
  8
1
 62
7
 10
-437.6574917815199
 20
-70.8679622641132
 30
0
 11
-437.6574917815199
 21
-80
 31
0
  0
LINE
  8
1
 62
7
 10
-409.6574917815199
 20
-68
 30
0
 11
-433.6574917815199
 21
-68
 31
0
  0
LINE
  8
1
 62
7
 10
-405.6574917815199
 20
-80
 30
0
 11
-405.6574917815199
 21
-72
 31
0
  0
LINE
  8
1
 62
7
 10
-422.6574917815199
 20
-44
 30
0
 11
-422.6574917815199
 21
-22.09637979398435
 31
0
  0
LINE
  8
1
 62
7
 10
-436.1374748215707
 20
-65.56797286408141
 30
0
 11
-422.6574917815199
 21
-44
 31
0
  0
LINE
  8
1
 62
7
 10
-405.6574917815199
 20
-80
 30
0
 11
-437.6574917815199
 21
-80
 31
0
  0
LINE
  8
1
 62
7
 10
-339.6574917815199
 20
-76
 30
0
 11
-401.6574917815199
 21
-76
 31
0
  0
LINE
  8
1
 62
7
 10
-344.3468475476744
 20
-50.00000000000004
 30
0
 11
-325.3115989134773
 21
-50.00000000000004
 31
0
  0
LINE
  8
1
 62
7
 10
-320.6574917815199
 20
-26.31064423384575
 30
0
 11
-320.6574917815199
 21
-45.34589286804265
 31
0
  0
LINE
  8
1
 62
7
 10
-328.2711243559472
 20
-45.92190133150547
 30
0
 11
-325.4827366768212
 21
-45.17475510469876
 31
0
  0
LINE
  8
1
 62
7
 10
-330.3123658082665
 20
-43.88065987918614
 30
0
 11
-328.2711243559472
 21
-45.92190133150547
 31
0
  0
LINE
  8
1
 62
7
 10
-329.5652195814599
 20
-41.09227220006011
 30
0
 11
-330.3123658082665
 21
-43.88065987918614
 31
0
  0
LINE
  8
1
 62
7
 10
-326.7768319023339
 20
-40.3451259732534
 30
0
 11
-329.5652195814599
 21
-41.09227220006011
 31
0
  0
LINE
  8
1
 62
7
 10
-324.7355904500146
 20
-42.38636742557273
 30
0
 11
-326.7768319023339
 21
-40.3451259732534
 31
0
  0
LINE
  8
1
 62
7
 10
-325.4827366768212
 20
-45.17475510469876
 30
0
 11
-324.7355904500146
 21
-42.38636742557273
 31
0
  0
LINE
  8
1
 62
7
 10
-420.6574917815199
 20
-26.31064423384565
 30
0
 11
-420.6574917815199
 21
-45.34589286804258
 31
0
  0
LINE
  8
1
 62
7
 10
-396.9681360153656
 20
-49.99999999999999
 30
0
 11
-416.0033846495625
 21
-49.99999999999999
 31
0
  0
LINE
  8
1
 62
7
 10
-416.5793931130253
 20
-42.38636742557266
 30
0
 11
-415.8322468862187
 21
-45.17475510469869
 31
0
  0
LINE
  8
1
 62
7
 10
-414.538151660706
 20
-40.34512597325333
 30
0
 11
-416.5793931130253
 21
-42.38636742557266
 31
0
  0
LINE
  8
1
 62
7
 10
-411.74976398158
 20
-41.09227220006004
 30
0
 11
-414.538151660706
 21
-40.34512597325333
 31
0
  0
LINE
  8
1
 62
7
 10
-411.0026177547733
 20
-43.88065987918607
 30
0
 11
-411.74976398158
 21
-41.09227220006004
 31
0
  0
LINE
  8
1
 62
7
 10
-413.0438592070926
 20
-45.9219013315054
 30
0
 11
-411.0026177547733
 21
-43.88065987918607
 31
0
  0
LINE
  8
1
 62
7
 10
-415.8322468862187
 20
-45.17475510469869
 30
0
 11
-413.0438592070926
 21
-45.9219013315054
 31
0
  0
LINE
  8
1
 62
7
 10
-396.9681360153656
 20
49.99999999999999
 30
0
 11
-416.0033846495625
 21
49.99999999999999
 31
0
  0
LINE
  8
1
 62
7
 10
-420.6574917815199
 20
26.31064423384571
 30
0
 11
-420.6574917815199
 21
45.34589286804258
 31
0
  0
LINE
  8
1
 62
7
 10
-413.0438592070926
 20
45.92190133150548
 30
0
 11
-415.8322468862186
 21
45.1747551046988
 31
0
  0
LINE
  8
1
 62
7
 10
-411.0026177547733
 20
43.8806598791861
 30
0
 11
-413.0438592070926
 21
45.92190133150548
 31
0
  0
LINE
  8
1
 62
7
 10
-411.7497639815799
 20
41.09227220006009
 30
0
 11
-411.0026177547733
 21
43.8806598791861
 31
0
  0
LINE
  8
1
 62
7
 10
-414.538151660706
 20
40.34512597325339
 30
0
 11
-411.7497639815799
 21
41.09227220006009
 31
0
  0
LINE
  8
1
 62
7
 10
-416.5793931130252
 20
42.38636742557269
 30
0
 11
-414.538151660706
 21
40.34512597325339
 31
0
  0
LINE
  8
1
 62
7
 10
-415.8322468862186
 20
45.1747551046988
 30
0
 11
-416.5793931130252
 21
42.38636742557269
 31
0
  0
LINE
  8
1
 62
7
 10
-320.6574917815199
 20
26.31064423384571
 30
0
 11
-320.6574917815199
 21
45.34589286804258
 31
0
  0
LINE
  8
1
 62
7
 10
-344.3468475476743
 20
49.99999999999999
 30
0
 11
-325.3115989134773
 21
49.99999999999999
 31
0
  0
LINE
  8
1
 62
7
 10
-324.7355904500146
 20
42.38636742557269
 30
0
 11
-325.4827366768212
 21
45.17475510469869
 31
0
  0
LINE
  8
1
 62
7
 10
-326.7768319023339
 20
40.34512597325339
 30
0
 11
-324.7355904500146
 21
42.38636742557269
 31
0
  0
LINE
  8
1
 62
7
 10
-329.5652195814599
 20
41.09227220006009
 30
0
 11
-326.7768319023339
 21
40.34512597325339
 31
0
  0
LINE
  8
1
 62
7
 10
-330.3123658082665
 20
43.8806598791861
 30
0
 11
-329.5652195814599
 21
41.09227220006009
 31
0
  0
LINE
  8
1
 62
7
 10
-328.2711243559472
 20
45.9219013315054
 30
0
 11
-330.3123658082665
 21
43.8806598791861
 31
0
  0
LINE
  8
1
 62
7
 10
-325.4827366768212
 20
45.17475510469869
 30
0
 11
-328.2711243559472
 21
45.9219013315054
 31
0
  0
LINE
  8
1
 62
3
  6
DASHDOT
 10
-336.5427048405633
 20
-19.69618142370801
 30
0
 11
-347.5369808304872
 21
-13.3486332213805
 31
0
  0
LINE
  8
1
 62
3
  6
DASHDOT
 10
-404.7722787224765
 20
-19.69618142370798
 30
0
 11
-393.7780027325526
 21
-13.3486332213805
 31
0
  0
LINE
  8
1
 62
3
  6
DASHDOT
 10
-370.6574917815199
 20
39.39236284741598
 30
0
 11
-370.6574917815199
 21
26.69726644276101
 31
0
  0
LINE
  8
1
 62
7
 10
-50.91972415711901
 20
182.142021395446
 30
0
 11
-48.31972415711899
 21
182.142021395446
 31
0
  0
LINE
  8
1
 62
7
 10
-50.91972415711899
 20
-31.49999999999996
 30
0
 11
-48.31972415711899
 21
-31.49999999999996
 31
0
  0
LINE
  8
1
 62
3
  6
DASHED
 10
-3.919724157118844
 20
-2.400000000000006
 30
0
 11
-20.71972415711885
 21
-2.399999999999998
 31
0
  0
LINE
  8
1
 62
3
  6
DASHED
 10
-20.71972415711885
 20
-2.399999999999998
 30
0
 11
-20.71972415711885
 21
2.400000000000003
 31
0
  0
LINE
  8
1
 62
3
  6
DASHED
 10
-20.71972415711885
 20
2.400000000000003
 30
0
 11
-3.919724157118844
 21
2.399999999999991
 31
0
  0
LINE
  8
1
 62
3
  6
DASHED
 10
-20.71972415711885
 20
-2.399999999999998
 30
0
 11
-22.45177496468772
 21
2.269446716830797e-015
 31
0
  0
LINE
  8
1
 62
3
  6
DASHED
 10
-22.45177496468772
 20
2.269446716830797e-015
 30
0
 11
-20.71972415711885
 21
2.400000000000003
 31
0
  0
LINE
  8
1
 62
3
  6
DASHED
 10
-3.919724157118844
 20
-3
 30
0
 11
-15.91972415711884
 21
-2.999999999999999
 31
0
  0
LINE
  8
1
 62
3
  6
DASHED
 10
-15.91972415711884
 20
-2.999999999999999
 30
0
 11
-15.91972415711884
 21
3.000000000000001
 31
0
  0
LINE
  8
1
 62
3
  6
DASHED
 10
-15.91972415711884
 20
3.000000000000001
 30
0
 11
-3.919724157118844
 21
3
 31
0
  0
LINE
  8
1
 62
3
  6
DASHED
 10
-15.91972415711884
 20
-2.999999999999999
 30
0
 11
-16.95895464166017
 21
-2.399999999999999
 31
0
  0
LINE
  8
1
 62
3
  6
DASHED
 10
-15.91972415711884
 20
3.000000000000001
 30
0
 11
-16.95895464166017
 21
2.400000000000002
 31
0
  0
LINE
  8
1
 62
3
  6
DASHDOT
 10
-0.919724157118844
 20
-3.673819061467132e-016
 30
0
 11
-26.30536480317395
 21
2.741359776954355e-015
 31
0
  0
LINE
  8
1
 62
7
 10
-43.31972415711899
 20
46.49999999999999
 30
0
 11
-43.31972415711899
 21
-46.49999999999996
 31
0
  0
LINE
  8
1
 62
7
 10
-48.31972415711899
 20
46.49999999999999
 30
0
 11
-48.31972415711899
 21
-46.49999999999996
 31
0
  0
LINE
  8
1
 62
7
 10
-56.51972415711895
 20
53.49999999999999
 30
0
 11
-71.5197241571189
 21
53.49999999999999
 31
0
  0
LINE
  8
1
 62
7
 10
-77.5197241571189
 20
49.99999999999999
 30
0
 11
-77.5197241571189
 21
-49.99999999999996
 31
0
  0
LINE
  8
1
 62
7
 10
-79.91972415711888
 20
-50.00000000000001
 30
0
 11
-79.91972415711888
 21
49.99999999999999
 31
0
  0
LINE
  8
1
 62
7
 10
-77.5197241571189
 20
-49.99999999999996
 30
0
 11
-81.41972415711888
 21
-50.00000000000001
 31
0
  0
LINE
  8
1
 62
7
 10
-77.5197241571189
 20
49.99999999999999
 30
0
 11
-81.41972415711888
 21
49.99999999999999
 31
0
  0
LINE
  8
1
 62
7
 10
-51.51972415711904
 20
37.99999999999999
 30
0
 11
-52.21972415711895
 21
37.99999999999999
 31
0
  0
LINE
  8
1
 62
7
 10
-77.5197241571189
 20
263.642021395446
 30
0
 11
-77.5197241571189
 21
163.642021395446
 31
0
  0
LINE
  8
1
 62
7
 10
-79.91972415711888
 20
163.642021395446
 30
0
 11
-79.91972415711888
 21
263.642021395446
 31
0
  0
LINE
  8
1
 62
7
 10
-71.5197241571189
 20
267.142021395446
 30
0
 11
-56.51972415711895
 21
267.142021395446
 31
0
  0
LINE
  8
1
 62
7
 10
-77.5197241571189
 20
263.642021395446
 30
0
 11
-81.41972415711888
 21
263.642021395446
 31
0
  0
LINE
  8
1
 62
7
 10
-81.41972415711888
 20
163.642021395446
 30
0
 11
-77.5197241571189
 21
163.642021395446
 31
0
  0
LINE
  8
1
 62
7
 10
-82.41972415711888
 20
149.6420213954459
 30
0
 11
-82.41972415711888
 21
277.642021395446
 31
0
  0
LINE
  8
1
 62
7
 10
-169.9197241571188
 20
-50.00000000000001
 30
0
 11
-169.9197241571188
 21
49.99999999999999
 31
0
  0
LINE
  8
1
 62
7
 10
-172.5197241571188
 20
-50.00000000000001
 30
0
 11
-168.4197241571188
 21
-50.00000000000001
 31
0
  0
LINE
  8
1
 62
7
 10
-204.7197241571188
 20
37.99999999999999
 30
0
 11
-204.0197241571187
 21
37.99999999999999
 31
0
  0
LINE
  8
1
 62
7
 10
-204.7197241571188
 20
251.642021395446
 30
0
 11
-204.0197241571187
 21
251.642021395446
 31
0
  0
ARC
  8
1
 62
7
  6
DASHED
 10
-182.4197241571188
 20
158.642021395446
 30
0
 40
4.500000000000169
 50
19.6008873442823
 51
199.4712206344906
  0
ARC
  8
1
 62
7
 10
-182.4197241571188
 20
158.642021395446
 30
0
 40
4.500000000000032
 50
199.4712206344906
 51
19.6008873442823
  0
ARC
  8
1
 62
7
 10
-182.4197241571188
 20
268.642021395446
 30
0
 40
4.500000000000178
 50
340.3991126557174
 51
160.5287793655095
  0
ARC
  8
1
 62
7
  6
DASHED
 10
-182.4197241571188
 20
268.642021395446
 30
0
 40
4.500000000000032
 50
160.5287793655095
 51
340.3991126557174
  0
ARC
  8
1
 62
7
 10
-124.9197241571188
 20
-5
 30
0
 40
5.000000000000047
 50
23.57817847820158
 51
156.421821521798
  0
ARC
  8
1
 62
7
 10
-124.9197241571188
 20
-5
 30
0
 40
5
 50
180
 51
199.3470951470577
  0
ARC
  8
1
 62
7
 10
-124.9197241571188
 20
-5
 30
0
 40
5.000000000000012
 50
224.1457432463726
 51
315.8542567536272
  0
ARC
  8
1
 62
7
 10
-124.9197241571188
 20
-5
 30
0
 40
4.999999999999998
 50
340.6529048529422
 51
0
  0
ARC
  8
1
 62
7
 10
-125.9197241571188
 20
-10
 30
0
 40
5.000020775162257
 50
90.16516730721897
 51
180
  0
ARC
  8
1
 62
7
 10
-123.9197241571188
 20
-10
 30
0
 40
5.000020775162298
 50
0
 51
89.83483269278005
  0
ARC
  8
1
 62
7
 10
-123.9197764728456
 20
-5.999947684273097
 30
0
 40
1.000052315726961
 50
89.17117815923822
 51
270
  0
ARC
  8
1
 62
7
 10
-125.9196718413919
 20
-5.999947684273097
 30
0
 40
1.000052315726904
 50
270
 51
90.82882184076178
  0
ARC
  8
1
 62
7
 10
-117.9197241571188
 20
-12
 30
0
 40
9
 50
0
 51
90
  0
ARC
  8
1
 62
7
 10
-117.9197241571188
 20
-12
 30
0
 40
7
 50
0
 51
90
  0
ARC
  8
1
 62
7
 10
-123.9197241571188
 20
-10
 30
0
 40
3
 50
0
 51
90
  0
ARC
  8
1
 62
7
 10
-131.9197241571188
 20
-12
 30
0
 40
9
 50
90
 51
180
  0
ARC
  8
1
 62
7
 10
-131.9197241571188
 20
-12
 30
0
 40
7
 50
90
 51
180
  0
ARC
  8
1
 62
7
 10
-125.9197241571188
 20
-10
 30
0
 40
3
 50
90
 51
180
  0
ARC
  8
1
 62
7
 10
-79.41972415711888
 20
149.6420213954459
 30
0
 40
3
 50
180
 51
270
  0
ARC
  8
1
 62
7
 10
-170.4197241571188
 20
149.6420213954459
 30
0
 40
3
 50
270
 51
0
  0
ARC
  8
1
 62
7
 10
-79.41972415711888
 20
277.642021395446
 30
0
 40
3
 50
90
 51
180
  0
ARC
  8
1
 62
7
 10
-170.4197241571188
 20
277.642021395446
 30
0
 40
3
 50
0
 51
90
  0
ARC
  8
1
 62
7
 10
-58.91972415711882
 20
150.6420213954459
 30
0
 40
4
 50
270
 51
0
  0
ARC
  8
1
 62
7
 10
-190.9197241571188
 20
150.6420213954459
 30
0
 40
4
 50
180
 51
270
  0
ARC
  8
1
 62
7
 10
-190.9197241571188
 20
276.642021395446
 30
0
 40
4
 50
90
 51
180
  0
ARC
  8
1
 62
7
 10
-58.91972415711882
 20
276.642021395446
 30
0
 40
4
 50
0
 51
90
  0
ARC
  8
1
 62
7
 10
-83.41972415711888
 20
162.642021395446
 30
0
 40
1
 50
270
 51
0
  0
ARC
  8
1
 62
7
 10
-166.4197241571188
 20
162.642021395446
 30
0
 40
1
 50
180
 51
270
  0
ARC
  8
1
 62
7
 10
-178.5197241571188
 20
166.1420213954459
 30
0
 40
5.999999999999915
 50
270
 51
0
  0
ARC
  8
1
 62
7
 10
-178.5197241571187
 20
261.142021395446
 30
0
 40
5.999999999999915
 50
0
 51
90
  0
ARC
  8
1
 62
7
 10
-168.4197241571188
 20
162.642021395446
 30
0
 40
1
 50
0
 51
90
  0
ARC
  8
1
 62
7
 10
-168.4197241571188
 20
264.642021395446
 30
0
 40
1
 50
270
 51
0
  0
ARC
  8
1
 62
7
 10
-166.4197241571188
 20
264.642021395446
 30
0
 40
1
 50
90
 51
180
  0
ARC
  8
1
 62
7
 10
-33.41972415711884
 20
213.642021395446
 30
0
 40
2.5
 50
90
 51
270
  0
ARC
  8
1
 62
7
 10
-49.31972415711899
 20
234.642021395446
 30
0
 40
1
 50
270
 51
0
  0
ARC
  8
1
 62
7
 10
-49.31972415711899
 20
192.642021395446
 30
0
 40
1
 50
0
 51
90
  0
ARC
  8
1
 62
7
 10
-71.5197241571189
 20
166.142021395446
 30
0
 40
6
 50
180
 51
270
  0
ARC
  8
1
 62
7
 10
-71.5197241571189
 20
261.142021395446
 30
0
 40
6
 50
90
 51
180
  0
ARC
  8
1
 62
7
 10
-81.41972415711888
 20
162.642021395446
 30
0
 40
1
 50
90
 51
180
  0
ARC
  8
1
 62
7
 10
-81.41972415711888
 20
264.642021395446
 30
0
 40
1
 50
180
 51
270
  0
ARC
  8
1
 62
7
 10
-83.41972415711888
 20
264.642021395446
 30
0
 40
1
 50
0
 51
90
  0
ARC
  8
1
 62
7
 10
-81.41972415711888
 20
264.642021395446
 30
0
 40
1
 50
180
 51
270
  0
ARC
  8
1
 62
7
 10
-178.5197241571189
 20
-47.49999999999996
 30
0
 40
6
 50
270
 51
0
  0
ARC
  8
1
 62
7
 10
-178.5197241571189
 20
47.49999999999999
 30
0
 40
6
 50
0
 51
90
  0
ARC
  8
1
 62
7
 10
-49.31972415711899
 20
20.99999999999999
 30
0
 40
1
 50
270
 51
0
  0
ARC
  8
1
 62
7
 10
-49.31972415711899
 20
-20.99999999999999
 30
0
 40
1
 50
0
 51
90
  0
ARC
  8
1
 62
7
 10
-71.5197241571189
 20
-47.49999999999996
 30
0
 40
6
 50
180
 51
270
  0
ARC
  8
1
 62
7
 10
-71.5197241571189
 20
47.49999999999999
 30
0
 40
6
 50
90
 51
180
  0
ARC
  8
1
 62
7
 10
-80.41972415711888
 20
-66
 30
0
 40
2
 50
180
 51
270
  0
ARC
  8
1
 62
7
 10
-169.4197241571188
 20
-66
 30
0
 40
2
 50
270
 51
0
  0
ARC
  8
1
 62
7
 10
-58.91972415711882
 20
-72
 30
0
 40
4
 50
0
 51
90
  0
ARC
  8
1
 62
7
 10
-98.91972415711888
 20
-80
 30
0
 40
4
 50
0
 51
90
  0
ARC
  8
1
 62
7
 10
-81.41972415711888
 20
-51.00000000000001
 30
0
 40
1
 50
90
 51
180
  0
ARC
  8
1
 62
7
 10
-81.41972415711888
 20
50.99999999999999
 30
0
 40
1
 50
180
 51
270
  0
ARC
  8
1
 62
7
 10
-83.41972415711888
 20
50.99999999999999
 30
0
 40
1
 50
0
 51
90
  0
ARC
  8
1
 62
7
 10
-81.41972415711888
 20
50.99999999999999
 30
0
 40
1
 50
180
 51
270
  0
ARC
  8
1
 62
7
 10
-168.4197241571188
 20
-51.00000000000001
 30
0
 40
1
 50
0
 51
90
  0
ARC
  8
1
 62
7
 10
-168.4197241571188
 20
50.99999999999999
 30
0
 40
1
 50
270
 51
0
  0
ARC
  8
1
 62
7
 10
-166.4197241571188
 20
50.99999999999999
 30
0
 40
1
 50
90
 51
180
  0
ARC
  8
1
 62
7
 10
-190.9197241571188
 20
-72
 30
0
 40
4
 50
90
 51
180
  0
ARC
  8
1
 62
7
 10
-150.9197241571188
 20
-80
 30
0
 40
4
 50
90
 51
180
  0
ARC
  8
1
 62
7
 10
-339.6574917815199
 20
-80
 30
0
 40
4
 50
0
 51
90
  0
ARC
  8
1
 62
7
 10
-331.6574917815199
 20
-72
 30
0
 40
4
 50
90
 51
180
  0
ARC
  8
1
 62
7
 10
-313.6574917815199
 20
-70.8679622641132
 30
0
 40
10
 50
0
 51
32.0053832080837
  0
ARC
  8
1
 62
7
 10
-307.6574917815199
 20
-72
 30
0
 40
4
 50
0
 51
90
  0
ARC
  8
1
 62
7
 10
-322.6574917815199
 20
47.99999999999999
 30
0
 40
4
 50
0
 51
90
  0
ARC
  8
1
 62
7
 10
-322.6574917815199
 20
47.99999999999999
 30
0
 40
4
 50
0
 51
90
  0
ARC
  8
1
 62
7
 10
-418.6574917815199
 20
47.99999999999999
 30
0
 40
4
 50
90
 51
180
  0
ARC
  8
1
 62
7
 10
-427.6574917815199
 20
-70.8679622641132
 30
0
 40
9.999999999999924
 50
147.9946167919163
 51
180
  0
ARC
  8
1
 62
7
 10
-433.6574917815199
 20
-72
 30
0
 40
4
 50
90
 51
180
  0
ARC
  8
1
 62
7
 10
-409.6574917815199
 20
-72
 30
0
 40
4
 50
0
 51
90
  0
ARC
  8
1
 62
7
 10
-401.6574917815199
 20
-80
 30
0
 40
4
 50
90
 51
180
  0
ARC
  8
1
 62
7
 10
-124.9197241571188
 20
-5
 30
0
 40
2.5
 50
53.13010235415598
 51
126.869897645844
  0
ARC
  8
1
 62
7
 10
-124.9197241571188
 20
-5
 30
0
 40
2.500000000000026
 50
234.4649085793086
 51
305.5350914206911
  0
ARC
  8
1
 62
7
 10
-123.9197764728456
 20
-4.000052315726904
 30
0
 40
1.000052315726904
 50
90
 51
270.8288218407618
  0
ARC
  8
1
 62
7
 10
-125.9196718413919
 20
-4.000052315726904
 30
0
 40
1.000052315726959
 50
269.1711781592383
 51
90
  0
ARC
  8
1
 62
7
 10
-147.1697241571188
 20
-18.19323201169912
 30
0
 40
1.487499999999898
 50
180
 51
270
  0
ARC
  8
1
 62
7
 10
-150.6697241571188
 20
-18.19323201169912
 30
0
 40
1.487500000000011
 50
270
 51
0
  0
ARC
  8
1
 62
7
 10
-150.6697241571188
 20
-21.69323201169912
 30
0
 40
1.487499999999784
 50
0
 51
90
  0
ARC
  8
1
 62
7
 10
-147.1697241571188
 20
-21.69323201169912
 30
0
 40
1.487500000000011
 50
90
 51
180
  0
ARC
  8
1
 62
7
 10
-127.4448504229658
 20
-29.94323201169912
 30
0
 40
1.487500000000072
 50
135.0000000000032
 51
224.999999999997
  0
ARC
  8
1
 62
7
 10
-129.9197241571188
 20
-27.46835827754624
 30
0
 40
1.487500000000077
 50
224.999999999997
 51
314.9999999999999
  0
ARC
  8
1
 62
7
 10
-132.394597891272
 20
-29.94323201169912
 30
0
 40
1.487500000000157
 50
315.0000000000061
 51
44.99999999999371
  0
ARC
  8
1
 62
7
 10
-129.9197241571188
 20
-32.41810574585203
 30
0
 40
1.487499999999991
 50
44.9999999999999
 51
135.0000000000032
  0
ARC
  8
1
 62
7
 10
-137.4448504229659
 20
-29.94323201169912
 30
0
 40
1.487500000000072
 50
135.0000000000032
 51
224.999999999997
  0
ARC
  8
1
 62
7
 10
-139.9197241571188
 20
-27.46835827754624
 30
0
 40
1.487500000000077
 50
224.999999999997
 51
314.9999999999999
  0
ARC
  8
1
 62
7
 10
-142.394597891272
 20
-29.94323201169912
 30
0
 40
1.487500000000097
 50
315.0000000000038
 51
44.99999999999604
  0
ARC
  8
1
 62
7
 10
-139.9197241571188
 20
-32.41810574585203
 30
0
 40
1.487499999999991
 50
44.9999999999999
 51
135.0000000000032
  0
ARC
  8
1
 62
7
 10
-102.6697241571189
 20
-18.19323201169912
 30
0
 40
1.487500000000011
 50
270
 51
0
  0
ARC
  8
1
 62
7
 10
-99.16972415711888
 20
-18.19323201169912
 30
0
 40
1.487499999999926
 50
180
 51
270
  0
ARC
  8
1
 62
7
 10
-99.16972415711888
 20
-21.69323201169912
 30
0
 40
1.487500000000011
 50
90
 51
180
  0
ARC
  8
1
 62
7
 10
-102.6697241571189
 20
-21.69323201169912
 30
0
 40
1.487500000000011
 50
0
 51
90
  0
ARC
  8
1
 62
7
 10
-122.3945978912719
 20
-29.94323201169912
 30
0
 40
1.487500000000077
 50
315.000000000003
 51
44.99999999999681
  0
ARC
  8
1
 62
7
 10
-119.9197241571188
 20
-27.46835827754624
 30
0
 40
1.487500000000017
 50
224.9999999999993
 51
315.0000000000003
  0
ARC
  8
1
 62
7
 10
-117.4448504229658
 20
-29.94323201169912
 30
0
 40
1.487500000000072
 50
135.0000000000032
 51
224.999999999997
  0
ARC
  8
1
 62
7
 10
-119.9197241571188
 20
-32.41810574585203
 30
0
 40
1.487500000000002
 50
44.99999999999951
 51
135.0000000000009
  0
ARC
  8
1
 62
7
 10
-112.3945978912718
 20
-29.94323201169912
 30
0
 40
1.487500000000007
 50
315.0000000000003
 51
44.99999999999951
  0
ARC
  8
1
 62
7
 10
-109.9197241571188
 20
-27.46835827754624
 30
0
 40
1.487499999999936
 50
225.0000000000024
 51
315.0000000000003
  0
ARC
  8
1
 62
7
 10
-107.444850422966
 20
-29.94323201169912
 30
0
 40
1.487499999999931
 50
134.9999999999978
 51
225.0000000000024
  0
ARC
  8
1
 62
7
 10
-109.9197241571188
 20
-32.41810574585203
 30
0
 40
1.487500000000002
 50
44.99999999999951
 51
134.9999999999978
  0
ARC
  8
1
 62
7
 10
-370.6574917815199
 20
0
 30
0
 40
15.99999999999996
 50
97.18075578145829
 51
172.8192442185417
  0
ARC
  8
1
 62
7
 10
-370.6574917815199
 20
0
 30
0
 40
16.00000000000006
 50
187.1807557814583
 51
262.8192442185417
  0
ARC
  8
1
 62
7
 10
-370.6574917815199
 20
0
 30
0
 40
16.00000000000001
 50
277.1807557814583
 51
352.8192442185418
  0
ARC
  8
1
 62
7
 10
-370.6574917815199
 20
0
 30
0
 40
16.00000000000006
 50
7.180755781458257
 51
82.8192442185417
  0
ARC
  8
1
 62
7
 10
-370.6574917815199
 20
0
 30
0
 40
67.5
 50
312.2054464037323
 51
317.7945535962677
  0
ARC
  8
1
 62
7
 10
-327.5239781291405
 20
-43.13351365237943
 30
0
 40
5.000000000000097
 50
159.7987150426571
 51
110.2012849573426
  0
ARC
  8
1
 62
7
 10
-370.6574917815199
 20
0
 30
0
 40
67.49999999999996
 50
222.2054464037323
 51
227.7945535962677
  0
ARC
  8
1
 62
7
 10
-413.7910054338993
 20
-43.13351365237936
 30
0
 40
4.999999999999966
 50
69.79871504265717
 51
20.20128495734334
  0
ARC
  8
1
 62
7
 10
-370.6574917815199
 20
0
 30
0
 40
67.49999999999997
 50
132.2054464037323
 51
137.7945535962678
  0
ARC
  8
1
 62
7
 10
-413.7910054338993
 20
43.13351365237939
 30
0
 40
4.999999999999977
 50
339.7987150426571
 51
290.2012849573422
  0
ARC
  8
1
 62
7
 10
-370.6574917815199
 20
0
 30
0
 40
67.49999999999996
 50
42.20544640373227
 51
47.79455359626773
  0
ARC
  8
1
 62
7
 10
-327.5239781291405
 20
43.13351365237939
 30
0
 40
4.999999999999973
 50
249.7987150426572
 51
200.2012849573423
  0
ARC
  8
1
 62
3
  6
DASHDOT
 10
-370.6574917815199
 20
0
 30
0
 40
32.99999999999996
 50
318.9274006800244
 51
341.8422687305513
  0
ARC
  8
1
 62
3
  6
DASHDOT
 10
-370.6574917815199
 20
0
 30
0
 40
32.99999999999992
 50
198.9274006800245
 51
221.8422687305511
  0
ARC
  8
1
 62
3
  6
DASHDOT
 10
-370.6574917815199
 20
0
 30
0
 40
33.00000000000003
 50
78.92740068002442
 51
101.8422687305511
  0
ARC
  8
1
 62
7
  6
DASHED
 10
-67.41972415711882
 20
268.642021395446
 30
0
 40
4.500000000000007
 50
199.4939325091854
 51
340.5287793655092
  0
ARC
  8
1
 62
7
 10
-67.41972415711882
 20
268.642021395446
 30
0
 40
4.499999999999965
 50
340.5287793655092
 51
199.4939325091854
  0
ARC
  8
1
 62
7
 10
-67.41972415711882
 20
158.6420213954459
 30
0
 40
4.499999999999998
 50
160.5060674908149
 51
19.47122063449085
  0
ARC
  8
1
 62
7
  6
DASHED
 10
-67.41972415711882
 20
158.6420213954459
 30
0
 40
4.499999999999965
 50
19.47122063449085
 51
160.5060674908149
  0
CIRCLE
  8
1
 62
7
 10
-148.9197241571188
 20
-19.94323201169912
 30
0
 40
2.75
  0
CIRCLE
  8
1
 62
7
 10
-129.9197241571188
 20
-29.94323201169912
 30
0
 40
2.75
  0
CIRCLE
  8
1
 62
7
 10
-139.9197241571188
 20
-29.94323201169912
 30
0
 40
2.75
  0
CIRCLE
  8
1
 62
7
 10
-100.9197241571189
 20
-19.94323201169912
 30
0
 40
2.75
  0
CIRCLE
  8
1
 62
7
 10
-119.9197241571188
 20
-29.94323201169912
 30
0
 40
2.75
  0
CIRCLE
  8
1
 62
7
 10
-109.9197241571188
 20
-29.94323201169912
 30
0
 40
2.75
  0
CIRCLE
  8
1
 62
3
 10
-370.6574917815199
 20
0
 30
0
 40
8.5
  0
CIRCLE
  8
1
 62
7
 10
-370.6574917815199
 20
0
 30
0
 40
10
  0
CIRCLE
  8
1
 62
7
 10
-370.6574917815199
 20
0
 30
0
 40
54
  0
CIRCLE
  8
1
 62
7
 10
-342.0786534566334
 20
-16.50000000000001
 30
0
 40
3.200000000000102
  0
CIRCLE
  8
1
 62
3
 10
-342.0786534566334
 20
-16.50000000000001
 30
0
 40
4
  0
CIRCLE
  8
1
 62
7
 10
-399.2363301064065
 20
-16.5
 30
0
 40
3.199999999999932
  0
CIRCLE
  8
1
 62
3
 10
-399.2363301064065
 20
-16.5
 30
0
 40
4
  0
CIRCLE
  8
1
 62
7
 10
-370.6574917815199
 20
32.99999999999999
 30
0
 40
3.200000000000046
  0
CIRCLE
  8
1
 62
3
 10
-370.6574917815199
 20
32.99999999999999
 30
0
 40
4
  0
CIRCLE
  8
1
 62
7
 10
-370.6574917815199
 20
0
 30
0
 40
25
  0
CIRCLE
  8
1
 62
7
 10
-370.6574917815199
 20
0
 30
0
 40
46.5
  0
CIRCLE
  8
1
 62
7
 10
-370.6574917815199
 20
0
 30
0
 40
56.5
  0
TEXT
  8
1
 62
7
 10
-392.7074917815199
 20
204.269921961532
 30
0
 40
7
  1
DC1803
 41
0.9
  7
SIMPLEX
  0
TEXT
  8
1
 62
7
 10
-392.7074917815199
 20
214.769921961532
 30
0
 40
7
  1
TMP 2.5
 41
0.9
  7
SIMPLEX
  0
TEXT
  8
1
 62
7
 10
-138.0697241571188
 20
-22.44323201169912
 30
0
 40
3.5
  1
CL
 41
0.8910000000000004
  7
SIMPLEX
  0
TEXT
  8
1
 62
7
 10
-118.0697241571188
 20
-22.44323201169912
 30
0
 40
3.5
  1
BR
 41
0.8910000000000004
  7
SIMPLEX
  0
ENDSEC
  0
EOF
