  0
SECTION
  2
HEADER
  9
$ACADVER
  1
AC1009
  9
$INSBASE
 10
0
 20
0
  9
$EXTMIN
 10
-274.3484337880524
 20
-64.37074362997234
  9
$EXTMAX
 10
230.330844650838
 20
147.5061247757719
  9
$LIMMIN
 10
-274.3484337880524
 20
-64.37074362997234
  9
$LIMMAX
 10
230.330844650838
 20
147.5061247757719
  9
$VIEWCTR
 10
10
 20
10
  9
$VIEWSIZE
 40
10
  9
$SNAPMODE
 70
0
  9
$SNAPUNIT
 10
1
 20
1
  9
$SNAPBASE
 10
0
 20
0
  9
$SNAPANG
 50
0
  9
$SNAPSTYLE
 70
0
  9
$SNAPISOPAIR
 70
0
  9
$GRIDMODE
 70
0
  9
$GRIDUNIT
 10
0
 20
0
  9
$ORTHOMODE
 70
0
  9
$REGENMODE
 70
1
  9
$FILLMODE
 70
1
  9
$QTEXTMODE
 70
0
  9
$DRAGMODE
 70
2
  9
$LTSCALE
 40
1
  9
$OSMODE
 70
0
  9
$ATTMODE
 70
1
  9
$TEXTSIZE
 40
3.5
  9
$TRACEWID
 40
0.5
  9
$TEXTSTYLE
  7
STANDARD
  9
$CLAYER
  8
0
  9
$CELTYPE
  6
BYLAYER
  9
$CECOLOR
 62
256
  9
$DIMSCALE
 40
1
  9
$DIMASZ
 40
0.18
  9
$DIMEXO
 40
0.0625
  9
$DIMDLI
 40
0.38
  9
$DIMRND
 40
0
  9
$DIMDLE
 40
0
  9
$DIMEXE
 40
0.18
  9
$DIMTP
 40
0
  9
$DIMTM
 40
0
  9
$DIMTXT
 40
0.18
  9
$DIMCEN
 40
0.09
  9
$DIMTSZ
 40
0
  9
$DIMTOL
 70
0
  9
$DIMLIM
 70
0
  9
$DIMTIH
 70
1
  9
$DIMTOH
 70
1
  9
$DIMSE1
 70
0
  9
$DIMSE2
 70
0
  9
$DIMTAD
 70
0
  9
$DIMZIN
 70
0
  9
$DIMBLK
  1

  9
$DIMASO
 70
1
  9
$DIMSHO
 70
1
  9
$DIMPOST
  1

  9
$DIMAPOST
  1

  9
$DIMALT
 70
0
  9
$DIMALTD
 70
2
  9
$DIMALTF
 40
25.4
  9
$DIMLFAC
 40
1
  9
$DIMTOFL
 70
0
  9
$DIMTVP
 40
0
  9
$DIMTIX
 70
0
  9
$DIMSOXD
 70
0
  9
$DIMSAH
 70
0
  9
$DIMBLK1
  1

  9
$DIMBLK2
  1

  9
$DIMSTYLE
  2
*UNNAMED
  9
$DIMCLRD
 70
0
  9
$DIMCLRE
 70
0
  9
$DIMCLRT
 70
0
  9
$DIMTFAC
 40
1
  9
$DIMGAP
 40
0.09
  9
$LUNITS
 70
2
  9
$LUPREC
 70
4
  9
$AXISMODE
 70
0
  9
$AXISUNIT
 10
0
 20
0
  9
$SKETCHINC
 40
0.1
  9
$FILLETRAD
 40
2
  9
$AUNITS
 70
0
  9
$AUPREC
 70
0
  9
$MENU
  1
ACAD
  9
$ELEVATION
 40
0
  9
$THICKNESS
 40
0
  9
$VIEWDIR
 10
0
 20
0
 30
1
  9
$LIMCHECK
 70
0
  9
$BLIPMODE
 70
1
  9
$CHAMFERA
 40
0
  9
$CHAMFERB
 40
0
  9
$FASTZOOM
 70
1
  9
$SKPOLY
 70
0
  9
$ANGBASE
 50
0
  9
$ANGDIR
 70
0
  9
$PDMODE
 70
0
  9
$PDSIZE
 40
0
  9
$PLINEWID
 40
0
  9
$COORDS
 70
2
  0
ENDSEC
  0
SECTION
  2
TABLES
  0
TABLE
  2
DIMSTYLE
 70
0
  0
ENDTAB
  0
TABLE
  2
LTYPE
 70
9
  0
LTYPE
  2
CONTINUOUS
 70
64
  3
Solid line
 72
65
 73
0
 40
0
  0
LTYPE
  2
BORDER
 70
64
  3
__ __ . __ __ .
 72
65
 73
6
 40
23.24180887547522
 49
6.640516821564347
 49
-3.320258410782174
 49
6.640516821564347
 49
-3.320258410782174
 49
0
 49
-3.320258410782174
  0
LTYPE
  2
CENTER
 70
64
  3
____ _ ____ _
 72
65
 73
4
 40
26.56206728625739
 49
16.60129205391087
 49
-3.320258410782174
 49
3.320258410782174
 49
-3.320258410782174
  0
LTYPE
  2
DASHDOT
 70
64
  3
__ . __ . __ .
 72
65
 73
4
 40
13.28103364312869
 49
6.640516821564347
 49
-3.320258410782174
 49
0
 49
-3.320258410782174
  0
LTYPE
  2
DASHED
 70
64
  3
__ __ __ __ __
 72
65
 73
2
 40
9.960775232346521
 49
6.640516821564347
 49
-3.320258410782174
  0
LTYPE
  2
DIVIDE
 70
64
  3
__ . . __ . . 
 72
65
 73
6
 40
16.60129205391087
 49
6.640516821564347
 49
-3.320258410782174
 49
0
 49
-3.320258410782174
 49
0
 49
-3.320258410782174
  0
LTYPE
  2
DOT
 70
64
  3
..............
 72
65
 73
4
 40
6.640516821564347
 49
0
 49
-3.320258410782174
 49
0
 49
-3.320258410782174
  0
LTYPE
  2
HIDDEN
 70
64
  3
_ _ _ _ _ _ _
 72
65
 73
2
 40
4.98038761617326
 49
3.320258410782174
 49
-1.660129205391087
  0
LTYPE
  2
PHANTOM
 70
64
  3
_____ _ _ _____ _ _ 
 72
65
 73
6
 40
33.20258410782174
 49
16.60129205391087
 49
-3.320258410782174
 49
3.320258410782174
 49
-3.320258410782174
 49
3.320258410782174
 49
-3.320258410782174
  0
ENDTAB
  0
TABLE
  2
LAYER
 70
3
  0
LAYER
  2
1
 70
0
 62
7
  6
CONTINUOUS
  0
LAYER
  2
0
 70
0
 62
7
  6
CONTINUOUS
  0
ENDTAB
  0
TABLE
  2
STYLE
 70
4
  0
STYLE
  2
STANDARD
 70
0
 40
0
 41
1
 50
0
 71
0
 42
3.5
  3
txt
  4

  0
STYLE
  2
SIMPLEX
 70
0
 40
0
 41
1
 50
0
 71
0
 42
3.5
  3
simplex
  4

  0
STYLE
  2
COMPLEX
 70
0
 40
0
 41
1
 50
0
 71
0
 42
3.5
  3
complex
  4

  0
STYLE
  2
ITALIC
 70
0
 40
0
 41
1
 50
0
 71
0
 42
3.5
  3
italic
  4

  0
ENDTAB
  0
TABLE
  2
VIEW
 70
0
  0
ENDTAB
  0
ENDSEC
  0
SECTION
  2
BLOCKS
  0
ENDSEC
  0
SECTION
  2
ENTITIES
  0
LINE
  8
1
 62
3
  6
DASHDOT
 10
185.330844650838
 20
-27.78932791701442
 30
0
 11
191.330844650838
 21
-38.18163276242777
 31
0
  0
LINE
  8
1
 62
3
  6
DASHDOT
 10
162.330844650838
 20
-27.78932791701436
 30
0
 11
156.330844650838
 21
-38.18163276242771
 31
0
  0
LINE
  8
1
 62
3
  6
DASHDOT
 10
150.830844650838
 20
-7.870743629972321
 30
0
 11
138.8308446508379
 21
-7.870743629972316
 31
0
  0
LINE
  8
1
 62
3
  6
DASHDOT
 10
162.330844650838
 20
12.04784065706974
 30
0
 11
156.330844650838
 21
22.44014550248309
 31
0
  0
LINE
  8
1
 62
3
  6
DASHDOT
 10
185.330844650838
 20
12.04784065706977
 30
0
 11
191.3308446508381
 21
22.44014550248309
 31
0
  0
LINE
  8
1
 62
3
  6
DASHDOT
 10
196.830844650838
 20
-7.870743629972337
 30
0
 11
208.8308446508381
 21
-7.870743629972337
 31
0
  0
LINE
  8
1
 62
3
  6
DASHDOT
 10
-224.0984337880524
 20
57.12925637002766
 30
0
 11
-211.5984337880524
 21
57.12925637002766
 31
0
  0
LINE
  8
1
 62
3
  6
DASHDOT
 10
-217.8484337880524
 20
63.37925637002766
 30
0
 11
-217.8484337880524
 21
50.87925637002766
 31
0
  0
LINE
  8
1
 62
3
  6
DASHDOT
 10
-212.8484337880524
 20
-7.870743629972337
 30
0
 11
-222.8484337880524
 21
-7.870743629972337
 31
0
  0
LINE
  8
1
 62
3
  6
DASHDOT
 10
-217.8484337880524
 20
-2.870743629972337
 30
0
 11
-217.8484337880524
 21
-12.87074362997234
 31
0
  0
LINE
  8
1
 62
3
  6
DASHDOT
 10
178.830844650838
 20
-7.870743629972337
 30
0
 11
168.830844650838
 21
-7.870743629972337
 31
0
  0
LINE
  8
1
 62
3
  6
DASHDOT
 10
173.830844650838
 20
-2.870743629972337
 30
0
 11
173.830844650838
 21
-12.87074362997234
 31
0
  0
LINE
  8
1
 62
3
  6
DASHDOT
 10
167.580844650838
 20
57.12925637002766
 30
0
 11
180.080844650838
 21
57.12925637002766
 31
0
  0
LINE
  8
1
 62
3
  6
DASHDOT
 10
173.830844650838
 20
63.37925637002766
 30
0
 11
173.830844650838
 21
50.87925637002766
 31
0
  0
LINE
  8
1
 62
7
 10
-103.3691553491568
 20
9.62925637002763
 30
0
 11
-103.8691553491568
 21
9.62925637002763
 31
0
  0
LINE
  8
1
 62
7
 10
-209.8484337880524
 20
61.12925637002765
 30
0
 11
-209.8484337880524
 21
40.02758619477207
 31
0
  0
LINE
  8
1
 62
7
 10
-223.8484337880524
 20
63.12925637002765
 30
0
 11
-211.8484337880524
 21
63.12925637002765
 31
0
  0
LINE
  8
1
 62
7
 10
-225.8484337880524
 20
61.12925637002765
 30
0
 11
-225.8484337880524
 21
40.02758619477207
 31
0
  0
LINE
  8
1
 62
7
 10
-232.4717098363449
 20
46.70406555536002
 30
0
 11
-238.5149963715427
 21
69.25791794941551
 31
0
  0
LINE
  8
1
 62
7
 10
-215.3484337880524
 20
1.811714735546205
 30
0
 11
-215.3484337880524
 21
4.12925637002767
 31
0
  0
LINE
  8
1
 62
7
 10
-220.3484337880524
 20
1.811714735546205
 30
0
 11
-220.3484337880524
 21
4.12925637002767
 31
0
  0
LINE
  8
1
 62
7
 10
-220.3484337880524
 20
4.12925637002767
 30
0
 11
-215.3484337880524
 21
4.12925637002767
 31
0
  0
LINE
  8
1
 62
7
 10
-230.0425730442635
 20
47.2976618916678
 30
0
 11
-236.1001818058202
 21
69.90496556217182
 31
0
  0
LINE
  8
1
 62
7
 10
-234.8722021757088
 20
46.00356666615521
 30
0
 11
-240.9298109372655
 21
68.61087033665922
 31
0
  0
LINE
  8
1
 62
7
 10
-240.9298109372655
 20
68.61087033665922
 30
0
 11
-236.1001818058202
 21
69.90496556217182
 31
0
  0
LINE
  8
1
 62
7
 10
-239.125233738162
 20
69.09440533983862
 30
0
 11
-239.9060692161963
 21
71.99100964530798
 31
0
  0
LINE
  8
1
 62
7
 10
-239.5981128171462
 20
68.96769777250722
 30
0
 11
-240.3852610119137
 21
71.86261059062592
 31
0
  0
LINE
  8
1
 62
7
 10
-240.0899300463296
 20
68.83591574312381
 30
0
 11
-240.8644528076309
 21
71.73421153594386
 31
0
  0
LINE
  8
1
 62
7
 10
-238.6768377975043
 20
72.32038121125747
 30
0
 11
-237.9047590049236
 21
69.42143055899243
 31
0
  0
LINE
  8
1
 62
7
 10
-238.1976460017871
 20
72.44878026593953
 30
0
 11
-237.4318799259394
 21
69.54813812632382
 31
0
  0
LINE
  8
1
 62
7
 10
-237.7184542060697
 20
72.5771793206216
 30
0
 11
-236.9400626967558
 21
69.67992015570724
 31
0
  0
LINE
  8
1
 62
7
 10
-88.46915534915675
 20
48.62925637002763
 30
0
 11
-88.46915534915675
 21
-64.37074362997234
 31
0
  0
LINE
  8
1
 62
7
 10
-77.20120615672568
 20
48.62925637002762
 30
0
 11
-77.20120615672568
 21
-64.37074362997234
 31
0
  0
LINE
  8
1
 62
7
 10
-75.46915534915678
 20
-61.37074362997234
 30
0
 11
-75.46915534915678
 21
45.62925637002763
 31
0
  0
LINE
  8
1
 62
7
 10
-88.46915534915675
 20
-61.22074362997235
 30
0
 11
-89.66915534915685
 21
-61.22074362997235
 31
0
  0
LINE
  8
1
 62
3
  6
DASHDOT
 10
-104.3691553491568
 20
-7.87074362997238
 30
0
 11
-109.3691553491568
 21
-7.87074362997238
 31
0
  0
LINE
  8
1
 62
7
 10
-89.66915534915685
 20
45.62925637002763
 30
0
 11
-89.66915534915685
 21
45.47925637002766
 31
0
  0
LINE
  8
1
 62
7
 10
-89.66915534915685
 20
45.47925637002766
 30
0
 11
-88.46915534915675
 21
45.47925637002766
 31
0
  0
LINE
  8
1
 62
7
 10
-95.36915534915677
 20
-61.37074362997234
 30
0
 11
-89.66915534915685
 21
-61.37074362997234
 31
0
  0
LINE
  8
1
 62
7
 10
-89.66915534915685
 20
-61.22074362997235
 30
0
 11
-89.66915534915685
 21
-61.37074362997234
 31
0
  0
LINE
  8
1
 62
7
 10
-101.357142458835
 20
63.12925637002763
 30
0
 11
-103.3691553491568
 21
63.12925637002763
 31
0
  0
LINE
  8
1
 62
7
 10
-103.3691553491568
 20
-50.37074362997234
 30
0
 11
-101.3691553491568
 21
-50.37074362997234
 31
0
  0
LINE
  8
1
 62
7
 10
-95.36915534915677
 20
45.62925637002763
 30
0
 11
-89.66915534915685
 21
45.62925637002763
 31
0
  0
LINE
  8
1
 62
7
 10
-88.46915534915675
 20
48.62925637002763
 30
0
 11
-77.20120615672568
 21
48.62925637002762
 31
0
  0
LINE
  8
1
 62
7
 10
-77.20120615672568
 20
48.62925637002762
 30
0
 11
-75.46915534915678
 21
45.62925637002763
 31
0
  0
LINE
  8
1
 62
7
 10
-75.46915534915678
 20
45.62925637002763
 30
0
 11
-74.0691553491568
 21
45.62925637002763
 31
0
  0
LINE
  8
1
 62
7
 10
-74.0691553491568
 20
45.62925637002763
 30
0
 11
-74.0691553491568
 21
-61.37074362997244
 31
0
  0
LINE
  8
1
 62
7
 10
-103.8691553491568
 20
9.62925637002763
 30
0
 11
-104.3691553491568
 21
9.12925637002763
 31
0
  0
LINE
  8
1
 62
7
 10
-103.8691553491568
 20
-25.37074362997237
 30
0
 11
-103.3691553491568
 21
-25.37074362997237
 31
0
  0
LINE
  8
1
 62
7
 10
-104.3691553491568
 20
-24.87074362997237
 30
0
 11
-103.8691553491568
 21
-25.37074362997237
 31
0
  0
LINE
  8
1
 62
7
 10
-74.0691553491568
 20
-61.37074362997244
 30
0
 11
-75.46915534915678
 21
-61.37074362997234
 31
0
  0
LINE
  8
1
 62
7
 10
-75.46915534915678
 20
-61.37074362997234
 30
0
 11
-77.20120615672568
 21
-64.37074362997234
 31
0
  0
LINE
  8
1
 62
7
 10
-77.20120615672568
 20
-64.37074362997234
 30
0
 11
-88.46915534915675
 21
-64.37074362997234
 31
0
  0
LINE
  8
1
 62
7
 10
-103.3691553491568
 20
-50.37074362997234
 30
0
 11
-103.3691553491568
 21
63.12925637002763
 31
0
  0
LINE
  8
1
 62
7
 10
-101.3691553491568
 20
-32.37074362997237
 30
0
 11
-101.3691553491568
 21
-55.37074362997234
 31
0
  0
LINE
  8
1
 62
7
 10
-101.3691553491568
 20
-27.77266741861905
 30
0
 11
-101.3691553491568
 21
-24.72074362997239
 31
0
  0
LINE
  8
1
 62
7
 10
-104.3691553491568
 20
-24.87074362997237
 30
0
 11
-104.3691553491568
 21
9.12925637002763
 31
0
  0
LINE
  8
1
 62
7
 10
-101.3691553491568
 20
-35.37074362997234
 30
0
 11
-101.3691553491568
 21
63.12925637002762
 31
0
  0
LINE
  8
1
 62
7
 10
-93.61915534915677
 20
70.12516424618069
 30
0
 11
-93.61915534915677
 21
45.62925637002763
 31
0
  0
LINE
  8
1
 62
7
 10
-91.11915534915678
 20
70.12516424618069
 30
0
 11
-91.11915534915678
 21
45.62925637002763
 31
0
  0
LINE
  8
1
 62
7
 10
-93.61915534915677
 20
70.12516424618069
 30
0
 11
-91.11915534915678
 21
70.12516424618069
 31
0
  0
LINE
  8
1
 62
7
 10
-92.68160663235116
 20
72.32038121125747
 30
0
 11
-92.68160663235116
 21
70.12516424618069
 31
0
  0
LINE
  8
1
 62
7
 10
-93.05403654504718
 20
72.32038121125747
 30
0
 11
-93.05403654504718
 21
70.12516424618069
 31
0
  0
LINE
  8
1
 62
7
 10
-92.05670406596229
 20
70.12516424618069
 30
0
 11
-92.05670406596229
 21
72.32038121125747
 31
0
  0
LINE
  8
1
 62
7
 10
-91.68427415326639
 20
70.12516424618069
 30
0
 11
-91.68427415326639
 21
72.32038121125747
 31
0
  0
LINE
  8
1
 62
7
 10
194.4974072343284
 20
69.25791794941551
 30
0
 11
188.4541206991304
 21
46.70406555536002
 31
0
  0
LINE
  8
1
 62
7
 10
165.830844650838
 20
48.0600171372477
 30
0
 11
165.830844650838
 21
61.12925637002766
 31
0
  0
LINE
  8
1
 62
7
 10
181.830844650838
 20
48.0600171372477
 30
0
 11
181.830844650838
 21
61.12925637002766
 31
0
  0
LINE
  8
1
 62
7
 10
192.0825926686057
 20
69.90496556217182
 30
0
 11
186.024983907049
 21
47.2976618916678
 31
0
  0
LINE
  8
1
 62
7
 10
196.912221800051
 20
68.61087033665922
 30
0
 11
190.8546130384943
 21
46.00356666615521
 31
0
  0
LINE
  8
1
 62
7
 10
192.0825926686057
 20
69.90496556217182
 30
0
 11
196.912221800051
 21
68.61087033665922
 31
0
  0
LINE
  8
1
 62
7
 10
195.8884800789819
 20
71.99100964530798
 30
0
 11
195.1076446009476
 21
69.09440533983862
 31
0
  0
LINE
  8
1
 62
7
 10
196.3676718746992
 20
71.86261059062592
 30
0
 11
195.5805236799317
 21
68.96769777250722
 31
0
  0
LINE
  8
1
 62
7
 10
196.8468636704165
 20
71.73421153594386
 30
0
 11
196.0723409091152
 21
68.83591574312381
 31
0
  0
LINE
  8
1
 62
7
 10
193.8871698677091
 20
69.42143055899243
 30
0
 11
194.6592486602899
 21
72.32038121125747
 31
0
  0
LINE
  8
1
 62
7
 10
193.4142907887249
 20
69.54813812632382
 30
0
 11
194.1800568645726
 21
72.44878026593953
 31
0
  0
LINE
  8
1
 62
7
 10
192.9224735595415
 20
69.67992015570724
 30
0
 11
193.7008650688553
 21
72.5771793206216
 31
0
  0
LINE
  8
1
 62
7
 10
179.830844650838
 20
63.12925637002766
 30
0
 11
167.830844650838
 21
63.12925637002766
 31
0
  0
LINE
  8
1
 62
7
 10
211.3632853776265
 20
14.95332166536193
 30
0
 11
208.2241234779451
 21
13.14092569755107
 31
0
  0
LINE
  8
1
 62
7
 10
209.2241234779451
 20
11.40887488998218
 30
0
 11
212.3632853776265
 21
13.22127085779302
 31
0
  0
LINE
  8
1
 62
7
 10
205.2554965113483
 20
9.117587042504258
 30
0
 11
202.1163346116669
 21
7.3051910746934
 31
0
  0
LINE
  8
1
 62
7
 10
201.1163346116669
 20
9.03724188226229
 30
0
 11
204.2554965113482
 21
10.84963785007314
 31
0
  0
LINE
  8
1
 62
7
 10
135.2984039240495
 20
13.22127085779302
 30
0
 11
138.4375658237309
 21
11.40887488998219
 31
0
  0
LINE
  8
1
 62
7
 10
139.4375658237309
 20
13.1409256975511
 30
0
 11
136.2984039240495
 21
14.95332166536196
 31
0
  0
LINE
  8
1
 62
7
 10
143.4061927903278
 20
10.84963785007318
 30
0
 11
146.5453546900092
 21
9.037241882262329
 31
0
  0
LINE
  8
1
 62
7
 10
145.5453546900092
 20
7.30519107469343
 30
0
 11
142.4061927903278
 21
9.11758704250428
 31
0
  0
LINE
  8
1
 62
7
 10
174.830844650838
 20
-51.78682341307194
 30
0
 11
174.830844650838
 21
-48.16203147745024
 31
0
  0
LINE
  8
1
 62
7
 10
172.830844650838
 20
-48.16203147745024
 30
0
 11
172.830844650838
 21
-51.78682341307194
 31
0
  0
LINE
  8
1
 62
7
 10
172.830844650838
 20
-43.57945578249445
 30
0
 11
172.830844650838
 21
-39.95466384687275
 31
0
  0
LINE
  8
1
 62
7
 10
174.830844650838
 20
-39.95466384687275
 30
0
 11
174.830844650838
 21
-43.57945578249445
 31
0
  0
LINE
  8
1
 62
7
 10
-66.6691553491568
 20
35.62925637002762
 30
0
 11
-67.1691553491568
 21
35.12925637002762
 31
0
  0
LINE
  8
1
 62
7
 10
-66.6691553491568
 20
35.62925637002762
 30
0
 11
-67.1691553491568
 21
35.12925637002762
 31
0
  0
LINE
  8
1
 62
7
 10
-66.6691553491568
 20
43.62925637002762
 30
0
 11
-67.1691553491568
 21
44.12925637002762
 31
0
  0
LINE
  8
1
 62
7
 10
-66.6691553491568
 20
43.12925637002762
 30
0
 11
-66.6691553491568
 21
43.62925637002762
 31
0
  0
LINE
  8
1
 62
7
 10
-66.6691553491568
 20
43.62925637002762
 30
0
 11
-67.1691553491568
 21
44.12925637002762
 31
0
  0
LINE
  8
1
 62
7
 10
-66.6691553491568
 20
35.62925637002762
 30
0
 11
-66.6691553491568
 21
43.62925637002762
 31
0
  0
LINE
  8
1
 62
7
 10
-68.96915534915681
 20
-60.87074362997244
 30
0
 11
-68.26915534915679
 21
-60.87074362997244
 31
0
  0
LINE
  8
1
 62
7
 10
-68.26915534915679
 20
44.12925637002762
 30
0
 11
-68.26915534915679
 21
35.12925637002762
 31
0
  0
LINE
  8
1
 62
7
 10
-68.96915534915681
 20
44.12925637002762
 30
0
 11
-67.1691553491568
 21
44.12925637002762
 31
0
  0
LINE
  8
1
 62
7
 10
-68.96915534915681
 20
35.12925637002762
 30
0
 11
-67.1691553491568
 21
35.12925637002762
 31
0
  0
LINE
  8
1
 62
7
 10
-69.6691553491568
 20
32.74169193532584
 30
0
 11
-68.96915534915681
 21
30.12925637002762
 31
0
  0
LINE
  8
1
 62
7
 10
-68.96915534915681
 20
32.67062473604915
 30
0
 11
-68.26915534915679
 21
30.12925637002762
 31
0
  0
LINE
  8
1
 62
7
 10
-68.96915534915681
 20
45.12925637002762
 30
0
 11
-68.96915534915681
 21
32.67062473604915
 31
0
  0
LINE
  8
1
 62
7
 10
-69.6691553491568
 20
45.12925637002762
 30
0
 11
-68.96915534915681
 21
45.12925637002762
 31
0
  0
LINE
  8
1
 62
7
 10
-68.96915534915681
 20
30.12925637002762
 30
0
 11
-68.96915534915681
 21
-60.87074362997244
 31
0
  0
LINE
  8
1
 62
7
 10
-69.6691553491568
 20
30.12925637002762
 30
0
 11
-68.96915534915681
 21
30.12925637002762
 31
0
  0
LINE
  8
1
 62
7
 10
-67.26915534915611
 20
-56.37074362997244
 30
0
 11
-67.2691553491569
 21
-35.37074362997244
 31
0
  0
LINE
  8
1
 62
7
 10
-66.26915534915611
 20
-57.37074362997234
 30
0
 11
-61.86915534915407
 21
-57.37074362997234
 31
0
  0
LINE
  8
1
 62
7
 10
-61.36915534915407
 20
-58.37074362997234
 30
0
 11
-55.5691553491534
 21
-58.37074362997224
 31
0
  0
LINE
  8
1
 62
7
 10
-55.0691553491534
 20
-57.87074362997224
 30
0
 11
-55.0691553491534
 21
-57.37074362997224
 31
0
  0
LINE
  8
1
 62
7
 10
-55.0691553491534
 20
-57.37074362997224
 30
0
 11
-53.06915534915352
 21
-57.37074362997224
 31
0
  0
LINE
  8
1
 62
7
 10
-51.06915534915352
 20
-55.37074362997214
 30
0
 11
-51.06915534915432
 21
-34.87484798606489
 31
0
  0
LINE
  8
1
 62
7
 10
-51.56915534915432
 20
-34.37484798606491
 30
0
 11
-52.0691553491544
 21
-34.37484798606491
 31
0
  0
LINE
  8
1
 62
7
 10
-53.0691553491544
 20
-33.37484798606495
 30
0
 11
-53.0691553491544
 21
-33.37184287359835
 31
0
  0
LINE
  8
1
 62
7
 10
-52.0691553491544
 20
-32.37184287359832
 30
0
 11
-51.0691553491544
 21
-32.37184287359832
 31
0
  0
LINE
  8
1
 62
7
 10
-51.0691553491544
 20
-32.37184287359832
 30
0
 11
-51.0691553491546
 21
-28.87074362997222
 31
0
  0
LINE
  8
1
 62
7
 10
-51.0691553491546
 20
-28.87074362997222
 30
0
 11
-50.86915534915461
 21
-28.87074362997222
 31
0
  0
LINE
  8
1
 62
7
 10
-67.26915534915619
 20
-51.87074362997234
 30
0
 11
-68.26915534915671
 21
-51.87074362997234
 31
0
  0
LINE
  8
1
 62
7
 10
-50.8691553491568
 20
25.12925637002776
 30
0
 11
-50.8691553491568
 21
-28.87074362997221
 31
0
  0
LINE
  8
1
 62
7
 10
-66.2691553491569
 20
-34.37074362997237
 30
0
 11
-62.86915534915506
 21
-34.37074362997235
 31
0
  0
LINE
  8
1
 62
7
 10
-60.8691553491575
 20
27.12925637002767
 30
0
 11
-52.8691553491568
 21
27.12925637002777
 31
0
  0
LINE
  8
1
 62
7
 10
-61.8691553491573
 20
22.62925637002765
 30
0
 11
-66.26915534915909
 21
22.62925637002765
 31
0
  0
LINE
  8
1
 62
7
 10
-67.26915534915909
 20
21.62925637002761
 30
0
 11
-67.2691553491585
 21
0.6292563700276483
 31
0
  0
LINE
  8
1
 62
7
 10
-67.26915534915901
 20
17.12925637002765
 30
0
 11
-68.26915534915679
 21
17.12925637002765
 31
0
  0
LINE
  8
1
 62
3
  6
DASHDOT
 10
-50.8691553491568
 20
-7.87074362997238
 30
0
 11
-46.8648274914877
 21
-7.87074362997238
 31
0
  0
LINE
  8
1
 62
7
 10
-68.26915534915679
 20
30.12925637002762
 30
0
 11
-68.26915534915679
 21
-60.87074362997244
 31
0
  0
LINE
  8
1
 62
7
 10
-67.26915534915671
 20
-39.87074362997234
 30
0
 11
-68.26915534915671
 21
-39.87074362997234
 31
0
  0
LINE
  8
1
 62
7
 10
-68.96915534915681
 20
-45.87074362997234
 30
0
 11
-69.6691553491568
 21
-45.87074362997234
 31
0
  0
LINE
  8
1
 62
7
 10
-61.86915534915407
 20
-57.87074362997234
 30
0
 11
-61.86915534915737
 21
26.12925637002763
 31
0
  0
LINE
  8
1
 62
7
 10
-55.0691553491534
 20
-57.87074362997224
 30
0
 11
-55.0691553491534
 21
-57.37074362997224
 31
0
  0
LINE
  8
1
 62
7
 10
-68.26915534915671
 20
5.12925637002765
 30
0
 11
-67.2691553491585
 21
5.12925637002765
 31
0
  0
LINE
  8
1
 62
7
 10
-66.2691553491585
 20
-0.3707436299723517
 30
0
 11
-61.86915534915558
 21
-0.3707436299723517
 31
0
  0
LINE
  8
1
 62
7
 10
-68.26915534915671
 20
-21.37074362997238
 30
0
 11
-61.86915534915558
 21
-21.37074362997238
 31
0
  0
LINE
  8
1
 62
7
 10
-69.6691553491568
 20
45.87925637002762
 30
0
 11
-73.6691553491568
 21
45.87925637002762
 31
0
  0
LINE
  8
1
 62
7
 10
-69.6691553491568
 20
45.87925637002762
 30
0
 11
-69.6691553491568
 21
-61.62074362997238
 31
0
  0
LINE
  8
1
 62
7
 10
-73.6691553491568
 20
45.87925637002762
 30
0
 11
-73.6691553491568
 21
-61.62074362997238
 31
0
  0
LINE
  8
1
 62
7
 10
-69.6691553491568
 20
-61.62074362997238
 30
0
 11
-73.6691553491568
 21
-61.62074362997238
 31
0
  0
LINE
  8
1
 62
3
  6
DASHDOT
 10
-106.3691553491569
 20
57.12925637002763
 30
0
 11
-98.36915534915691
 21
57.12925637002763
 31
0
  0
LINE
  8
1
 62
7
 10
25.9308446508432
 20
-34.87074362997237
 30
0
 11
25.9308446508432
 21
-61.37074362997244
 31
0
  0
LINE
  8
1
 62
7
 10
31.7308446508432
 20
-55.37074362997234
 30
0
 11
31.03084465084319
 21
-55.37074362997234
 31
0
  0
LINE
  8
1
 62
7
 10
31.7308446508433
 20
-39.87074362997234
 30
0
 11
32.7308446508433
 21
-39.87074362997234
 31
0
  0
LINE
  8
1
 62
7
 10
31.7308446508432
 20
-51.87074362997234
 30
0
 11
32.73084465084381
 21
-51.87074362997234
 31
0
  0
LINE
  8
1
 62
7
 10
30.3308446508432
 20
-45.87074362997234
 30
0
 11
30.3308446508432
 21
-61.62074362997238
 31
0
  0
LINE
  8
1
 62
7
 10
31.03084465084319
 20
-45.87074362997234
 30
0
 11
30.3308446508432
 21
-45.87074362997234
 31
0
  0
LINE
  8
1
 62
7
 10
45.1308446508432
 20
-21.37074362997238
 30
0
 11
25.63084465084322
 21
-21.37074362997238
 31
0
  0
LINE
  8
1
 62
7
 10
45.1308446508432
 20
2.12925637002762
 30
0
 11
25.63084465084322
 21
2.12925637002762
 31
0
  0
LINE
  8
1
 62
7
 10
45.1308446508432
 20
5.62925637002762
 30
0
 11
25.63084465084322
 21
5.62925637002762
 31
0
  0
LINE
  8
1
 62
7
 10
33.3308446508432
 20
35.62925637002762
 30
0
 11
32.8308446508432
 21
35.12925637002762
 31
0
  0
LINE
  8
1
 62
7
 10
33.3308446508432
 20
35.62925637002762
 30
0
 11
32.8308446508432
 21
35.12925637002762
 31
0
  0
LINE
  8
1
 62
7
 10
33.3308446508432
 20
43.62925637002762
 30
0
 11
32.8308446508432
 21
44.12925637002762
 31
0
  0
LINE
  8
1
 62
7
 10
33.3308446508432
 20
43.12925637002762
 30
0
 11
33.3308446508432
 21
43.62925637002762
 31
0
  0
LINE
  8
1
 62
7
 10
33.3308446508432
 20
43.62925637002762
 30
0
 11
32.8308446508432
 21
44.12925637002762
 31
0
  0
LINE
  8
1
 62
7
 10
33.3308446508432
 20
35.62925637002762
 30
0
 11
33.3308446508432
 21
43.62925637002762
 31
0
  0
LINE
  8
1
 62
3
  6
DASHDOT
 10
-4.369155349156799
 20
-7.87074362997238
 30
0
 11
-9.369155349156799
 21
-7.87074362997238
 31
0
  0
LINE
  8
1
 62
7
 10
31.03084465084319
 20
-37.87074362997244
 30
0
 11
31.7308446508432
 21
-37.87074362997244
 31
0
  0
LINE
  8
1
 62
7
 10
31.03084465084319
 20
-60.87074362997244
 30
0
 11
31.7308446508432
 21
-60.87074362997244
 31
0
  0
LINE
  8
1
 62
7
 10
31.03084465084331
 20
-34.37074362997239
 30
0
 11
26.3308446508432
 21
-34.37074362997239
 31
0
  0
LINE
  8
1
 62
7
 10
31.03084465084319
 20
-60.87074362997244
 30
0
 11
31.03084465084331
 21
-21.37074362997238
 31
0
  0
LINE
  8
1
 62
7
 10
30.3308446508432
 20
34.12925637002762
 30
0
 11
31.03084465084319
 21
34.12925637002762
 31
0
  0
LINE
  8
1
 62
7
 10
31.7308446508432
 20
30.12925637002762
 30
0
 11
31.7308446508433
 21
5.62925637002762
 31
0
  0
LINE
  8
1
 62
7
 10
31.7308446508432
 20
44.12925637002762
 30
0
 11
31.7308446508432
 21
35.12925637002762
 31
0
  0
LINE
  8
1
 62
7
 10
31.03084465084319
 20
44.12925637002762
 30
0
 11
32.8308446508432
 21
44.12925637002762
 31
0
  0
LINE
  8
1
 62
7
 10
31.03084465084319
 20
35.12925637002762
 30
0
 11
32.8308446508432
 21
35.12925637002762
 31
0
  0
LINE
  8
1
 62
7
 10
30.3308446508432
 20
32.74169193532584
 30
0
 11
31.03084465084319
 21
30.12925637002762
 31
0
  0
LINE
  8
1
 62
7
 10
31.03084465084319
 20
32.67062473604915
 30
0
 11
31.7308446508432
 21
30.12925637002762
 31
0
  0
LINE
  8
1
 62
7
 10
31.03084465084319
 20
45.12925637002762
 30
0
 11
31.03084465084319
 21
32.67062473604915
 31
0
  0
LINE
  8
1
 62
7
 10
30.3308446508432
 20
45.12925637002762
 30
0
 11
31.03084465084319
 21
45.12925637002762
 31
0
  0
LINE
  8
1
 62
7
 10
26.3308446508432
 20
18.62925637002762
 30
0
 11
31.03084465084331
 21
18.62925637002762
 31
0
  0
LINE
  8
1
 62
7
 10
31.03084465084319
 20
30.12925637002762
 30
0
 11
31.03084465084331
 21
5.62925637002762
 31
0
  0
LINE
  8
1
 62
7
 10
30.3308446508432
 20
30.12925637002762
 30
0
 11
31.03084465084319
 21
30.12925637002762
 31
0
  0
LINE
  8
1
 62
7
 10
-1.369155349156799
 20
63.12925637002763
 30
0
 11
-1.369155349156799
 21
8.97925637002766
 31
0
  0
LINE
  8
1
 62
7
 10
10.1308446508432
 20
19.62925637002763
 30
0
 11
19.3308446508432
 21
19.62925637002763
 31
0
  0
LINE
  8
1
 62
7
 10
19.3308446508432
 20
19.62925637002763
 30
0
 11
19.3308446508432
 21
45.27925637002766
 31
0
  0
LINE
  8
1
 62
7
 10
10.1308446508432
 20
-35.37074362997234
 30
0
 11
19.3308446508432
 21
-35.37074362997234
 31
0
  0
LINE
  8
1
 62
7
 10
10.3308446508432
 20
45.62925637002763
 30
0
 11
10.3308446508432
 21
45.27925637002766
 31
0
  0
LINE
  8
1
 62
7
 10
10.3308446508432
 20
45.27925637002766
 30
0
 11
19.3308446508432
 21
45.27925637002766
 31
0
  0
LINE
  8
1
 62
7
 10
19.3308446508432
 20
-61.02074362997234
 30
0
 11
10.3308446508432
 21
-61.02074362997234
 31
0
  0
LINE
  8
1
 62
7
 10
4.630844650843201
 20
-61.37074362997234
 30
0
 11
10.3308446508432
 21
-61.37074362997234
 31
0
  0
LINE
  8
1
 62
7
 10
10.3308446508432
 20
-61.02074362997234
 30
0
 11
10.3308446508432
 21
-61.37074362997234
 31
0
  0
LINE
  8
1
 62
7
 10
-1.369155349156799
 20
63.12925637002763
 30
0
 11
-3.369155349156799
 21
63.12925637002763
 31
0
  0
LINE
  8
1
 62
7
 10
-3.369155349156799
 20
53.87925637002763
 30
0
 11
-1.361870936940406
 21
53.87925637002763
 31
0
  0
LINE
  8
1
 62
7
 10
-3.369155349156799
 20
60.37925637002763
 30
0
 11
-1.358548222596014
 21
60.37925637002763
 31
0
  0
LINE
  8
1
 62
7
 10
-3.369155349156799
 20
-50.37074362997234
 30
0
 11
-3.369155349156799
 21
-32.37074362997237
 31
0
  0
LINE
  8
1
 62
7
 10
-3.369155349156799
 20
16.62925637002763
 30
0
 11
-1.369155349156912
 21
16.62925637002762
 31
0
  0
LINE
  8
1
 62
7
 10
-3.369155349156799
 20
-32.37074362997237
 30
0
 11
-1.369155349156799
 21
-32.37074362997237
 31
0
  0
LINE
  8
1
 62
7
 10
-3.369155349156799
 20
-50.37074362997234
 30
0
 11
-1.369155349156799
 21
-50.37074362997234
 31
0
  0
LINE
  8
1
 62
7
 10
4.630844650843201
 20
45.62925637002763
 30
0
 11
10.3308446508432
 21
45.62925637002763
 31
0
  0
LINE
  8
1
 62
7
 10
8.630844650843201
 20
9.62925637002763
 30
0
 11
-1.369155349156799
 21
9.62925637002763
 31
0
  0
LINE
  8
1
 62
7
 10
8.630844650843201
 20
12.62925637002763
 30
0
 11
11.53084465084319
 21
12.62925637002763
 31
0
  0
LINE
  8
1
 62
7
 10
11.53084465084319
 20
12.62925637002763
 30
0
 11
11.53084465084319
 21
18.62925637002768
 31
0
  0
LINE
  8
1
 62
7
 10
11.53084465084319
 20
18.62925637002768
 30
0
 11
21.03084465084319
 21
18.62925637002768
 31
0
  0
LINE
  8
1
 62
7
 10
21.03084465084319
 20
18.62925637002768
 30
0
 11
21.03084465084319
 21
46.27925637002767
 31
0
  0
LINE
  8
1
 62
7
 10
21.03084465084319
 20
46.27925637002767
 30
0
 11
11.53084465084319
 21
46.27925637002767
 31
0
  0
LINE
  8
1
 62
7
 10
11.53084465084319
 20
46.27925637002767
 30
0
 11
11.53084465084319
 21
48.62925637002763
 31
0
  0
LINE
  8
1
 62
7
 10
11.53084465084319
 20
48.62925637002763
 30
0
 11
22.7987938432743
 21
48.62925637002762
 31
0
  0
LINE
  8
1
 62
7
 10
22.7987938432743
 20
48.62925637002762
 30
0
 11
24.53084465084319
 21
45.62925637002763
 31
0
  0
LINE
  8
1
 62
7
 10
24.53084465084319
 20
45.62925637002763
 30
0
 11
25.9308446508432
 21
45.62925637002763
 31
0
  0
LINE
  8
1
 62
7
 10
25.9308446508432
 20
45.62925637002763
 30
0
 11
25.9308446508432
 21
19.12925637002763
 31
0
  0
LINE
  8
1
 62
7
 10
25.9308446508432
 20
19.12925637002763
 30
0
 11
24.53084465084319
 21
19.12925637002763
 31
0
  0
LINE
  8
1
 62
7
 10
24.53084465084319
 20
19.12925637002763
 30
0
 11
24.53084465084319
 21
15.62925637002763
 31
0
  0
LINE
  8
1
 62
7
 10
-3.869155349156799
 20
9.62925637002763
 30
0
 11
-4.369155349156799
 21
9.12925637002763
 31
0
  0
LINE
  8
1
 62
7
 10
-2.469155349156821
 20
8.97925637002766
 30
0
 11
-1.369155349156799
 21
8.97925637002766
 31
0
  0
LINE
  8
1
 62
7
 10
-2.469155349156821
 20
9.62925637002763
 30
0
 11
-3.869155349156799
 21
9.62925637002763
 31
0
  0
LINE
  8
1
 62
7
 10
5.130844650843201
 20
17.22733258138095
 30
0
 11
8.630844650843201
 21
17.22733258138095
 31
0
  0
LINE
  8
1
 62
7
 10
2.130844650843201
 20
17.22733258138095
 30
0
 11
-1.369155349156799
 21
17.22733258138095
 31
0
  0
LINE
  8
1
 62
7
 10
5.130844650843201
 20
12.03118015867432
 30
0
 11
8.630844650843201
 21
12.03118015867432
 31
0
  0
LINE
  8
1
 62
7
 10
-1.369155349156912
 20
19.62925637002763
 30
0
 11
8.630844650843201
 21
19.62925637002763
 31
0
  0
LINE
  8
1
 62
7
 10
-0.1691553491567959
 20
9.62925637002763
 30
0
 11
8.630844650843201
 21
9.62925637002763
 31
0
  0
LINE
  8
1
 62
7
 10
7.630844650843201
 20
11.62925637002763
 30
0
 11
7.630844650843201
 21
17.62925637002763
 31
0
  0
LINE
  8
1
 62
7
 10
-0.3691553491567987
 20
11.62925637002763
 30
0
 11
-0.3691553491567987
 21
17.62925637002763
 31
0
  0
LINE
  8
1
 62
7
 10
-0.3691553491567987
 20
-33.37074362997237
 30
0
 11
-0.3691553491567987
 21
-27.37074362997237
 31
0
  0
LINE
  8
1
 62
7
 10
7.630844650843201
 20
-33.37074362997237
 30
0
 11
7.630844650843201
 21
-27.37074362997237
 31
0
  0
LINE
  8
1
 62
7
 10
8.630844650843201
 20
-35.37074362997234
 30
0
 11
-1.369155349156799
 21
-35.37074362997234
 31
0
  0
LINE
  8
1
 62
7
 10
8.630844650843201
 20
-27.77266741861905
 30
0
 11
5.130844650843201
 21
-27.77266741861905
 31
0
  0
LINE
  8
1
 62
7
 10
-1.369155349156799
 20
-32.96881984132568
 30
0
 11
2.130844650843201
 21
-32.96881984132568
 31
0
  0
LINE
  8
1
 62
7
 10
8.630844650843201
 20
-32.96881984132568
 30
0
 11
5.130844650843201
 21
-32.96881984132568
 31
0
  0
LINE
  8
1
 62
7
 10
-3.869155349156799
 20
-25.37074362997237
 30
0
 11
-2.469155349156821
 21
-25.37074362997237
 31
0
  0
LINE
  8
1
 62
7
 10
-4.369155349156799
 20
-24.87074362997237
 30
0
 11
-3.869155349156799
 21
-25.37074362997237
 31
0
  0
LINE
  8
1
 62
7
 10
25.63084465084322
 20
-31.37074362997237
 30
0
 11
24.53084465084319
 21
-31.37074362997237
 31
0
  0
LINE
  8
1
 62
7
 10
24.53084465084319
 20
-31.37074362997237
 30
0
 11
24.53084465084319
 21
-34.87074362997237
 31
0
  0
LINE
  8
1
 62
7
 10
24.53084465084319
 20
-34.87074362997237
 30
0
 11
25.9308446508432
 21
-34.87074362997237
 31
0
  0
LINE
  8
1
 62
7
 10
25.9308446508432
 20
-61.37074362997244
 30
0
 11
24.53084465084319
 21
-61.37074362997234
 31
0
  0
LINE
  8
1
 62
7
 10
24.53084465084319
 20
-61.37074362997234
 30
0
 11
22.7987938432743
 21
-64.37074362997234
 31
0
  0
LINE
  8
1
 62
7
 10
22.7987938432743
 20
-64.37074362997234
 30
0
 11
11.53084465084319
 21
-64.37074362997234
 31
0
  0
LINE
  8
1
 62
7
 10
11.53084465084319
 20
-64.37074362997234
 30
0
 11
11.53084465084319
 21
-62.02074362997234
 31
0
  0
LINE
  8
1
 62
7
 10
11.53084465084319
 20
-62.02074362997234
 30
0
 11
21.03084465084319
 21
-62.02074362997234
 31
0
  0
LINE
  8
1
 62
7
 10
21.03084465084319
 20
-34.37074362997244
 30
0
 11
11.53084465084319
 21
-34.37074362997244
 31
0
  0
LINE
  8
1
 62
7
 10
11.53084465084319
 20
-34.37074362997244
 30
0
 11
11.53084465084319
 21
-28.37074362997237
 31
0
  0
LINE
  8
1
 62
7
 10
11.53084465084319
 20
-28.37074362997237
 30
0
 11
8.630844650843201
 21
-28.37074362997237
 31
0
  0
LINE
  8
1
 62
7
 10
8.630844650843201
 20
-25.37074362997237
 30
0
 11
-1.369155349156799
 21
-25.37074362997237
 31
0
  0
LINE
  8
1
 62
7
 10
19.3308446508432
 20
-35.37074362997234
 30
0
 11
19.3308446508432
 21
-61.02074362997234
 31
0
  0
LINE
  8
1
 62
7
 10
-3.369155349156799
 20
16.62925637002763
 30
0
 11
-3.369155349156799
 21
63.12925637002763
 31
0
  0
LINE
  8
1
 62
7
 10
8.630844650843201
 20
21.12925637002763
 30
0
 11
8.630844650843201
 21
9.62925637002763
 31
0
  0
LINE
  8
1
 62
7
 10
8.630844650843201
 20
-36.87074362997234
 30
0
 11
10.1308446508432
 21
-36.87074362997234
 31
0
  0
LINE
  8
1
 62
7
 10
8.630844650843201
 20
16.0292563700276
 30
0
 11
10.1308446508432
 21
16.0292563700276
 31
0
  0
LINE
  8
1
 62
7
 10
8.630844650843201
 20
-30.37074362997237
 30
0
 11
10.1308446508432
 21
-30.37074362997237
 31
0
  0
LINE
  8
1
 62
7
 10
8.630844650843201
 20
-25.37074362997237
 30
0
 11
8.630844650843201
 21
-36.87074362997234
 31
0
  0
LINE
  8
1
 62
7
 10
10.1308446508432
 20
21.12925637002763
 30
0
 11
10.1308446508432
 21
16.0292563700276
 31
0
  0
LINE
  8
1
 62
7
 10
10.1308446508432
 20
21.12925637002763
 30
0
 11
8.630844650843201
 21
21.12925637002763
 31
0
  0
LINE
  8
1
 62
7
 10
10.1308446508432
 20
-30.37074362997237
 30
0
 11
10.1308446508432
 21
-36.87074362997234
 31
0
  0
LINE
  8
1
 62
7
 10
-1.369155349156799
 20
-24.72074362997239
 30
0
 11
-2.469155349156821
 21
-24.72074362997239
 31
0
  0
LINE
  8
1
 62
7
 10
-1.369155349156799
 20
-24.72074362997239
 30
0
 11
-1.369155349156799
 21
-55.37074362997234
 31
0
  0
LINE
  8
1
 62
7
 10
-4.369155349156799
 20
4.129256370027631
 30
0
 11
25.63084465084322
 21
4.129256370027631
 31
0
  0
LINE
  8
1
 62
7
 10
-4.369155349156799
 20
1.811714735546155
 30
0
 11
25.63084465084322
 21
1.811714735546155
 31
0
  0
LINE
  8
1
 62
7
 10
-4.369155349156799
 20
-17.87074362997237
 30
0
 11
45.13084465084319
 21
-17.87074362997237
 31
0
  0
LINE
  8
1
 62
7
 10
-4.369155349156799
 20
-24.87074362997237
 30
0
 11
-4.369155349156799
 21
9.12925637002763
 31
0
  0
LINE
  8
1
 62
7
 10
25.63084465084322
 20
15.62925637002763
 30
0
 11
25.63084465084322
 21
-31.37074362997237
 31
0
  0
LINE
  8
1
 62
7
 10
2.130844650843201
 20
12.03118015867432
 30
0
 11
-2.469155349156821
 21
12.03118015867432
 31
0
  0
LINE
  8
1
 62
7
 10
-2.469155349156821
 20
12.03118015867432
 30
0
 11
-2.469155349156821
 21
8.97925637002766
 31
0
  0
LINE
  8
1
 62
7
 10
2.130844650843201
 20
-27.77266741861905
 30
0
 11
-2.469155349156821
 21
-27.77266741861905
 31
0
  0
LINE
  8
1
 62
7
 10
-2.469155349156821
 20
-27.77266741861905
 30
0
 11
-2.469155349156821
 21
-24.72074362997239
 31
0
  0
LINE
  8
1
 62
7
 10
21.03084465084319
 20
-34.37074362997244
 30
0
 11
21.03084465084319
 21
-62.02074362997234
 31
0
  0
LINE
  8
1
 62
7
 10
24.53084465084319
 20
15.62925637002763
 30
0
 11
25.63084465084322
 21
15.62925637002763
 31
0
  0
LINE
  8
1
 62
7
 10
6.380844650843201
 20
70.12516424618069
 30
0
 11
6.380844650843201
 21
45.62925637002763
 31
0
  0
LINE
  8
1
 62
7
 10
8.880844650843201
 20
70.12516424618069
 30
0
 11
8.880844650843201
 21
45.62925637002763
 31
0
  0
LINE
  8
1
 62
7
 10
6.380844650843201
 20
70.12516424618069
 30
0
 11
8.880844650843201
 21
70.12516424618069
 31
0
  0
LINE
  8
1
 62
7
 10
7.318393367648682
 20
72.32038121125747
 30
0
 11
7.318393367648682
 21
70.12516424618069
 31
0
  0
LINE
  8
1
 62
7
 10
6.945963454952775
 20
72.32038121125747
 30
0
 11
6.945963454952775
 21
70.12516424618069
 31
0
  0
LINE
  8
1
 62
7
 10
7.943295934037693
 20
70.12516424618069
 30
0
 11
7.943295934037693
 21
72.32038121125747
 31
0
  0
LINE
  8
1
 62
7
 10
8.315725846733614
 20
70.12516424618069
 30
0
 11
8.315725846733614
 21
72.32038121125747
 31
0
  0
LINE
  8
1
 62
7
 10
32.73084465084401
 20
-56.37074362997244
 30
0
 11
32.7308446508431
 21
-35.37074362997244
 31
0
  0
LINE
  8
1
 62
7
 10
33.73084465084401
 20
-57.37074362997234
 30
0
 11
38.1308446508459
 21
-57.37074362997234
 31
0
  0
LINE
  8
1
 62
7
 10
38.1308446508459
 20
-57.37074362997234
 30
0
 11
38.1308446508459
 21
-57.87074362997234
 31
0
  0
LINE
  8
1
 62
7
 10
38.6308446508459
 20
-58.37074362997234
 30
0
 11
44.43084465084662
 21
-58.37074362997223
 31
0
  0
LINE
  8
1
 62
7
 10
44.93084465084662
 20
-57.87074362997224
 30
0
 11
44.93084465084662
 21
-57.37074362997224
 31
0
  0
LINE
  8
1
 62
7
 10
44.93084465084662
 20
-57.37074362997224
 30
0
 11
46.93084465084652
 21
-57.37074362997224
 31
0
  0
LINE
  8
1
 62
7
 10
48.93084465084652
 20
-55.37074362997214
 30
0
 11
48.93084465084571
 21
-34.87484798606489
 31
0
  0
LINE
  8
1
 62
7
 10
48.43084465084571
 20
-34.37484798606491
 30
0
 11
47.93084465084561
 21
-34.37484798606491
 31
0
  0
LINE
  8
1
 62
7
 10
46.93084465084561
 20
-33.37484798606495
 30
0
 11
46.93084465084561
 21
-33.37184287359835
 31
0
  0
LINE
  8
1
 62
7
 10
47.93084465084561
 20
-32.37184287359832
 30
0
 11
48.93084465084561
 21
-32.37184287359832
 31
0
  0
LINE
  8
1
 62
7
 10
48.93084465084561
 20
-32.37184287359832
 30
0
 11
48.9308446508455
 21
-28.87074362997222
 31
0
  0
LINE
  8
1
 62
7
 10
49.1308446508432
 20
25.12925637002776
 30
0
 11
49.1308446508432
 21
-28.87074362997221
 31
0
  0
LINE
  8
1
 62
7
 10
33.7308446508431
 20
-34.37074362997237
 30
0
 11
37.13084465084499
 21
-34.37074362997235
 31
0
  0
LINE
  8
1
 62
7
 10
38.13084465084489
 20
-33.37074362997231
 30
0
 11
38.1308446508445
 21
-21.37074362997238
 31
0
  0
LINE
  8
1
 62
7
 10
39.13084465084261
 20
27.12925637002767
 30
0
 11
47.1308446508432
 21
27.12925637002776
 31
0
  0
LINE
  8
1
 62
7
 10
38.1308446508427
 20
22.62925637002765
 30
0
 11
33.73084465084089
 21
22.62925637002765
 31
0
  0
LINE
  8
1
 62
7
 10
32.73084465084089
 20
21.62925637002761
 30
0
 11
32.73084465084151
 21
5.62925637002762
 31
0
  0
LINE
  8
1
 62
7
 10
32.73084465084099
 20
17.12925637002765
 30
0
 11
31.7308446508432
 21
17.12925637002765
 31
0
  0
LINE
  8
1
 62
3
  6
DASHDOT
 10
49.1308446508432
 20
-7.87074362997238
 30
0
 11
54.1308446508432
 21
-7.87074362997238
 31
0
  0
LINE
  8
1
 62
3
 10
49.1308446508432
 20
18.12925637002762
 30
0
 11
38.1308446508428
 21
18.12925637002762
 31
0
  0
LINE
  8
1
 62
3
 10
38.1308446508428
 20
24.12925637002762
 30
0
 11
49.1308446508432
 21
24.12925637002762
 31
0
  0
LINE
  8
1
 62
7
 10
49.1308446508432
 20
18.72925637002761
 30
0
 11
38.1308446508428
 21
18.72925637002761
 31
0
  0
LINE
  8
1
 62
7
 10
38.1308446508428
 20
23.52925637002762
 30
0
 11
49.1308446508432
 21
23.52925637002762
 31
0
  0
LINE
  8
1
 62
3
  6
DASHDOT
 10
52.1308446508432
 20
21.12925637002762
 30
0
 11
35.13084465084279
 21
21.12925637002762
 31
0
  0
LINE
  8
1
 62
7
 10
49.1308446508432
 20
13.12925637002762
 30
0
 11
45.1308446508432
 21
13.12925637002762
 31
0
  0
LINE
  8
1
 62
7
 10
45.1308446508432
 20
9.629256370027619
 30
0
 11
38.1308446508432
 21
9.629256370027619
 31
0
  0
LINE
  8
1
 62
7
 10
45.1308446508432
 20
13.12925637002762
 30
0
 11
45.1308446508432
 21
-28.87074362997238
 31
0
  0
LINE
  8
1
 62
7
 10
45.1308446508432
 20
-28.87074362997238
 30
0
 11
49.1308446508455
 21
-28.87074362997222
 31
0
  0
LINE
  8
1
 62
7
 10
45.1308446508432
 20
-25.37074362997238
 30
0
 11
38.13084465084459
 21
-25.37074362997238
 31
0
  0
LINE
  8
1
 62
7
 10
38.1308446508434
 20
5.62925637002762
 30
0
 11
38.13084465084261
 21
26.12925637002763
 31
0
  0
LINE
  8
1
 62
7
 10
31.7308446508433
 20
-21.37074362997238
 30
0
 11
31.7308446508432
 21
-60.87074362997244
 31
0
  0
LINE
  8
1
 62
7
 10
26.3308446508432
 20
-21.37074362997238
 30
0
 11
26.3308446508432
 21
-61.62074362997239
 31
0
  0
LINE
  8
1
 62
7
 10
30.3308446508432
 20
-61.62074362997238
 30
0
 11
26.3308446508432
 21
-61.62074362997239
 31
0
  0
LINE
  8
1
 62
7
 10
30.3308446508432
 20
45.87925637002762
 30
0
 11
26.3308446508432
 21
45.87925637002762
 31
0
  0
LINE
  8
1
 62
7
 10
30.3308446508432
 20
45.87925637002762
 30
0
 11
30.3308446508432
 21
30.12925637002762
 31
0
  0
LINE
  8
1
 62
7
 10
26.3308446508432
 20
45.87925637002762
 30
0
 11
26.3308446508432
 21
5.62925637002762
 31
0
  0
LINE
  8
1
 62
3
  6
DASHDOT
 10
-6.369155349156912
 20
57.12925637002763
 30
0
 11
1.630844650843088
 21
57.12925637002763
 31
0
  0
ARC
  8
1
 62
3
  6
DASHDOT
 10
173.830844650838
 20
-7.870743629972337
 30
0
 40
28.99999999999996
 50
284.9999999999998
 51
314.9999999999999
  0
ARC
  8
1
 62
3
  6
DASHDOT
 10
173.830844650838
 20
-7.870743629972337
 30
0
 40
28.99999999999998
 50
224.9999999999999
 51
255
  0
ARC
  8
1
 62
3
  6
DASHDOT
 10
173.830844650838
 20
-7.870743629972337
 30
0
 40
29.00000000000002
 50
165
 51
194.9999999999999
  0
ARC
  8
1
 62
3
  6
DASHDOT
 10
173.830844650838
 20
-7.870743629972337
 30
0
 40
29.00000000000002
 50
105
 51
135
  0
ARC
  8
1
 62
3
  6
DASHDOT
 10
173.830844650838
 20
-7.870743629972337
 30
0
 40
29.00000000000002
 50
44.99999999999996
 51
75.00000000000001
  0
ARC
  8
1
 62
3
  6
DASHDOT
 10
173.830844650838
 20
-7.870743629972337
 30
0
 40
29.00000000000002
 50
345
 51
14.99999999999999
  0
ARC
  8
1
 62
7
 10
173.8308446508381
 20
-7.870743629969572
 30
0
 40
38.00000000000003
 50
292.0158443336128
 51
7.984155666385565
  0
ARC
  8
1
 62
7
 10
-217.8484337880524
 20
-7.870743629972337
 30
0
 40
42.49999999999997
 50
108.4714263052564
 51
71.52857369474357
  0
ARC
  8
1
 62
7
 10
-217.8484337880524
 20
-7.870743629972337
 30
0
 40
9.999999999999998
 50
104.4775121859299
 51
75.52248781407008
  0
ARC
  8
1
 62
7
 10
-217.8484337880524
 20
-7.870743629972337
 30
0
 40
56.5
 50
98.14003217542533
 51
81.85996782457465
  0
ARC
  8
1
 62
7
 10
179.830844650838
 20
61.12925637002766
 30
0
 40
2
 50
0
 51
90
  0
ARC
  8
1
 62
7
 10
167.830844650838
 20
61.12925637002766
 30
0
 40
2
 50
90
 51
180
  0
ARC
  8
1
 62
7
 10
187.8308446508379
 20
-32.1194549359366
 30
0
 40
24.99999999999995
 50
256.9521670332324
 51
299.9999999999998
  0
ARC
  8
1
 62
7
 10
190.4645613050183
 20
-31.62615291435307
 30
0
 40
12.99999999999993
 50
257.6392844908666
 51
304.9999999999996
  0
ARC
  8
1
 62
7
 10
173.830844650838
 20
-7.870743629972337
 30
0
 40
53.0000000000001
 50
180
 51
240
  0
ARC
  8
1
 62
7
 10
145.830844650838
 20
-7.870743629972352
 30
0
 40
25.00000000000009
 50
136.9521670332319
 51
180
  0
ARC
  8
1
 62
7
 10
173.830844650838
 20
-7.870743629972337
 30
0
 40
42.0000000000001
 50
185
 51
234.9999999999999
  0
ARC
  8
1
 62
7
 10
144.9411984061774
 20
-10.39826016965444
 30
0
 40
13.00000000000009
 50
137.6392844908664
 51
184.9999999999999
  0
ARC
  8
1
 62
7
 10
173.830844650838
 20
-7.870743629972337
 30
0
 40
52.99999999999989
 50
299.9999999999998
 51
359.9999999999999
  0
ARC
  8
1
 62
7
 10
173.830844650838
 20
-7.870743629972337
 30
0
 40
41.99999999999994
 50
304.9999999999999
 51
354.9999999999999
  0
ARC
  8
1
 62
7
 10
186.0867742413183
 20
18.41218219409052
 30
0
 40
13.00000000000004
 50
17.63928449086626
 51
64.99999999999996
  0
ARC
  8
1
 62
7
 10
173.830844650838
 20
-7.870743629972337
 30
0
 40
42.00000000000005
 50
64.99999999999997
 51
115
  0
ARC
  8
1
 62
7
 10
187.830844650838
 20
16.37796767599195
 30
0
 40
24.99999999999997
 50
16.95216703323218
 51
59.99999999999999
  0
ARC
  8
1
 62
7
 10
173.830844650838
 20
-7.870743629972337
 30
0
 40
53
 50
59.99999999999999
 51
120
  0
ARC
  8
1
 62
7
 10
206.7398099946467
 20
11.12925637002762
 30
0
 40
13.50000000000004
 50
55.7649572448521
 51
116.6055013110854
  0
ARC
  8
1
 62
7
 10
206.7398099946467
 20
11.12925637002762
 30
0
 40
13.50000000000007
 50
161.5644067938444
 51
258.4355932061555
  0
ARC
  8
1
 62
7
 10
140.9218793070293
 20
11.12925637002765
 30
0
 40
13.49999999999998
 50
175.764957244852
 51
236.6055013110856
  0
ARC
  8
1
 62
7
 10
140.9218793070293
 20
11.12925637002765
 30
0
 40
13.49999999999998
 50
281.5644067938446
 51
18.43559320615547
  0
ARC
  8
1
 62
7
 10
173.830844650838
 20
-45.87074362997234
 30
0
 40
13.49999999999999
 50
295.764957244852
 51
356.6055013110849
  0
ARC
  8
1
 62
7
 10
173.830844650838
 20
-45.87074362997234
 30
0
 40
13.49999999999998
 50
41.56440679384477
 51
138.4355932061554
  0
ARC
  8
1
 62
7
 10
206.7398099946467
 20
11.12925637002762
 30
0
 40
13.49999999999996
 50
303.3944986889151
 51
4.235042755148173
  0
ARC
  8
1
 62
7
 10
173.830844650838
 20
-7.870743629972337
 30
0
 40
50.50000000000003
 50
23.32705882421869
 51
36.6729411757813
  0
ARC
  8
1
 62
7
 10
173.830844650838
 20
-45.87074362997234
 30
0
 40
13.50000000000005
 50
183.3944986889147
 51
244.2350427551476
  0
ARC
  8
1
 62
7
 10
173.830844650838
 20
-7.870743629972337
 30
0
 40
50.50000000000002
 50
263.3270588242186
 51
276.6729411757813
  0
ARC
  8
1
 62
7
 10
140.9218793070293
 20
11.12925637002765
 30
0
 40
13.50000000000006
 50
63.3944986889147
 51
124.2350427551477
  0
ARC
  8
1
 62
7
 10
173.830844650838
 20
-7.870743629972337
 30
0
 40
50.50000000000011
 50
143.3270588242186
 51
156.6729411757814
  0
ARC
  8
1
 62
7
 10
201.830844650838
 20
-7.870743629972366
 30
0
 40
25.00000000000009
 50
359.9999999999997
 51
43.04783296676789
  0
ARC
  8
1
 62
7
 10
202.7204908954986
 20
-10.39826016965444
 30
0
 40
13
 50
354.9999999999997
 51
42.36071550913344
  0
ARC
  8
1
 62
7
 10
159.8308446508379
 20
-32.11945493593657
 30
0
 40
25.00000000000001
 50
240.0000000000003
 51
283.0478329667681
  0
ARC
  8
1
 62
7
 10
157.1971279966576
 20
-31.62615291435313
 30
0
 40
12.99999999999997
 50
234.9999999999999
 51
282.3607155091339
  0
ARC
  8
1
 62
7
 10
173.830844650838
 20
-7.870743629972337
 30
0
 40
38.00000000000003
 50
172.0158443336108
 51
247.9841556663892
  0
ARC
  8
1
 62
7
 10
173.830844650838
 20
-7.870743629972337
 30
0
 40
38.00000000000004
 50
52.01584433361083
 51
127.984155666389
  0
ARC
  8
1
 62
7
 10
161.5749150603577
 20
18.4121821940905
 30
0
 40
13.00000000000002
 50
115.0000000000001
 51
162.3607155091334
  0
ARC
  8
1
 62
7
 10
159.830844650838
 20
16.37796767599199
 30
0
 40
24.99999999999996
 50
120
 51
163.0478329667679
  0
ARC
  8
1
 62
7
 10
-201.8484337880524
 20
40.02758619477207
 30
0
 40
8
 50
180
 51
251.528573694743
  0
ARC
  8
1
 62
7
 10
-233.8484337880524
 20
40.02758619477207
 30
0
 40
8.000000000000021
 50
288.471426305257
 51
0
  0
ARC
  8
1
 62
7
 10
-211.8484337880524
 20
61.12925637002765
 30
0
 40
2
 50
0
 51
90
  0
ARC
  8
1
 62
7
 10
-223.8484337880524
 20
61.12925637002765
 30
0
 40
2
 50
90
 51
180
  0
ARC
  8
1
 62
7
 10
-95.36915534915677
 20
-55.37074362997234
 30
0
 40
6.000000000000028
 50
180
 51
270
  0
ARC
  8
1
 62
7
 10
-95.36915534915677
 20
39.62925637002763
 30
0
 40
6
 50
90
 51
180
  0
ARC
  8
1
 62
7
 10
188.2405550353878
 20
17.29590586163457
 30
0
 40
5.999999999999945
 50
341.5644067938445
 51
60.20577031500737
  0
ARC
  8
1
 62
7
 10
202.9075002295732
 20
-7.912182073012497
 30
0
 40
5.923489366706982
 50
359.1849713711818
 51
79.04218592745635
  0
ARC
  8
1
 62
7
 10
195.319764053197
 20
33.92909300749457
 30
0
 40
12.00000000000006
 50
242.7927123639787
 51
296.6055013110847
  0
ARC
  8
1
 62
7
 10
220.7750247541033
 20
-10.16071184638659
 30
0
 40
11.99999999999996
 50
123.3944986889146
 51
177.2072876360211
  0
ARC
  8
1
 62
7
 10
144.8310316706928
 20
-7.974893121579213
 30
0
 40
5.999999999999987
 50
101.5644067938449
 51
180.205770315008
  0
ARC
  8
1
 62
7
 10
159.4211342662882
 20
17.29590586163457
 30
0
 40
5.999999999999972
 50
119.7942296849917
 51
198.4355932061554
  0
ARC
  8
1
 62
7
 10
126.8866645475727
 20
-10.16071184638659
 30
0
 40
11.99999999999999
 50
2.792712363978867
 51
56.60550131108483
  0
ARC
  8
1
 62
7
 10
152.341925248479
 20
33.92909300749457
 30
0
 40
11.99999999999996
 50
243.3944986889151
 51
297.2072876360214
  0
ARC
  8
1
 62
7
 10
188.4209472464334
 20
-32.93324362997235
 30
0
 40
6.000000000000001
 50
221.5644067938441
 51
300.2057703150079
  0
ARC
  8
1
 62
7
 10
159.2407420552426
 20
-32.93324362997232
 30
0
 40
6.000000000000018
 50
239.7942296849922
 51
318.4355932061554
  0
ARC
  8
1
 62
7
 10
199.2861053517444
 20
-47.38061205102504
 30
0
 40
12.0000000000001
 50
122.7927123639789
 51
176.6055013110851
  0
ARC
  8
1
 62
7
 10
148.3755839499316
 20
-47.38061205102494
 30
0
 40
11.99999999999997
 50
3.394498688914945
 51
57.20728763602104
  0
ARC
  8
1
 62
7
 10
-52.0691553491544
 20
-33.37184287359832
 30
0
 40
1
 50
90
 51
180
  0
ARC
  8
1
 62
7
 10
-52.0691553491544
 20
-33.37484798606491
 30
0
 40
1
 50
180
 51
270
  0
ARC
  8
1
 62
7
 10
-51.56915534915432
 20
-34.87484798606491
 30
0
 40
0.5
 50
0
 51
90
  0
ARC
  8
1
 62
7
 10
-55.5691553491534
 20
-57.87074362997224
 30
0
 40
0.5
 50
270
 51
0
  0
ARC
  8
1
 62
7
 10
-61.36915534915407
 20
-57.87074362997234
 30
0
 40
0.5
 50
180
 51
270
  0
ARC
  8
1
 62
7
 10
-53.06915534915352
 20
-55.37074362997224
 30
0
 40
2
 50
270
 51
0
  0
ARC
  8
1
 62
7
 10
-66.26915534915611
 20
-56.37074362997234
 30
0
 40
1
 50
180
 51
270
  0
ARC
  8
1
 62
7
 10
-52.8691553491568
 20
25.12925637002776
 30
0
 40
2
 50
0
 51
90
  0
ARC
  8
1
 62
7
 10
-60.86915534915737
 20
26.12925637002767
 30
0
 40
1
 50
90
 51
180
  0
ARC
  8
1
 62
7
 10
-66.2691553491569
 20
-35.37074362997234
 30
0
 40
0.9999999999999716
 50
90
 51
180
  0
ARC
  8
1
 62
7
 10
-62.86915534915507
 20
-33.37074362997235
 30
0
 40
1
 50
270
 51
0
  0
ARC
  8
1
 62
7
 10
-66.26915534915909
 20
21.62925637002765
 30
0
 40
1
 50
90
 51
180
  0
ARC
  8
1
 62
7
 10
-66.2691553491585
 20
0.6292563700276483
 30
0
 40
1
 50
180
 51
270
  0
ARC
  8
1
 62
7
 10
173.8308446508381
 20
-7.870743629969572
 30
0
 40
34.99999999999753
 50
60.20577031500556
 51
119.7942296849945
  0
ARC
  8
1
 62
7
 10
173.8308446508356
 20
-7.870743629973617
 30
0
 40
34.99999999999753
 50
180.2057703150057
 51
239.7942296849946
  0
ARC
  8
1
 62
7
 10
173.8308446508403
 20
-7.870743629973845
 30
0
 40
34.99999999999754
 50
300.2057703150058
 51
359.7942296849945
  0
ARC
  8
1
 62
7
 10
4.630844650843201
 20
-55.37074362997234
 30
0
 40
6
 50
180
 51
270
  0
ARC
  8
1
 62
7
 10
4.630844650843201
 20
-40.87074362997234
 30
0
 40
6.00000000000002
 50
113.5564643091016
 51
180
  0
ARC
  8
1
 62
7
 10
4.630844650843201
 20
39.62925637002763
 30
0
 40
6
 50
90
 51
180
  0
ARC
  8
1
 62
7
 10
4.630844650843201
 20
25.12925637002763
 30
0
 40
6
 50
180
 51
246.4435356908992
  0
ARC
  8
1
 62
7
 10
47.93084465084561
 20
-33.37184287359832
 30
0
 40
1
 50
90
 51
180
  0
ARC
  8
1
 62
7
 10
47.93084465084561
 20
-33.37484798606491
 30
0
 40
1
 50
180
 51
270
  0
ARC
  8
1
 62
7
 10
48.43084465084571
 20
-34.87484798606491
 30
0
 40
0.5
 50
0
 51
90
  0
ARC
  8
1
 62
7
 10
44.43084465084662
 20
-57.87074362997224
 30
0
 40
0.4999999999999929
 50
270
 51
0
  0
ARC
  8
1
 62
7
 10
38.6308446508459
 20
-57.87074362997234
 30
0
 40
0.5
 50
180
 51
270
  0
ARC
  8
1
 62
7
 10
46.93084465084652
 20
-55.37074362997224
 30
0
 40
2
 50
270
 51
0
  0
ARC
  8
1
 62
7
 10
33.73084465084401
 20
-56.37074362997234
 30
0
 40
1
 50
180
 51
270
  0
ARC
  8
1
 62
7
 10
47.1308446508432
 20
25.12925637002776
 30
0
 40
2
 50
0
 51
90
  0
ARC
  8
1
 62
7
 10
39.13084465084261
 20
26.12925637002767
 30
0
 40
1
 50
90
 51
180
  0
ARC
  8
1
 62
7
 10
33.7308446508431
 20
-35.37074362997234
 30
0
 40
0.9999999999999716
 50
90
 51
180
  0
ARC
  8
1
 62
7
 10
37.13084465084489
 20
-33.37074362997235
 30
0
 40
1
 50
270
 51
0
  0
ARC
  8
1
 62
7
 10
33.73084465084089
 20
21.62925637002765
 30
0
 40
1
 50
90
 51
180
  0
ARC
  8
1
 62
7
 10
-217.8484337880524
 20
-7.870743629972337
 30
0
 40
53.5
 50
98.59984741528002
 51
81.40015258471998
  0
CIRCLE
  8
1
 62
7
 10
140.9218793070293
 20
11.12925637002765
 30
0
 40
6.000000000000114
  0
CIRCLE
  8
1
 62
7
 10
173.830844650838
 20
-45.87074362997234
 30
0
 40
6
  0
CIRCLE
  8
1
 62
7
 10
173.830844650838
 20
-7.870743629972337
 30
0
 40
56.5
  0
CIRCLE
  8
1
 62
7
 10
206.7398099946467
 20
11.12925637002762
 30
0
 40
2.499999999999915
  0
CIRCLE
  8
1
 62
7
 10
206.7398099946467
 20
11.12925637002762
 30
0
 40
6
  0
CIRCLE
  8
1
 62
7
 10
140.9218793070293
 20
11.12925637002765
 30
0
 40
8.5
  0
CIRCLE
  8
1
 62
7
 10
173.830844650838
 20
-45.87074362997234
 30
0
 40
8.5
  0
CIRCLE
  8
1
 62
7
 10
206.7398099946467
 20
11.12925637002762
 30
0
 40
8.5
  0
CIRCLE
  8
1
 62
7
 10
-217.8484337880524
 20
-7.870743629972337
 30
0
 40
17.5
  0
CIRCLE
  8
1
 62
7
 10
-217.8484337880524
 20
-7.870743629972337
 30
0
 40
24.5
  0
CIRCLE
  8
1
 62
7
 10
-217.8484337880524
 20
57.12925637002765
 30
0
 40
3.25
  0
CIRCLE
  8
1
 62
7
 10
173.830844650838
 20
57.12925637002766
 30
0
 40
3.25
  0
CIRCLE
  8
1
 62
7
 10
132.6946379710772
 20
-31.62074362997237
 30
0
 40
4.5
  0
CIRCLE
  8
1
 62
7
 10
140.9218793070293
 20
11.12925637002765
 30
0
 40
2.5
  0
CIRCLE
  8
1
 62
7
 10
214.9670513305988
 20
-31.62074362997238
 30
0
 40
4.5
  0
CIRCLE
  8
1
 62
7
 10
132.6946379710772
 20
-31.62074362997237
 30
0
 40
4.5
  0
CIRCLE
  8
1
 62
7
 10
173.830844650838
 20
-45.87074362997234
 30
0
 40
2.5
  0
CIRCLE
  8
1
 62
7
 10
173.830844650838
 20
39.62925637002765
 30
0
 40
4.5
  0
CIRCLE
  8
1
 62
7
 10
188.2405550353878
 20
17.29590586163457
 30
0
 40
2.399999999999977
  0
CIRCLE
  8
1
 62
3
 10
188.2405550353878
 20
17.29590586163457
 30
0
 40
3
  0
CIRCLE
  8
1
 62
7
 10
159.2407420552426
 20
17.19175637002767
 30
0
 40
2.400000000000006
  0
CIRCLE
  8
1
 62
3
 10
159.2407420552426
 20
17.19175637002767
 30
0
 40
3
  0
CIRCLE
  8
1
 62
7
 10
144.8310316706928
 20
-7.974893121579213
 30
0
 40
2.399999999999892
  0
CIRCLE
  8
1
 62
3
 10
144.8310316706928
 20
-7.974893121579213
 30
0
 40
3
  0
CIRCLE
  8
1
 62
7
 10
159.4211342662882
 20
-33.03739312157924
 30
0
 40
2.400000000000006
  0
CIRCLE
  8
1
 62
3
 10
159.4211342662882
 20
-33.03739312157924
 30
0
 40
3
  0
CIRCLE
  8
1
 62
7
 10
188.4209472464334
 20
-32.93324362997235
 30
0
 40
2.400000000000006
  0
CIRCLE
  8
1
 62
3
 10
188.4209472464334
 20
-32.93324362997235
 30
0
 40
3
  0
CIRCLE
  8
1
 62
7
 10
202.830844650838
 20
-7.870743629972337
 30
0
 40
2.400000000000006
  0
CIRCLE
  8
1
 62
3
 10
202.830844650838
 20
-7.870743629972337
 30
0
 40
3
  0
CIRCLE
  8
1
 62
7
 10
173.830844650838
 20
-7.870743629972337
 30
0
 40
17.5
  0
CIRCLE
  8
1
 62
7
 10
173.830844650838
 20
-7.870743629972337
 30
0
 40
21
  0
CIRCLE
  8
1
 62
7
 10
206.7398099946467
 20
11.12925637002762
 30
0
 40
11.5
  0
CIRCLE
  8
1
 62
7
 10
173.830844650838
 20
-45.87074362997234
 30
0
 40
11.5
  0
CIRCLE
  8
1
 62
7
 10
140.9218793070293
 20
11.12925637002765
 30
0
 40
11.5
  0
CIRCLE
  8
1
 62
7
 10
173.830844650838
 20
-7.870743629972337
 30
0
 40
10
  0
CIRCLE
  8
1
 62
7
 10
173.830844650838
 20
-7.870743629972337
 30
0
 40
13.5
  0
CIRCLE
  8
1
 62
7
 10
173.830844650838
 20
-7.870743629972337
 30
0
 40
53.65000000000001
  0
CIRCLE
  8
1
 62
7
 10
3.630844650843201
 20
14.62925637002763
 30
0
 40
3.000000000000003
  0
CIRCLE
  8
1
 62
7
 10
3.630844650843201
 20
-30.37074362997237
 30
0
 40
3.000000000000003
  0
TEXT
  8
1
 62
7
 10
-232.1290005073744
 20
141.5061247757719
 30
0
 40
6
  1
TMAC 2.5
 41
0.9
  7
SIMPLEX
  0
TEXT
  8
1
 62
7
 10
-231.5688116009344
 20
130.0940468049239
 30
0
 40
6
  1
DC2103
 41
0.9
  7
SIMPLEX
  0
ENDSEC
  0
EOF
