  0
SECTION
  2
HEADER
  9
$ACADVER
  1
AC1009
  9
$INSBASE
 10
0
 20
0
  9
$EXTMIN
 10
-110.1746513072186
 20
-42.5
  9
$EXTMAX
 10
158.1417507414172
 20
77.426561726348
  9
$LIMMIN
 10
-110.1746513072186
 20
-42.5
  9
$LIMMAX
 10
158.1417507414172
 20
77.426561726348
  9
$VIEWCTR
 10
10
 20
10
  9
$VIEWSIZE
 40
10
  9
$SNAPMODE
 70
0
  9
$SNAPUNIT
 10
1
 20
1
  9
$SNAPBASE
 10
0
 20
0
  9
$SNAPANG
 50
0
  9
$SNAPSTYLE
 70
0
  9
$SNAPISOPAIR
 70
0
  9
$GRIDMODE
 70
0
  9
$GRIDUNIT
 10
0
 20
0
  9
$ORTHOMODE
 70
0
  9
$REGENMODE
 70
1
  9
$FILLMODE
 70
1
  9
$QTEXTMODE
 70
0
  9
$DRAGMODE
 70
2
  9
$LTSCALE
 40
1
  9
$OSMODE
 70
0
  9
$ATTMODE
 70
1
  9
$TEXTSIZE
 40
3.5
  9
$TRACEWID
 40
0.5
  9
$TEXTSTYLE
  7
STANDARD
  9
$CLAYER
  8
0
  9
$CELTYPE
  6
BYLAYER
  9
$CECOLOR
 62
256
  9
$DIMSCALE
 40
1
  9
$DIMASZ
 40
0.18
  9
$DIMEXO
 40
0.0625
  9
$DIMDLI
 40
0.38
  9
$DIMRND
 40
0
  9
$DIMDLE
 40
0
  9
$DIMEXE
 40
0.18
  9
$DIMTP
 40
0
  9
$DIMTM
 40
0
  9
$DIMTXT
 40
0.18
  9
$DIMCEN
 40
0.09
  9
$DIMTSZ
 40
0
  9
$DIMTOL
 70
0
  9
$DIMLIM
 70
0
  9
$DIMTIH
 70
1
  9
$DIMTOH
 70
1
  9
$DIMSE1
 70
0
  9
$DIMSE2
 70
0
  9
$DIMTAD
 70
0
  9
$DIMZIN
 70
0
  9
$DIMBLK
  1

  9
$DIMASO
 70
1
  9
$DIMSHO
 70
1
  9
$DIMPOST
  1

  9
$DIMAPOST
  1

  9
$DIMALT
 70
0
  9
$DIMALTD
 70
2
  9
$DIMALTF
 40
25.4
  9
$DIMLFAC
 40
1
  9
$DIMTOFL
 70
0
  9
$DIMTVP
 40
0
  9
$DIMTIX
 70
0
  9
$DIMSOXD
 70
0
  9
$DIMSAH
 70
0
  9
$DIMBLK1
  1

  9
$DIMBLK2
  1

  9
$DIMSTYLE
  2
*UNNAMED
  9
$DIMCLRD
 70
0
  9
$DIMCLRE
 70
0
  9
$DIMCLRT
 70
0
  9
$DIMTFAC
 40
1
  9
$DIMGAP
 40
0.09
  9
$LUNITS
 70
2
  9
$LUPREC
 70
4
  9
$AXISMODE
 70
0
  9
$AXISUNIT
 10
0
 20
0
  9
$SKETCHINC
 40
0.1
  9
$FILLETRAD
 40
2
  9
$AUNITS
 70
0
  9
$AUPREC
 70
0
  9
$MENU
  1
ACAD
  9
$ELEVATION
 40
0
  9
$THICKNESS
 40
0
  9
$VIEWDIR
 10
0
 20
0
 30
1
  9
$LIMCHECK
 70
0
  9
$BLIPMODE
 70
1
  9
$CHAMFERA
 40
0
  9
$CHAMFERB
 40
0
  9
$FASTZOOM
 70
1
  9
$SKPOLY
 70
0
  9
$ANGBASE
 50
0
  9
$ANGDIR
 70
0
  9
$PDMODE
 70
0
  9
$PDSIZE
 40
0
  9
$PLINEWID
 40
0
  9
$COORDS
 70
2
  0
ENDSEC
  0
SECTION
  2
TABLES
  0
TABLE
  2
DIMSTYLE
 70
0
  0
ENDTAB
  0
TABLE
  2
LTYPE
 70
9
  0
LTYPE
  2
CONTINUOUS
 70
64
  3
Solid line
 72
65
 73
0
 40
0
  0
LTYPE
  2
BORDER
 70
64
  3
__ __ . __ __ .
 72
65
 73
6
 40
12.35667641013455
 49
3.530478974324156
 49
-1.765239487162078
 49
3.530478974324156
 49
-1.765239487162078
 49
0
 49
-1.765239487162078
  0
LTYPE
  2
CENTER
 70
64
  3
____ _ ____ _
 72
65
 73
4
 40
14.12191589729662
 49
8.826197435810389
 49
-1.765239487162078
 49
1.765239487162078
 49
-1.765239487162078
  0
LTYPE
  2
DASHDOT
 70
64
  3
__ . __ . __ .
 72
65
 73
4
 40
7.060957948648311
 49
3.530478974324156
 49
-1.765239487162078
 49
0
 49
-1.765239487162078
  0
LTYPE
  2
DASHED
 70
64
  3
__ __ __ __ __
 72
65
 73
2
 40
5.295718461486233
 49
3.530478974324156
 49
-1.765239487162078
  0
LTYPE
  2
DIVIDE
 70
64
  3
__ . . __ . . 
 72
65
 73
6
 40
8.826197435810389
 49
3.530478974324156
 49
-1.765239487162078
 49
0
 49
-1.765239487162078
 49
0
 49
-1.765239487162078
  0
LTYPE
  2
DOT
 70
64
  3
..............
 72
65
 73
4
 40
3.530478974324156
 49
0
 49
-1.765239487162078
 49
0
 49
-1.765239487162078
  0
LTYPE
  2
HIDDEN
 70
64
  3
_ _ _ _ _ _ _
 72
65
 73
2
 40
2.647859230743117
 49
1.765239487162078
 49
-0.8826197435810389
  0
LTYPE
  2
PHANTOM
 70
64
  3
_____ _ _ _____ _ _ 
 72
65
 73
6
 40
17.65239487162078
 49
8.826197435810389
 49
-1.765239487162078
 49
1.765239487162078
 49
-1.765239487162078
 49
1.765239487162078
 49
-1.765239487162078
  0
ENDTAB
  0
TABLE
  2
LAYER
 70
3
  0
LAYER
  2
1
 70
0
 62
7
  6
CONTINUOUS
  0
LAYER
  2
0
 70
0
 62
7
  6
CONTINUOUS
  0
ENDTAB
  0
TABLE
  2
STYLE
 70
4
  0
STYLE
  2
STANDARD
 70
0
 40
0
 41
1
 50
0
 71
0
 42
3.5
  3
txt
  4

  0
STYLE
  2
SIMPLEX
 70
0
 40
0
 41
1
 50
0
 71
0
 42
3.5
  3
simplex
  4

  0
STYLE
  2
COMPLEX
 70
0
 40
0
 41
1
 50
0
 71
0
 42
3.5
  3
complex
  4

  0
STYLE
  2
ITALIC
 70
0
 40
0
 41
1
 50
0
 71
0
 42
3.5
  3
italic
  4

  0
ENDTAB
  0
TABLE
  2
VIEW
 70
0
  0
ENDTAB
  0
ENDSEC
  0
SECTION
  2
BLOCKS
  0
ENDSEC
  0
SECTION
  2
ENTITIES
  0
POINT
  8
1
 62
7
  6
DOT
 10
123.1609847213181
 20
-5.999969171088892
 30
0
  0
LINE
  8
1
 62
7
 10
27.3
 20
-28.4354035877435
 30
0
 11
27.70000000000011
 21
-28.4354035877435
 31
0
  0
LINE
  8
1
 62
7
 10
27.70000000000011
 20
-8.740434305071361
 30
0
 11
27.70000000000011
 21
-32.75
 31
0
  0
LINE
  8
1
 62
7
 10
1.4210854715202e-014
 20
31
 30
0
 11
0
 21
-42.5
 31
0
  0
LINE
  8
1
 62
7
 10
1.4210854715202e-014
 20
31
 30
0
 11
2.000000000000099
 21
31
 31
0
  0
LINE
  8
1
 62
7
 10
0
 20
-39.75
 30
0
 11
2.000000000000114
 21
-39.75
 31
0
  0
LINE
  8
1
 62
3
  6
DASHDOT
 10
-2.999999999999999
 20
-37.5
 30
0
 11
5.000000000000114
 21
-37.5
 31
0
  0
LINE
  8
1
 62
7
 10
0
 20
-35.25
 30
0
 11
2.000000000000114
 21
-35.25
 31
0
  0
LINE
  8
1
 62
7
 10
0
 20
-42.5
 30
0
 11
2.000000000000114
 21
-42.5
 31
0
  0
LINE
  8
1
 62
7
 10
2.000000000000099
 20
31
 30
0
 11
2.000000000000114
 21
-42.5
 31
0
  0
LINE
  8
1
 62
7
 10
0
 20
-17.5
 30
0
 11
2.000000000000114
 21
-17.5
 31
0
  0
LINE
  8
1
 62
7
 10
0
 20
17.5
 30
0
 11
2.000000000000114
 21
17.5
 31
0
  0
LINE
  8
1
 62
7
 10
19.09999999999999
 20
-18.50000000000001
 30
0
 11
4.035898384862294
 21
-18.50000000000001
 31
0
  0
LINE
  8
1
 62
7
 10
3.400000000000006
 20
-11.5
 30
0
 11
13.3
 21
-11.5
 31
0
  0
LINE
  8
1
 62
7
 10
13.3
 20
-17.5
 30
0
 11
13.3
 21
-11.5
 31
0
  0
LINE
  8
1
 62
7
 10
19.09999999999999
 20
18.5
 30
0
 11
4.035898384862295
 21
18.5
 31
0
  0
LINE
  8
1
 62
7
 10
3.400000000000006
 20
11.5
 30
0
 11
13.3
 21
11.5
 31
0
  0
LINE
  8
1
 62
7
 10
3.400000000000006
 20
-6
 30
0
 11
38.90000000000001
 21
-6
 31
0
  0
LINE
  8
1
 62
7
 10
3.400000000000006
 20
7.5
 30
0
 11
23.40000000000001
 21
7.5
 31
0
  0
LINE
  8
1
 62
7
 10
3.400000000000006
 20
11.5
 30
0
 11
3.400000000000006
 21
-11.5
 31
0
  0
LINE
  8
1
 62
7
 10
26.90000000000001
 20
-23
 30
0
 11
26.90000000000001
 21
-33.25
 31
0
  0
LINE
  8
1
 62
3
  6
DASHDOT
 10
0
 20
0
 30
0
 11
-4.999999999999992
 21
0
 31
0
  0
LINE
  8
1
 62
7
 10
7.400000000000006
 20
32.87955227433427
 30
0
 11
7.400000000000006
 21
54.17341572201796
 31
0
  0
LINE
  8
1
 62
7
 10
9.000000000000107
 20
54.17341572201796
 30
0
 11
9.000000000000107
 21
33
 31
0
  0
LINE
  8
1
 62
7
 10
8.600000000000009
 20
54.17341572201796
 30
0
 11
8.600000000000009
 21
57.17341572201796
 31
0
  0
LINE
  8
1
 62
7
 10
8.299999999999997
 20
57.17341572201796
 30
0
 11
8.299999999999997
 21
54.17341572201796
 31
0
  0
LINE
  8
1
 62
7
 10
8.000000000000014
 20
54.17341572201796
 30
0
 11
8.000000000000014
 21
57.17341572201796
 31
0
  0
LINE
  8
1
 62
7
 10
7.700000000000003
 20
57.17341572201796
 30
0
 11
7.700000000000003
 21
54.17341572201796
 31
0
  0
LINE
  8
1
 62
7
 10
38.90000000000001
 20
6
 30
0
 11
3.400000000000006
 21
6
 31
0
  0
LINE
  8
1
 62
7
 10
7.400000000000006
 20
54.17341572201796
 30
0
 11
9.000000000000107
 21
54.17341572201796
 31
0
  0
LINE
  8
1
 62
7
 10
13.3
 20
17.49999999999999
 30
0
 11
13.3
 21
11.5
 31
0
  0
LINE
  8
1
 62
7
 10
26.90000000000001
 20
33.25
 30
0
 11
26.90000000000001
 21
23
 31
0
  0
LINE
  8
1
 62
7
 10
27.8
 20
32
 30
0
 11
27.8
 21
26
 31
0
  0
LINE
  8
1
 62
7
 10
27.3
 20
32
 30
0
 11
28.59999999999999
 21
32
 31
0
  0
LINE
  8
1
 62
7
 10
28.59999999999999
 20
26
 30
0
 11
28.90000000000001
 21
26.3
 31
0
  0
LINE
  8
1
 62
7
 10
28.59999999999999
 20
32
 30
0
 11
28.90000000000001
 21
31.7
 31
0
  0
LINE
  8
1
 62
7
 10
27.3
 20
26
 30
0
 11
28.59999999999999
 21
26
 31
0
  0
LINE
  8
1
 62
7
 10
28.90000000000001
 20
31.7
 30
0
 11
28.90000000000001
 21
26.3
 31
0
  0
LINE
  8
1
 62
7
 10
23.90000000000001
 20
-17.5
 30
0
 11
27.3
 21
-17.5
 31
0
  0
LINE
  8
1
 62
7
 10
23.90000000000001
 20
17.5
 30
0
 11
27.3
 21
17.5
 31
0
  0
LINE
  8
1
 62
7
 10
27.3
 20
23
 30
0
 11
27.3
 21
8
 31
0
  0
LINE
  8
1
 62
7
 10
26.90000000000001
 20
23
 30
0
 11
27.3
 21
23
 31
0
  0
LINE
  8
1
 62
7
 10
23.55000000000001
 20
33
 30
0
 11
23.55000000000001
 21
16.76397095975301
 31
0
  0
LINE
  8
1
 62
7
 10
26.90000000000001
 20
32.75
 30
0
 11
27.3
 21
32.75
 31
0
  0
LINE
  8
1
 62
7
 10
27.3
 20
32.75
 30
0
 11
27.3
 21
24.54548132206253
 31
0
  0
LINE
  8
1
 62
7
 10
27.3
 20
24.54548132206253
 30
0
 11
27.70000000000011
 21
23.10352761804101
 31
0
  0
LINE
  8
1
 62
7
 10
27.3
 20
24.54548132206253
 30
0
 11
27.70000000000011
 21
23.10352761804101
 31
0
  0
LINE
  8
1
 62
7
 10
27.70000000000011
 20
8
 30
0
 11
27.70000000000011
 21
23.10352761804101
 31
0
  0
LINE
  8
1
 62
7
 10
27.70000000000011
 20
18
 30
0
 11
27.3
 21
18
 31
0
  0
LINE
  8
1
 62
7
 10
27.3
 20
23
 30
0
 11
26.90000000000001
 21
24.49282032302754
 31
0
  0
LINE
  8
1
 62
7
 10
26.90000000000001
 20
25.25
 30
0
 11
27.3
 21
25.25
 31
0
  0
LINE
  8
1
 62
7
 10
27.3
 20
-8
 30
0
 11
27.3
 21
-32.75
 31
0
  0
LINE
  8
1
 62
7
 10
27.3
 20
-32.75
 30
0
 11
27.70000000000011
 21
-32.75
 31
0
  0
LINE
  8
1
 62
7
 10
27.3
 20
-18
 30
0
 11
27.70000000000011
 21
-18
 31
0
  0
LINE
  8
1
 62
7
 10
23.90000000000001
 20
33.25
 30
0
 11
23.90000000000001
 21
8
 31
0
  0
LINE
  8
1
 62
7
 10
13.3
 20
34.5
 30
0
 11
13.3
 21
33.64999999999999
 31
0
  0
LINE
  8
1
 62
7
 10
13.3
 20
34.5
 30
0
 11
13.8
 21
35
 31
0
  0
LINE
  8
1
 62
7
 10
23.40000000000001
 20
15
 30
0
 11
23.40000000000001
 21
-15.00000000000001
 31
0
  0
LINE
  8
1
 62
7
 10
8.700000000000102
 20
33
 30
0
 11
12.09999999999999
 21
33
 31
0
  0
LINE
  8
1
 62
7
 10
12.09999999999999
 20
33
 30
0
 11
12.09999999999999
 21
32.64999999999998
 31
0
  0
LINE
  8
1
 62
7
 10
12.09999999999999
 20
32.64999999999998
 30
0
 11
19.09999999999999
 21
32.64999999999998
 31
0
  0
LINE
  8
1
 62
7
 10
19.09999999999999
 20
32.64999999999998
 30
0
 11
19.09999999999999
 21
18.5
 31
0
  0
LINE
  8
1
 62
7
 10
13.3
 20
33.64999999999999
 30
0
 11
20.3
 21
33.64999999999999
 31
0
  0
LINE
  8
1
 62
7
 10
13.3
 20
17.49999999999999
 30
0
 11
20.3
 21
17.49999999999999
 31
0
  0
LINE
  8
1
 62
7
 10
20.3
 20
17.49999999999999
 30
0
 11
20.3
 21
33.64999999999999
 31
0
  0
LINE
  8
1
 62
7
 10
21.64529946162081
 20
35
 30
0
 11
22.8
 21
33
 31
0
  0
LINE
  8
1
 62
7
 10
22.8
 20
33
 30
0
 11
23.55000000000001
 21
33
 31
0
  0
LINE
  8
1
 62
7
 10
21.64529946162081
 20
35
 30
0
 11
13.8
 21
35
 31
0
  0
LINE
  8
1
 62
7
 10
22.8
 20
18
 30
0
 11
22.8
 21
15
 31
0
  0
LINE
  8
1
 62
7
 10
22.8
 20
15
 30
0
 11
23.40000000000001
 21
15
 31
0
  0
LINE
  8
1
 62
7
 10
22.8
 20
18
 30
0
 11
23.55000000000001
 21
18
 31
0
  0
LINE
  8
1
 62
7
 10
23.55000000000001
 20
-18.00000000000003
 30
0
 11
22.8
 21
-18.00000000000001
 31
0
  0
LINE
  8
1
 62
7
 10
23.40000000000001
 20
-15.00000000000001
 30
0
 11
22.8
 21
-15.00000000000001
 31
0
  0
LINE
  8
1
 62
7
 10
22.8
 20
-15.00000000000001
 30
0
 11
22.8
 21
-18.00000000000001
 31
0
  0
LINE
  8
1
 62
7
 10
13.8
 20
-35.00000000000001
 30
0
 11
21.64529946162081
 21
-35.00000000000001
 31
0
  0
LINE
  8
1
 62
7
 10
23.55000000000001
 20
-33.00000000000001
 30
0
 11
22.8
 21
-33.00000000000001
 31
0
  0
LINE
  8
1
 62
7
 10
22.8
 20
-33.00000000000001
 30
0
 11
21.64529946162081
 21
-35.00000000000001
 31
0
  0
LINE
  8
1
 62
7
 10
20.3
 20
-33.65000000000001
 30
0
 11
20.3
 21
-17.5
 31
0
  0
LINE
  8
1
 62
7
 10
20.3
 20
-17.5
 30
0
 11
13.3
 21
-17.5
 31
0
  0
LINE
  8
1
 62
7
 10
20.3
 20
-33.65000000000001
 30
0
 11
13.3
 21
-33.65000000000001
 31
0
  0
LINE
  8
1
 62
7
 10
19.09999999999999
 20
-18.50000000000001
 30
0
 11
19.09999999999999
 21
-32.65000000000001
 31
0
  0
LINE
  8
1
 62
7
 10
19.09999999999999
 20
-32.65000000000001
 30
0
 11
12.09999999999999
 21
-32.65000000000001
 31
0
  0
LINE
  8
1
 62
7
 10
12.09999999999999
 20
-32.65000000000001
 30
0
 11
12.09999999999999
 21
-33.00000000000001
 31
0
  0
LINE
  8
1
 62
7
 10
12.09999999999999
 20
-33.00000000000001
 30
0
 11
8.700000000000102
 21
-33.00000000000001
 31
0
  0
LINE
  8
1
 62
7
 10
13.8
 20
-35.00000000000001
 30
0
 11
13.3
 21
-34.50000000000001
 31
0
  0
LINE
  8
1
 62
7
 10
13.3
 20
-33.65000000000001
 30
0
 11
13.3
 21
-34.50000000000001
 31
0
  0
LINE
  8
1
 62
7
 10
23.55000000000001
 20
-16.76397095975302
 30
0
 11
23.55000000000001
 21
-33.00000000000001
 31
0
  0
LINE
  8
1
 62
7
 10
27.70000000000011
 20
-18.5
 30
0
 11
28.70000000000011
 21
-18.5
 31
0
  0
LINE
  8
1
 62
7
 10
28.70000000000011
 20
-15
 30
0
 11
28.70000000000011
 21
-31
 31
0
  0
LINE
  8
1
 62
7
 10
28.70000000000011
 20
-27.5
 30
0
 11
27.70000000000011
 21
-27.5
 31
0
  0
LINE
  8
1
 62
7
 10
29.20000000000011
 20
-14.5
 30
0
 11
33.40000000000011
 21
-14.5
 31
0
  0
LINE
  8
1
 62
7
 10
29.20000000000011
 20
-31.5
 30
0
 11
33.40000000000011
 21
-31.5
 31
0
  0
LINE
  8
1
 62
7
 10
34.40000000000011
 20
-32.5
 30
0
 11
38.7000000000001
 21
-32.5
 31
0
  0
LINE
  8
1
 62
7
 10
38.90000000000011
 20
14
 30
0
 11
38.90000000000011
 21
-14
 31
0
  0
LINE
  8
1
 62
7
 10
33.90000000000011
 20
-11.5
 30
0
 11
38.90000000000008
 21
-11.5
 31
0
  0
LINE
  8
1
 62
7
 10
33.90000000000011
 20
-8
 30
0
 11
33.90000000000011
 21
-14
 31
0
  0
LINE
  8
1
 62
7
 10
39.7000000000001
 20
-31.5
 30
0
 11
40.70000000000011
 21
-31.5
 31
0
  0
LINE
  8
1
 62
7
 10
41.2000000000001
 20
-31
 30
0
 11
41.20000000000009
 21
-16
 31
0
  0
LINE
  8
1
 62
7
 10
38.90000000000011
 20
-14
 30
0
 11
41.90000000000011
 21
-14
 31
0
  0
LINE
  8
1
 62
7
 10
41.90000000000011
 20
21.49790203766916
 30
0
 11
41.90000000000011
 21
-15.5
 31
0
  0
LINE
  8
1
 62
7
 10
41.90000000000011
 20
-15.5
 30
0
 11
41.70000000000009
 21
-15.5
 31
0
  0
LINE
  8
1
 62
7
 10
35.40000000000011
 20
22.99790203766916
 30
0
 11
40.40000000000011
 21
22.99790203766916
 31
0
  0
LINE
  8
1
 62
7
 10
41.90000000000011
 20
14
 30
0
 11
38.90000000000011
 21
14
 31
0
  0
LINE
  8
1
 62
7
 10
33.90000000000011
 20
11.5
 30
0
 11
38.90000000000011
 21
11.5
 31
0
  0
LINE
  8
1
 62
3
  6
DASHDOT
 10
41.90000000000011
 20
0
 30
0
 11
46.90000000000011
 21
0
 31
0
  0
LINE
  8
1
 62
7
 10
33.90000000000011
 20
20
 30
0
 11
29.20000000000011
 21
20
 31
0
  0
LINE
  8
1
 62
7
 10
28.70000000000011
 20
19.5
 30
0
 11
28.70000000000011
 21
8
 31
0
  0
LINE
  8
1
 62
7
 10
28.70000000000011
 20
16
 30
0
 11
27.70000000000011
 21
16
 31
0
  0
LINE
  8
1
 62
3
 10
41.90000000000011
 20
14.82050807568877
 30
0
 11
33.90000000000012
 21
14.82050807568877
 31
0
  0
LINE
  8
1
 62
3
 10
33.90000000000011
 20
19.82050807568877
 30
0
 11
41.90000000000011
 21
19.82050807568877
 31
0
  0
LINE
  8
1
 62
7
 10
41.90000000000011
 20
15.42050807568877
 30
0
 11
33.90000000000012
 21
15.42050807568877
 31
0
  0
LINE
  8
1
 62
7
 10
33.90000000000011
 20
19.22050807568877
 30
0
 11
41.90000000000011
 21
19.22050807568877
 31
0
  0
LINE
  8
1
 62
3
  6
DASHDOT
 10
44.90000000000011
 20
17.32050807568877
 30
0
 11
30.90000000000012
 21
17.32050807568877
 31
0
  0
LINE
  8
1
 62
7
 10
23.40000000000001
 20
7.999999999999993
 30
0
 11
38.90000000000001
 21
7.999999999999993
 31
0
  0
LINE
  8
1
 62
7
 10
23.40000000000001
 20
-8
 30
0
 11
38.90000000000001
 21
-8
 31
0
  0
LINE
  8
1
 62
7
 10
33.90000000000011
 20
8
 30
0
 11
33.90000000000011
 21
21.49790203766916
 31
0
  0
LINE
  8
1
 62
7
 10
23.90000000000001
 20
-8
 30
0
 11
23.90000000000001
 21
-33.25
 31
0
  0
LINE
  8
1
 62
7
 10
23.90000000000001
 20
33.25
 30
0
 11
26.90000000000001
 21
33.25
 31
0
  0
LINE
  8
1
 62
7
 10
23.90000000000001
 20
-33.25
 30
0
 11
26.90000000000001
 21
-33.25
 31
0
  0
LINE
  8
1
 62
7
 10
26.90000000000001
 20
-23
 30
0
 11
27.3
 21
-23
 31
0
  0
LINE
  8
1
 62
3
  6
DASHDOT
 10
126.1417507414172
 20
0
 30
0
 11
120.1417507414172
 21
0
 31
0
  0
LINE
  8
1
 62
3
  6
DASHDOT
 10
123.1417507414172
 20
3
 30
0
 11
123.1417507414172
 21
-3
 31
0
  0
LINE
  8
1
 62
3
  6
DASHDOT
 10
135.3917507414172
 20
-21.21762239271877
 30
0
 11
130.8917507414172
 21
-13.42339375865882
 31
0
  0
LINE
  8
1
 62
3
  6
DASHDOT
 10
110.8917507414172
 20
-21.21762239271875
 30
0
 11
115.3917507414172
 21
-13.4233937586588
 31
0
  0
LINE
  8
1
 62
3
  6
DASHDOT
 10
98.64175074141718
 20
1.473778072857538e-014
 30
0
 11
107.6417507414172
 21
1.124057820100613e-014
 31
0
  0
LINE
  8
1
 62
3
  6
DASHDOT
 10
110.8917507414172
 20
21.21762239271877
 30
0
 11
115.3917507414172
 21
13.42339375865882
 31
0
  0
LINE
  8
1
 62
3
  6
DASHDOT
 10
135.3917507414172
 20
21.21762239271875
 30
0
 11
130.8917507414172
 21
13.4233937586588
 31
0
  0
LINE
  8
1
 62
3
  6
DASHDOT
 10
147.6417507414172
 20
0
 30
0
 11
138.6417507414172
 21
0
 31
0
  0
LINE
  8
1
 62
3
  6
DASHDOT
 10
146.6530512158699
 20
-23.51130047445271
 30
0
 11
152.6634588559556
 21
-29.52170811453838
 31
0
  0
LINE
  8
1
 62
3
  6
DASHDOT
 10
99.63045026696449
 20
-23.51130047445276
 30
0
 11
93.62004262687881
 21
-29.52170811453842
 31
0
  0
LINE
  8
1
 62
3
  6
DASHDOT
 10
99.63045026696445
 20
23.51130047445271
 30
0
 11
93.62004262687879
 21
29.52170811453838
 31
0
  0
LINE
  8
1
 62
3
  6
DASHDOT
 10
146.6530512158699
 20
23.51130047445275
 30
0
 11
152.6634588559556
 21
29.52170811453841
 31
0
  0
LINE
  8
1
 62
7
  6
DASHDOT
 10
125.1417507414172
 20
7.499829826292327
 30
0
 11
125.1417507414172
 21
5.697295935746297
 31
0
  0
LINE
  8
1
 62
7
  6
DASHDOT
 10
121.1417507414172
 20
7.499829826292327
 30
0
 11
121.1417507414172
 21
5.656854249492383
 31
0
  0
LINE
  8
1
 62
7
  6
DASHDOT
 10
121.1417507414172
 20
7.499829826292327
 30
0
 11
125.1417507414172
 21
7.499829826292327
 31
0
  0
LINE
  8
1
 62
7
 10
-78.12131469309971
 20
-33.25
 30
0
 11
-78.12131469309971
 21
33.25
 31
0
  0
LINE
  8
1
 62
7
 10
-82.22131469309959
 20
33
 30
0
 11
-82.22131469309959
 21
-33.00000000000001
 31
0
  0
LINE
  8
1
 62
7
 10
-83.3760152314788
 20
35
 30
0
 11
-83.3760152314788
 21
-35.00000000000001
 31
0
  0
LINE
  8
1
 62
7
 10
-91.72131469309959
 20
-32.85000000000001
 30
0
 11
-92.9213146930996
 21
-32.85000000000001
 31
0
  0
LINE
  8
1
 62
7
 10
-91.72131469309959
 20
34.5
 30
0
 11
-91.72131469309959
 21
-34.50000000000001
 31
0
  0
LINE
  8
1
 62
7
 10
-81.47131469309959
 20
-33.00000000000001
 30
0
 11
-81.47131469309959
 21
33
 31
0
  0
LINE
  8
1
 62
7
 10
-105.0213146930996
 20
31
 30
0
 11
-103.0213146930995
 21
31
 31
0
  0
LINE
  8
1
 62
3
  6
DASHDOT
 10
-108.0213146930996
 20
-37.5
 30
0
 11
-100.0213146930995
 21
-37.5
 31
0
  0
LINE
  8
1
 62
7
 10
-105.0213146930996
 20
-42.5
 30
0
 11
-103.0213146930995
 21
-42.5
 31
0
  0
LINE
  8
1
 62
7
 10
-103.0213146930995
 20
31
 30
0
 11
-103.0213146930995
 21
-42.5
 31
0
  0
LINE
  8
1
 62
7
 10
-105.0213146930996
 20
31
 30
0
 11
-105.0213146930996
 21
-42.5
 31
0
  0
LINE
  8
1
 62
3
  6
DASHDOT
 10
-105.0213146930996
 20
0
 30
0
 11
-110.0213146930996
 21
0
 31
0
  0
LINE
  8
1
 62
7
 10
-97.62131469309959
 20
32.87955227433429
 30
0
 11
-97.62131469309959
 21
54.17341572201798
 31
0
  0
LINE
  8
1
 62
7
 10
-96.02131469309948
 20
54.17341572201798
 30
0
 11
-96.02131469309948
 21
33
 31
0
  0
LINE
  8
1
 62
7
 10
-96.4213146930996
 20
54.17341572201798
 30
0
 11
-96.4213146930996
 21
57.17341572201798
 31
0
  0
LINE
  8
1
 62
7
 10
-96.72131469309959
 20
57.17341572201798
 30
0
 11
-96.72131469309959
 21
54.17341572201798
 31
0
  0
LINE
  8
1
 62
7
 10
-97.0213146930996
 20
54.17341572201798
 30
0
 11
-97.0213146930996
 21
57.17341572201798
 31
0
  0
LINE
  8
1
 62
7
 10
-97.32131469309958
 20
57.17341572201798
 30
0
 11
-97.32131469309958
 21
54.17341572201798
 31
0
  0
LINE
  8
1
 62
7
 10
-97.62131469309959
 20
54.17341572201798
 30
0
 11
-96.02131469309948
 21
54.17341572201798
 31
0
  0
LINE
  8
1
 62
7
 10
-91.72131469309959
 20
34.5
 30
0
 11
-91.22131469309959
 21
35
 31
0
  0
LINE
  8
1
 62
7
 10
-96.3213146930995
 20
33
 30
0
 11
-92.9213146930996
 21
33
 31
0
  0
LINE
  8
1
 62
7
 10
-92.9213146930996
 20
33
 30
0
 11
-92.9213146930996
 21
32.84999999999999
 31
0
  0
LINE
  8
1
 62
7
 10
-92.9213146930996
 20
32.84999999999999
 30
0
 11
-91.72131469309959
 21
32.84999999999999
 31
0
  0
LINE
  8
1
 62
7
 10
-83.3760152314788
 20
35
 30
0
 11
-82.22131469309959
 21
33
 31
0
  0
LINE
  8
1
 62
7
 10
-82.22131469309959
 20
33
 30
0
 11
-81.47131469309959
 21
33
 31
0
  0
LINE
  8
1
 62
7
 10
-83.3760152314788
 20
35
 30
0
 11
-91.22131469309959
 21
35
 31
0
  0
LINE
  8
1
 62
7
 10
-91.22131469309959
 20
-35.00000000000001
 30
0
 11
-83.3760152314788
 21
-35.00000000000001
 31
0
  0
LINE
  8
1
 62
7
 10
-81.47131469309959
 20
-33.00000000000001
 30
0
 11
-82.22131469309959
 21
-33.00000000000001
 31
0
  0
LINE
  8
1
 62
7
 10
-82.22131469309959
 20
-33.00000000000001
 30
0
 11
-83.3760152314788
 21
-35.00000000000001
 31
0
  0
LINE
  8
1
 62
7
 10
-92.9213146930996
 20
-32.85000000000001
 30
0
 11
-92.9213146930996
 21
-33.00000000000001
 31
0
  0
LINE
  8
1
 62
7
 10
-92.9213146930996
 20
-33.00000000000001
 30
0
 11
-96.3213146930995
 21
-33.00000000000001
 31
0
  0
LINE
  8
1
 62
7
 10
-91.22131469309959
 20
-35.00000000000001
 30
0
 11
-91.72131469309959
 21
-34.50000000000001
 31
0
  0
LINE
  8
1
 62
7
 10
139.3898275506891
 20
-31
 30
0
 11
152.2149342616304
 21
-31
 31
0
  0
LINE
  8
1
 62
7
 10
154.1417507414172
 20
-29.07318352021326
 30
0
 11
154.1417507414172
 21
-16.19627137654152
 31
0
  0
LINE
  8
1
 62
7
 10
92.14175074141721
 20
-29.07318352021325
 30
0
 11
92.14175074141721
 21
-16.0168853162594
 31
0
  0
LINE
  8
1
 62
7
 10
94.06856722120395
 20
-31
 30
0
 11
106.9185524782525
 21
-31
 31
0
  0
LINE
  8
1
 62
7
 10
154.1417507414172
 20
29.07318352021326
 30
0
 11
154.1417507414172
 21
16.2151962128369
 31
0
  0
LINE
  8
1
 62
7
 10
152.2149342616304
 20
31
 30
0
 11
139.361519333644
 21
31
 31
0
  0
LINE
  8
1
 62
7
 10
92.14175074141721
 20
29.07318352021326
 30
0
 11
92.14175074141721
 21
16.2851077193713
 31
0
  0
LINE
  8
1
 62
7
 10
94.06856722120395
 20
31
 30
0
 11
107.0008351567251
 21
31
 31
0
  0
LINE
  8
1
 62
7
 10
121.1417507414172
 20
34.94281041931231
 30
0
 11
121.1417507414172
 21
58.65437706482631
 31
0
  0
LINE
  8
1
 62
7
 10
123.1417507414172
 20
58.65437706482631
 30
0
 11
123.1417507414172
 21
35
 31
0
  0
LINE
  8
1
 62
7
 10
125.1417507414172
 20
58.65437706482631
 30
0
 11
125.1417507414172
 21
34.94281041931229
 31
0
  0
LINE
  8
1
 62
7
 10
122.1417507414172
 20
61.65437706482631
 30
0
 11
122.1417507414172
 21
58.65437706482629
 31
0
  0
LINE
  8
1
 62
7
 10
123.6417507414172
 20
61.65437706482631
 30
0
 11
123.6417507414172
 21
58.65437706482631
 31
0
  0
LINE
  8
1
 62
7
 10
124.6417507414172
 20
61.65437706482631
 30
0
 11
124.6417507414172
 21
58.65437706482631
 31
0
  0
LINE
  8
1
 62
7
 10
121.6417507414172
 20
58.65437706482631
 30
0
 11
121.6417507414172
 21
61.65437706482631
 31
0
  0
LINE
  8
1
 62
7
 10
122.6417507414172
 20
58.65437706482631
 30
0
 11
122.6417507414172
 21
61.65437706482631
 31
0
  0
LINE
  8
1
 62
7
 10
124.1417507414172
 20
58.65437706482632
 30
0
 11
124.1417507414172
 21
61.65437706482631
 31
0
  0
LINE
  8
1
 62
7
 10
121.1417507414172
 20
58.65437706482631
 30
0
 11
125.1417507414172
 21
58.65437706482631
 31
0
  0
LINE
  8
1
 62
7
 10
124.1417507414172
 20
-18.61251780630392
 30
0
 11
124.1417507414172
 21
-21.8819660112501
 31
0
  0
LINE
  8
1
 62
7
 10
122.1417507414172
 20
-27.38748219369606
 30
0
 11
122.1417507414172
 21
-24.11803398874988
 31
0
  0
LINE
  8
1
 62
7
 10
124.1417507414172
 20
-24.11803398874989
 30
0
 11
124.1417507414172
 21
-27.38748219369607
 31
0
  0
LINE
  8
1
 62
7
 10
122.1417507414172
 20
-21.8819660112501
 30
0
 11
122.1417507414172
 21
-18.61251780630394
 31
0
  0
LINE
  8
1
 62
7
 10
106.5228374927678
 20
8.44023349936753
 30
0
 11
103.691412290927
 21
10.07495760184062
 31
0
  0
LINE
  8
1
 62
7
 10
99.92349541598246
 20
14.55976650063248
 30
0
 11
102.7549206178233
 21
12.92504239815938
 31
0
  0
LINE
  8
1
 62
7
 10
101.7549206178233
 20
11.19299159059052
 30
0
 11
98.92349541598244
 21
12.8277156930636
 31
0
  0
LINE
  8
1
 62
7
 10
104.691412290927
 20
11.80700840940949
 30
0
 11
107.5228374927678
 21
10.17228430693642
 31
0
  0
LINE
  8
1
 62
7
 10
138.7606639900666
 20
10.1722843069364
 30
0
 11
141.5920891919074
 21
11.80700840940949
 31
0
  0
LINE
  8
1
 62
7
 10
147.360006066852
 20
12.82771569306359
 30
0
 11
144.5285808650111
 21
11.1929915905905
 31
0
  0
LINE
  8
1
 62
7
 10
143.5285808650112
 20
12.92504239815938
 30
0
 11
146.360006066852
 21
14.55976650063247
 31
0
  0
LINE
  8
1
 62
7
 10
142.5920891919074
 20
10.07495760184061
 30
0
 11
139.7606639900666
 21
8.44023349936753
 31
0
  0
LINE
  8
1
 62
7
 10
-77.32131469309958
 20
23.10352761804101
 30
0
 11
-77.32131469309958
 21
-32.75
 31
0
  0
LINE
  8
1
 62
7
 10
-77.2213146930997
 20
32
 30
0
 11
-77.2213146930997
 21
26
 31
0
  0
LINE
  8
1
 62
7
 10
-77.7213146930997
 20
32
 30
0
 11
-76.42131469309969
 21
32
 31
0
  0
LINE
  8
1
 62
7
 10
-76.42131469309969
 20
26
 30
0
 11
-76.12131469309971
 21
26.3
 31
0
  0
LINE
  8
1
 62
7
 10
-76.42131469309969
 20
32
 30
0
 11
-76.12131469309971
 21
31.7
 31
0
  0
LINE
  8
1
 62
7
 10
-77.7213146930997
 20
26
 30
0
 11
-76.42131469309969
 21
26
 31
0
  0
LINE
  8
1
 62
7
 10
-76.12131469309971
 20
31.7
 30
0
 11
-76.12131469309971
 21
26.3
 31
0
  0
LINE
  8
1
 62
7
 10
-77.7213146930997
 20
23
 30
0
 11
-77.7213146930997
 21
-32.75
 31
0
  0
LINE
  8
1
 62
7
 10
-78.12131469309971
 20
23
 30
0
 11
-77.7213146930997
 21
23
 31
0
  0
LINE
  8
1
 62
7
 10
-78.12131469309971
 20
32.75
 30
0
 11
-77.7213146930997
 21
32.75
 31
0
  0
LINE
  8
1
 62
7
 10
-77.7213146930997
 20
32.75
 30
0
 11
-77.7213146930997
 21
24.54548132206253
 31
0
  0
LINE
  8
1
 62
7
 10
-77.7213146930997
 20
24.54548132206253
 30
0
 11
-77.32131469309958
 21
23.10352761804101
 31
0
  0
LINE
  8
1
 62
7
 10
-77.7213146930997
 20
24.54548132206253
 30
0
 11
-77.32131469309958
 21
23.10352761804101
 31
0
  0
LINE
  8
1
 62
7
 10
-77.7213146930997
 20
23
 30
0
 11
-78.12131469309971
 21
24.49282032302754
 31
0
  0
LINE
  8
1
 62
7
 10
-77.7213146930997
 20
-32.75
 30
0
 11
-77.32131469309958
 21
-32.75
 31
0
  0
LINE
  8
1
 62
7
 10
-81.12131469309971
 20
33.25
 30
0
 11
-81.12131469309971
 21
-33.25
 31
0
  0
LINE
  8
1
 62
7
 10
-77.32131469309958
 20
-18.5
 30
0
 11
-76.82131469309958
 21
-18.5
 31
0
  0
LINE
  8
1
 62
7
 10
-76.32131469309958
 20
-15
 30
0
 11
-76.32131469309958
 21
-31
 31
0
  0
LINE
  8
1
 62
7
 10
-76.82131469309958
 20
-27.5
 30
0
 11
-77.32131469309958
 21
-27.5
 31
0
  0
LINE
  8
1
 62
7
 10
-75.82131469309958
 20
-14.5
 30
0
 11
-71.62131469309949
 21
-14.5
 31
0
  0
LINE
  8
1
 62
7
 10
-75.82131469309958
 20
-31.5
 30
0
 11
-71.12131469309949
 21
-31.5
 31
0
  0
LINE
  8
1
 62
7
 10
-71.12131469309949
 20
21.49790203766916
 30
0
 11
-71.12131469309949
 21
-32
 31
0
  0
LINE
  8
1
 62
7
 10
-70.62131469309949
 20
-32.5
 30
0
 11
-66.32131469309958
 21
-32.5
 31
0
  0
LINE
  8
1
 62
7
 10
-65.82131469309958
 20
-32.00000000000001
 30
0
 11
-65.82131469309958
 21
-31.5
 31
0
  0
LINE
  8
1
 62
7
 10
-65.82131469309958
 20
-31.5
 30
0
 11
-64.32131469309958
 21
-31.5
 31
0
  0
LINE
  8
1
 62
7
 10
-63.82131469309958
 20
-31
 30
0
 11
-63.82131469309958
 21
-16
 31
0
  0
LINE
  8
1
 62
7
 10
-63.12131469309959
 20
21.49790203766916
 30
0
 11
-63.12131469309959
 21
-15.5
 31
0
  0
LINE
  8
1
 62
7
 10
-63.12131469309959
 20
-15.5
 30
0
 11
-63.32131469309958
 21
-15.5
 31
0
  0
LINE
  8
1
 62
7
 10
-69.62131469309949
 20
22.99790203766916
 30
0
 11
-64.62131469309959
 21
22.99790203766916
 31
0
  0
LINE
  8
1
 62
3
  6
DASHDOT
 10
-63.12131469309959
 20
0
 30
0
 11
-58.12131469309959
 21
0
 31
0
  0
LINE
  8
1
 62
7
 10
-71.12131469309949
 20
20
 30
0
 11
-75.82131469309958
 21
20
 31
0
  0
LINE
  8
1
 62
7
 10
-76.32131469309958
 20
19.5
 30
0
 11
-76.32131469309958
 21
3.500000000000007
 31
0
  0
LINE
  8
1
 62
7
 10
-76.32131469309958
 20
16
 30
0
 11
-77.32131469309958
 21
16
 31
0
  0
LINE
  8
1
 62
7
 10
-71.12131469309949
 20
3.000000000000007
 30
0
 11
-75.82131469309958
 21
3.000000000000007
 31
0
  0
LINE
  8
1
 62
7
 10
-76.32131469309958
 20
7.000000000000007
 30
0
 11
-77.32131469309958
 21
7.000000000000007
 31
0
  0
LINE
  8
1
 62
7
 10
-77.32131469309958
 20
-8
 30
0
 11
-71.12131469309949
 21
-8
 31
0
  0
LINE
  8
1
 62
7
 10
-81.12131469309971
 20
33.25
 30
0
 11
-78.12131469309971
 21
33.25
 31
0
  0
LINE
  8
1
 62
7
 10
-81.12131469309971
 20
-33.25
 30
0
 11
-78.12131469309971
 21
-33.25
 31
0
  0
LINE
  8
1
 62
7
 10
-78.12131469309971
 20
-23
 30
0
 11
-77.7213146930997
 21
-23
 31
0
  0
ARC
  8
1
 62
7
 10
40.40000000000011
 20
21.49790203766916
 30
0
 40
1.5
 50
0
 51
90
  0
ARC
  8
1
 62
7
 10
35.40000000000011
 20
21.49790203766916
 30
0
 40
1.5
 50
90
 51
180
  0
ARC
  8
1
 62
7
 10
29.20000000000011
 20
-31
 30
0
 40
0.5
 50
180
 51
270
  0
ARC
  8
1
 62
7
 10
33.40000000000011
 20
-32
 30
0
 40
0.5
 50
0
 51
90
  0
ARC
  8
1
 62
7
 10
34.40000000000011
 20
-32
 30
0
 40
0.5
 50
180
 51
270
  0
ARC
  8
1
 62
7
 10
38.7000000000001
 20
-32
 30
0
 40
0.5
 50
270
 51
0
  0
ARC
  8
1
 62
7
 10
39.7000000000001
 20
-32
 30
0
 40
0.5
 50
90
 51
180
  0
ARC
  8
1
 62
7
 10
40.70000000000011
 20
-31
 30
0
 40
0.5
 50
270
 51
0
  0
ARC
  8
1
 62
7
 10
29.20000000000011
 20
-15
 30
0
 40
0.5
 50
90
 51
180
  0
ARC
  8
1
 62
7
 10
33.40000000000011
 20
-14
 30
0
 40
0.5
 50
270
 51
0
  0
ARC
  8
1
 62
7
 10
41.70000000000009
 20
-16
 30
0
 40
0.5
 50
90
 51
180
  0
ARC
  8
1
 62
7
 10
29.20000000000011
 20
19.5
 30
0
 40
0.5
 50
90
 51
180
  0
ARC
  8
1
 62
7
 10
8.600000000000094
 20
25.32705142481886
 30
0
 40
7.673600187485293
 50
89.25331786975396
 51
149.3268830031397
  0
ARC
  8
1
 62
7
 10
7.400000000000091
 20
24.44030201515901
 30
0
 40
6.826739170956722
 50
217.7202620008302
 51
240.4763293493897
  0
ARC
  8
1
 62
7
 10
7.500000000000099
 20
-24.00000000000001
 30
0
 40
6.500000000000028
 50
122.2042275039724
 51
147.7957724960278
  0
ARC
  8
1
 62
7
 10
8.600000000000094
 20
-25.32705142481887
 30
0
 40
7.673600187485274
 50
210.6731169968603
 51
270.7466821302461
  0
ARC
  8
1
 62
3
  6
DASHDOT
 10
123.1417507414172
 20
0
 30
0
 40
19.99999999999996
 50
287.4999999999999
 51
312.5
  0
ARC
  8
1
 62
3
  6
DASHDOT
 10
123.1417507414172
 20
0
 30
0
 40
19.99999999999999
 50
227.5
 51
252.5000000000002
  0
ARC
  8
1
 62
3
  6
DASHDOT
 10
123.1417507414172
 20
0
 30
0
 40
19.99999999999994
 50
167.4999999999999
 51
192.5
  0
ARC
  8
1
 62
3
  6
DASHDOT
 10
123.1417507414172
 20
0
 30
0
 40
19.99999999999996
 50
107.4999999999998
 51
132.5
  0
ARC
  8
1
 62
3
  6
DASHDOT
 10
123.1417507414172
 20
0
 30
0
 40
19.99999999999998
 50
47.50000000000001
 51
72.50000000000013
  0
ARC
  8
1
 62
3
  6
DASHDOT
 10
123.1417507414172
 20
0
 30
0
 40
19.99999999999992
 50
347.5
 51
12.50000000000004
  0
ARC
  8
1
 62
3
  6
DASHDOT
 10
123.1417507414172
 20
0
 30
0
 40
37.5
 50
307.4999999999999
 51
322.5000000000001
  0
ARC
  8
1
 62
3
  6
DASHDOT
 10
123.1417507414172
 20
0
 30
0
 40
37.50000000000004
 50
217.5
 51
232.5000000000001
  0
ARC
  8
1
 62
3
  6
DASHDOT
 10
123.1417507414172
 20
0
 30
0
 40
37.50000000000007
 50
127.5000000000001
 51
142.5
  0
ARC
  8
1
 62
3
  6
DASHDOT
 10
123.1417507414172
 20
0
 30
0
 40
37.50000000000009
 50
37.49999999999995
 51
52.50000000000008
  0
ARC
  8
1
 62
7
 10
140.0480308242203
 20
-24.78260869565218
 30
0
 40
6.99999999999995
 50
124.3011527567907
 51
173.9809376868209
  0
ARC
  8
1
 62
7
 10
106.2354706586141
 20
-24.78260869565217
 30
0
 40
6.999999999999994
 50
6.019062313179139
 51
55.69884724320841
  0
ARC
  8
1
 62
7
 10
132.6099079385113
 20
-16.47282608695653
 30
0
 40
4.00000000000002
 50
214.5816672934462
 51
299.88918270491
  0
ARC
  8
1
 62
7
 10
113.6735935443231
 20
-16.47282608695652
 30
0
 40
3.999999999999981
 50
240.1108172950899
 51
325.4183327065537
  0
ARC
  8
1
 62
7
 10
93.22624199753173
 20
-2.24996368737628
 30
0
 40
6.999999999999991
 50
4.301152756791707
 51
53.98093768682091
  0
ARC
  8
1
 62
7
 10
110.1325220803348
 20
27.03257238302847
 30
0
 40
6.999999999999963
 50
246.0190623131798
 51
295.6988472432086
  0
ARC
  8
1
 62
7
 10
104.1417862794428
 20
0.0367483837703233
 30
0
 40
3.999999999999978
 50
94.58166729344687
 51
179.8891827049103
  0
ARC
  8
1
 62
7
 10
113.6099434765369
 20
16.43607770318622
 30
0
 40
4.000000000000015
 50
120.11081729509
 51
205.4183327065539
  0
ARC
  8
1
 62
7
 10
136.1509794024996
 20
27.03257238302847
 30
0
 40
7.000000000000019
 50
244.3011527567916
 51
293.9809376868201
  0
ARC
  8
1
 62
7
 10
153.0572594853027
 20
-2.249963687376287
 30
0
 40
7.000000000000047
 50
126.0190623131797
 51
175.6988472432084
  0
ARC
  8
1
 62
7
 10
142.1417152033916
 20
0.03674838377030909
 30
0
 40
3.999999999999992
 50
0.1108172950899243
 51
85.4183327065532
  0
ARC
  8
1
 62
7
 10
-64.62131469309959
 20
21.49790203766916
 30
0
 40
1.5
 50
0
 51
90
  0
ARC
  8
1
 62
7
 10
-69.62131469309949
 20
21.49790203766916
 30
0
 40
1.5
 50
90
 51
180
  0
ARC
  8
1
 62
7
 10
-75.82131469309958
 20
19.5
 30
0
 40
0.5
 50
90
 51
180
  0
ARC
  8
1
 62
7
 10
-75.82131469309958
 20
3.500000000000007
 30
0
 40
0.5
 50
180
 51
270
  0
ARC
  8
1
 62
7
 10
-63.32131469309958
 20
-16
 30
0
 40
0.5
 50
90
 51
180
  0
ARC
  8
1
 62
7
 10
-64.32131469309958
 20
-31
 30
0
 40
0.5
 50
270
 51
0
  0
ARC
  8
1
 62
7
 10
-66.32131469309958
 20
-32
 30
0
 40
0.5
 50
270
 51
0
  0
ARC
  8
1
 62
7
 10
-70.62131469309949
 20
-32
 30
0
 40
0.5
 50
180
 51
270
  0
ARC
  8
1
 62
7
 10
-75.82131469309958
 20
-31
 30
0
 40
0.5
 50
180
 51
270
  0
ARC
  8
1
 62
7
 10
-76.82131469309958
 20
-28
 30
0
 40
0.5
 50
0
 51
90
  0
ARC
  8
1
 62
7
 10
-76.82131469309958
 20
-18
 30
0
 40
0.5
 50
270
 51
0
  0
ARC
  8
1
 62
7
 10
-75.82131469309958
 20
-15
 30
0
 40
0.5
 50
90
 51
180
  0
ARC
  8
1
 62
7
 10
-71.62131469309949
 20
-14
 30
0
 40
0.5
 50
270
 51
0
  0
ARC
  8
1
 62
7
 10
132.6735580062975
 20
16.43607770318621
 30
0
 40
4.000000000000041
 50
334.581667293447
 51
59.88918270491018
  0
ARC
  8
1
 62
7
 10
123.1417507414172
 20
-23
 30
0
 40
9.999999999999986
 50
186.019062313179
 51
248.2491952073318
  0
ARC
  8
1
 62
7
 10
123.1417507414172
 20
0
 30
0
 40
32.50000000000002
 50
143.4527993006247
 51
156.5472006993752
  0
ARC
  8
1
 62
7
 10
143.0603350284593
 20
11.5
 30
0
 40
9.999999999999961
 50
306.0190623131787
 51
8.249195207331848
  0
ARC
  8
1
 62
7
 10
123.1417507414172
 20
0
 30
0
 40
32.49999999999996
 50
23.45279930062482
 51
36.54720069937524
  0
ARC
  8
1
 62
7
 10
123.1417507414172
 20
0
 30
0
 40
32.49999999999999
 50
263.4527993006248
 51
276.5472006993752
  0
ARC
  8
1
 62
7
 10
103.2231664543751
 20
11.50000000000001
 30
0
 40
10.00000000000001
 50
66.01906231317875
 51
128.2491952073316
  0
ARC
  8
1
 62
7
 10
-96.42131469309949
 20
25.32705142481888
 30
0
 40
7.673600187485271
 50
89.25331786975406
 51
149.3268830031399
  0
ARC
  8
1
 62
7
 10
-96.42131469309949
 20
-25.32705142481888
 30
0
 40
7.673600187485292
 50
210.6731169968602
 51
270.746682130246
  0
ARC
  8
1
 62
7
 10
123.1417507414172
 20
0
 30
0
 40
42.49999999999995
 50
313.1628971402916
 51
316.8371028597083
  0
ARC
  8
1
 62
7
 10
123.1417507414172
 20
0
 30
0
 40
42.49999999999999
 50
223.1628971402917
 51
226.8371028597084
  0
ARC
  8
1
 62
7
 10
123.1417507414172
 20
0
 30
0
 40
42.50000000000001
 50
43.16289714029164
 51
46.83710285970842
  0
ARC
  8
1
 62
7
 10
123.1417507414172
 20
0
 30
0
 40
42.49999999999999
 50
133.1628971402917
 51
136.8371028597083
  0
ARC
  8
1
 62
7
 10
102.0179342011442
 20
0.1446258922062
 30
0
 40
3.755939980097613
 50
149.9231400129181
 51
166.5853321174238
  0
ARC
  8
1
 62
7
 10
115.8515857263901
 20
15.63380932638221
 30
0
 40
8.000000000000004
 50
115
 51
146.1185357162585
  0
ARC
  8
1
 62
7
 10
114.2667507414172
 20
15.37195091717378
 30
0
 40
15.00000000000003
 50
119.9999999999999
 51
157.5775104558023
  0
ARC
  8
1
 62
7
 10
114.2667507414172
 20
-15.37195091717379
 30
0
 40
15.00000000000012
 50
239.9999999999998
 51
277.5775104558021
  0
ARC
  8
1
 62
7
 10
113.2475572143616
 20
-14.13037276398511
 30
0
 40
8.000000000000048
 50
234.9999999999999
 51
266.1185357162593
  0
ARC
  8
1
 62
7
 10
140.3261092834998
 20
-1.503436562397113
 30
0
 40
8.000000000000059
 50
354.9999999999998
 51
26.11853571625853
  0
ARC
  8
1
 62
7
 10
140.8917507414172
 20
0
 30
0
 40
15
 50
359.9999999999997
 51
37.577510455802
  0
ARC
  8
1
 62
7
 10
105.9573921993346
 20
-1.503436562397098
 30
0
 40
8.000000000000036
 50
161.6434950203076
 51
185
  0
ARC
  8
1
 62
7
 10
133.0359442684727
 20
-14.13037276398512
 30
0
 40
7.999999999999998
 50
273.8814642837415
 51
305.0000000000001
  0
ARC
  8
1
 62
7
 10
132.0167507414172
 20
-15.37195091717381
 30
0
 40
15.00000000000002
 50
262.4224895441975
 51
299.9999999999998
  0
ARC
  8
1
 62
7
 10
130.4319157564443
 20
15.63380932638222
 30
0
 40
7.999999999999966
 50
33.88146428374142
 51
65.00000000000006
  0
ARC
  8
1
 62
7
 10
132.0167507414172
 20
15.37195091717381
 30
0
 40
14.99999999999998
 50
22.42248954419775
 51
59.99999999999997
  0
ARC
  8
1
 62
7
 10
123.1417507414172
 20
0
 30
0
 40
32.75000000000001
 50
59.99999999999999
 51
120
  0
ARC
  8
1
 62
7
 10
123.1417507414172
 20
0
 30
0
 40
32.75000000000003
 50
74.99999999999992
 51
79.99999999999994
  0
ARC
  8
1
 62
7
 10
123.1417507414172
 20
0
 30
0
 40
25.25000000000003
 50
64.99999999999993
 51
115.0000000000001
  0
ARC
  8
1
 62
7
 10
123.1417507414172
 20
0
 30
0
 40
25.25000000000005
 50
185
 51
234.9999999999999
  0
ARC
  8
1
 62
7
 10
123.1417507414172
 20
0
 30
0
 40
25.25000000000002
 50
304.9999999999999
 51
354.9999999999999
  0
ARC
  8
1
 62
7
 10
123.1417507414172
 20
0
 30
0
 40
32.75000000000011
 50
180
 51
239.9999999999999
  0
ARC
  8
1
 62
7
 10
123.1417507414172
 20
0
 30
0
 40
32.75000000000009
 50
299.9999999999999
 51
359.9999999999999
  0
ARC
  8
1
 62
7
 10
132.0167507414172
 20
15.37195091717381
 30
0
 40
14.99999999999998
 50
22.42248954419775
 51
59.99999999999997
  0
ARC
  8
1
 62
7
 10
105.3917507414172
 20
-7.105427357601002e-015
 30
0
 40
15.00000000000011
 50
142.4224895441974
 51
180.0000000000001
  0
ARC
  8
1
 62
7
 10
123.1417507414172
 20
0
 30
0
 40
23
 50
59.88918270491011
 51
120.1108172950899
  0
ARC
  8
1
 62
7
 10
123.1417507414172
 20
0
 30
0
 40
22.99999999999999
 50
179.8891827049101
 51
240.1108172950899
  0
ARC
  8
1
 62
7
 10
123.1417507414172
 20
0
 30
0
 40
23
 50
299.8891827049101
 51
0
  0
ARC
  8
1
 62
7
 10
123.1417507414172
 20
-23
 30
0
 40
10.00000000000001
 50
291.7508047926682
 51
353.9809376868209
  0
ARC
  8
1
 62
7
 10
123.1417507414172
 20
-23
 30
0
 40
7.499999999999981
 50
34.58166729344679
 51
145.4183327065532
  0
ARC
  8
1
 62
7
 10
103.2231664543751
 20
11.50000000000001
 30
0
 40
9.999999999999982
 50
171.7508047926682
 51
233.9809376868209
  0
ARC
  8
1
 62
7
 10
103.2231664543751
 20
11.50000000000001
 30
0
 40
7.50000000000002
 50
274.5816672934466
 51
25.41833270655302
  0
ARC
  8
1
 62
7
 10
143.0603350284593
 20
11.5
 30
0
 40
9.999999999999982
 50
51.75080479266831
 51
113.9809376868213
  0
ARC
  8
1
 62
7
 10
143.0603350284593
 20
11.5
 30
0
 40
7.499999999999973
 50
154.5816672934465
 51
265.4183327065535
  0
ARC
  8
1
 62
7
 10
123.1417507414172
 20
0
 30
0
 40
23.00000000000002
 50
355.6988472432085
 51
0.1108172950899237
  0
CIRCLE
  8
1
 62
7
 10
149.6582550359127
 20
-26.51650429449553
 30
0
 40
2.25
  0
CIRCLE
  8
1
 62
7
 10
96.62524644692168
 20
-26.51650429449552
 30
0
 40
2.25
  0
CIRCLE
  8
1
 62
7
 10
149.6582550359128
 20
26.51650429449553
 30
0
 40
2.25
  0
CIRCLE
  8
1
 62
7
 10
96.62524644692168
 20
26.51650429449553
 30
0
 40
2.25
  0
CIRCLE
  8
1
 62
7
 10
123.1417507414172
 20
0
 30
0
 40
35.00000000000001
  0
CIRCLE
  8
1
 62
7
 10
123.1417507414172
 20
0
 30
0
 40
8.000000000000014
  0
CIRCLE
  8
1
 62
7
 10
123.1417507414172
 20
0
 30
0
 40
6.000000000000014
  0
CIRCLE
  8
1
 62
7
 10
123.1417507414172
 20
0
 30
0
 40
33.25000000000001
  0
CIRCLE
  8
1
 62
7
 10
148.2564874511658
 20
-14.5
 30
0
 40
3
  0
CIRCLE
  8
1
 62
7
 10
98.02701403166846
 20
-14.49999999999999
 30
0
 40
3.000000000000043
  0
CIRCLE
  8
1
 62
7
 10
123.1417507414172
 20
28.99999999999999
 30
0
 40
3
  0
CIRCLE
  8
1
 62
7
 10
123.1417507414172
 20
0
 30
0
 40
11.50000000000001
  0
CIRCLE
  8
1
 62
7
 10
123.1417507414172
 20
0
 30
0
 40
14.00000000000001
  0
CIRCLE
  8
1
 62
3
 10
113.1417507414172
 20
17.32050807568877
 30
0
 40
2.5
  0
CIRCLE
  8
1
 62
7
 10
113.1417507414172
 20
17.32050807568877
 30
0
 40
1.900000000000006
  0
CIRCLE
  8
1
 62
3
 10
103.1417507414172
 20
0
 30
0
 40
2.5
  0
CIRCLE
  8
1
 62
7
 10
103.1417507414172
 20
0
 30
0
 40
1.900000000000006
  0
CIRCLE
  8
1
 62
3
 10
113.1417507414172
 20
-17.32050807568877
 30
0
 40
2.5
  0
CIRCLE
  8
1
 62
7
 10
113.1417507414172
 20
-17.32050807568877
 30
0
 40
1.900000000000006
  0
CIRCLE
  8
1
 62
3
 10
133.1417507414172
 20
-17.32050807568877
 30
0
 40
2.5
  0
CIRCLE
  8
1
 62
7
 10
133.1417507414172
 20
-17.32050807568877
 30
0
 40
1.899999999999977
  0
CIRCLE
  8
1
 62
3
 10
143.1417507414172
 20
0
 30
0
 40
2.5
  0
CIRCLE
  8
1
 62
7
 10
143.1417507414172
 20
0
 30
0
 40
1.899999999999977
  0
CIRCLE
  8
1
 62
3
 10
133.1417507414172
 20
17.32050807568877
 30
0
 40
2.5
  0
CIRCLE
  8
1
 62
7
 10
133.1417507414172
 20
17.32050807568877
 30
0
 40
1.899999999999977
  0
CIRCLE
  8
1
 62
7
 10
123.1417507414172
 20
-23
 30
0
 40
4.5
  0
CIRCLE
  8
1
 62
7
 10
123.1417507414172
 20
-23
 30
0
 40
1.5
  0
CIRCLE
  8
1
 62
7
 10
103.2231664543751
 20
11.50000000000001
 30
0
 40
4.5
  0
CIRCLE
  8
1
 62
7
 10
103.2231664543751
 20
11.50000000000001
 30
0
 40
1.5
  0
CIRCLE
  8
1
 62
7
 10
143.0603350284593
 20
11.5
 30
0
 40
4.5
  0
CIRCLE
  8
1
 62
7
 10
143.0603350284593
 20
11.5
 30
0
 40
1.5
  0
CIRCLE
  8
1
 62
7
 10
103.2231664543751
 20
11.50000000000001
 30
0
 40
6.5
  0
CIRCLE
  8
1
 62
7
 10
143.0603350284593
 20
11.5
 30
0
 40
6.5
  0
CIRCLE
  8
1
 62
7
 10
123.1417507414172
 20
-23
 30
0
 40
6.500000000000014
  0
TEXT
  8
1
 62
7
 10
-110.1746513072186
 20
68.676561726348
 30
0
 40
3.5
  1
DC2201
 41
0.9
  7
SIMPLEX
  0
TEXT
  8
1
 62
7
 10
-110.1746513072186
 20
73.926561726348
 30
0
 40
3.5
  1
TMAF 0.6
 41
0.9
  7
SIMPLEX
  0
ENDSEC
  0
EOF
