  0
SECTION
  2
HEADER
  9
$ACADVER
  1
AC1009
  9
$INSBASE
 10
0
 20
0
  9
$EXTMIN
 10
-92.2189013493747
 20
-66.18287827463668
  9
$EXTMAX
 10
188.3809793482592
 20
87.57370245397712
  9
$LIMMIN
 10
-92.2189013493747
 20
-66.18287827463668
  9
$LIMMAX
 10
188.3809793482592
 20
87.57370245397712
  9
$VIEWCTR
 10
10
 20
10
  9
$VIEWSIZE
 40
10
  9
$SNAPMODE
 70
0
  9
$SNAPUNIT
 10
1
 20
1
  9
$SNAPBASE
 10
0
 20
0
  9
$SNAPANG
 50
0
  9
$SNAPSTYLE
 70
0
  9
$SNAPISOPAIR
 70
0
  9
$GRIDMODE
 70
0
  9
$GRIDUNIT
 10
0
 20
0
  9
$ORTHOMODE
 70
0
  9
$REGENMODE
 70
1
  9
$FILLMODE
 70
1
  9
$QTEXTMODE
 70
0
  9
$DRAGMODE
 70
2
  9
$LTSCALE
 40
1
  9
$OSMODE
 70
0
  9
$ATTMODE
 70
1
  9
$TEXTSIZE
 40
3.5
  9
$TRACEWID
 40
0.5
  9
$TEXTSTYLE
  7
STANDARD
  9
$CLAYER
  8
0
  9
$CELTYPE
  6
BYLAYER
  9
$CECOLOR
 62
256
  9
$DIMSCALE
 40
1
  9
$DIMASZ
 40
0.18
  9
$DIMEXO
 40
0.0625
  9
$DIMDLI
 40
0.38
  9
$DIMRND
 40
0
  9
$DIMDLE
 40
0
  9
$DIMEXE
 40
0.18
  9
$DIMTP
 40
0
  9
$DIMTM
 40
0
  9
$DIMTXT
 40
0.18
  9
$DIMCEN
 40
0.09
  9
$DIMTSZ
 40
0
  9
$DIMTOL
 70
0
  9
$DIMLIM
 70
0
  9
$DIMTIH
 70
1
  9
$DIMTOH
 70
1
  9
$DIMSE1
 70
0
  9
$DIMSE2
 70
0
  9
$DIMTAD
 70
0
  9
$DIMZIN
 70
0
  9
$DIMBLK
  1

  9
$DIMASO
 70
1
  9
$DIMSHO
 70
1
  9
$DIMPOST
  1

  9
$DIMAPOST
  1

  9
$DIMALT
 70
0
  9
$DIMALTD
 70
2
  9
$DIMALTF
 40
25.4
  9
$DIMLFAC
 40
1
  9
$DIMTOFL
 70
0
  9
$DIMTVP
 40
0
  9
$DIMTIX
 70
0
  9
$DIMSOXD
 70
0
  9
$DIMSAH
 70
0
  9
$DIMBLK1
  1

  9
$DIMBLK2
  1

  9
$DIMSTYLE
  2
*UNNAMED
  9
$DIMCLRD
 70
0
  9
$DIMCLRE
 70
0
  9
$DIMCLRT
 70
0
  9
$DIMTFAC
 40
1
  9
$DIMGAP
 40
0.09
  9
$LUNITS
 70
2
  9
$LUPREC
 70
4
  9
$AXISMODE
 70
0
  9
$AXISUNIT
 10
0
 20
0
  9
$SKETCHINC
 40
0.1
  9
$FILLETRAD
 40
2
  9
$AUNITS
 70
0
  9
$AUPREC
 70
0
  9
$MENU
  1
ACAD
  9
$ELEVATION
 40
0
  9
$THICKNESS
 40
0
  9
$VIEWDIR
 10
0
 20
0
 30
1
  9
$LIMCHECK
 70
0
  9
$BLIPMODE
 70
1
  9
$CHAMFERA
 40
0
  9
$CHAMFERB
 40
0
  9
$FASTZOOM
 70
1
  9
$SKPOLY
 70
0
  9
$ANGBASE
 50
0
  9
$ANGDIR
 70
0
  9
$PDMODE
 70
0
  9
$PDSIZE
 40
0
  9
$PLINEWID
 40
0
  9
$COORDS
 70
2
  0
ENDSEC
  0
SECTION
  2
TABLES
  0
TABLE
  2
DIMSTYLE
 70
0
  0
ENDTAB
  0
TABLE
  2
LTYPE
 70
9
  0
LTYPE
  2
CONTINUOUS
 70
64
  3
Solid line
 72
65
 73
0
 40
0
  0
LTYPE
  2
BORDER
 70
64
  3
__ __ . __ __ .
 72
65
 73
6
 40
12.92236292686472
 49
3.69210369338992
 49
-1.84605184669496
 49
3.69210369338992
 49
-1.84605184669496
 49
0
 49
-1.84605184669496
  0
LTYPE
  2
CENTER
 70
64
  3
____ _ ____ _
 72
65
 73
4
 40
14.76841477355968
 49
9.230259233474801
 49
-1.84605184669496
 49
1.84605184669496
 49
-1.84605184669496
  0
LTYPE
  2
DASHDOT
 70
64
  3
__ . __ . __ .
 72
65
 73
4
 40
7.38420738677984
 49
3.69210369338992
 49
-1.84605184669496
 49
0
 49
-1.84605184669496
  0
LTYPE
  2
DASHED
 70
64
  3
__ __ __ __ __
 72
65
 73
2
 40
5.53815554008488
 49
3.69210369338992
 49
-1.84605184669496
  0
LTYPE
  2
DIVIDE
 70
64
  3
__ . . __ . . 
 72
65
 73
6
 40
9.230259233474801
 49
3.69210369338992
 49
-1.84605184669496
 49
0
 49
-1.84605184669496
 49
0
 49
-1.84605184669496
  0
LTYPE
  2
DOT
 70
64
  3
..............
 72
65
 73
4
 40
3.69210369338992
 49
0
 49
-1.84605184669496
 49
0
 49
-1.84605184669496
  0
LTYPE
  2
HIDDEN
 70
64
  3
_ _ _ _ _ _ _
 72
65
 73
2
 40
2.76907777004244
 49
1.84605184669496
 49
-0.92302592334748
  0
LTYPE
  2
PHANTOM
 70
64
  3
_____ _ _ _____ _ _ 
 72
65
 73
6
 40
18.4605184669496
 49
9.230259233474801
 49
-1.84605184669496
 49
1.84605184669496
 49
-1.84605184669496
 49
1.84605184669496
 49
-1.84605184669496
  0
ENDTAB
  0
TABLE
  2
LAYER
 70
3
  0
LAYER
  2
1
 70
0
 62
7
  6
CONTINUOUS
  0
LAYER
  2
0
 70
0
 62
7
  6
CONTINUOUS
  0
ENDTAB
  0
TABLE
  2
STYLE
 70
4
  0
STYLE
  2
STANDARD
 70
0
 40
0
 41
1
 50
0
 71
0
 42
3.5
  3
txt
  4

  0
STYLE
  2
SIMPLEX
 70
0
 40
0
 41
1
 50
0
 71
0
 42
3.5
  3
simplex
  4

  0
STYLE
  2
COMPLEX
 70
0
 40
0
 41
1
 50
0
 71
0
 42
3.5
  3
complex
  4

  0
STYLE
  2
ITALIC
 70
0
 40
0
 41
1
 50
0
 71
0
 42
3.5
  3
italic
  4

  0
ENDTAB
  0
TABLE
  2
VIEW
 70
0
  0
ENDTAB
  0
ENDSEC
  0
SECTION
  2
BLOCKS
  0
ENDSEC
  0
SECTION
  2
ENTITIES
  0
LINE
  8
1
 62
7
 10
145.0309793482592
 20
67.50136134306703
 30
0
 11
145.0309793482592
 21
62.50136134306704
 31
0
  0
LINE
  8
1
 62
7
 10
144.1809793482592
 20
62.50136134306704
 30
0
 11
144.1809793482592
 21
67.50136134306703
 31
0
  0
LINE
  8
1
 62
7
 10
142.5809793482592
 20
67.50136134306703
 30
0
 11
142.5809793482592
 21
62.50136134306704
 31
0
  0
LINE
  8
1
 62
7
 10
141.7309793482592
 20
62.50136134306704
 30
0
 11
141.7309793482592
 21
67.50136134306703
 31
0
  0
LINE
  8
1
 62
7
 10
36.18109865062529
 20
-41.18287827463668
 30
0
 11
36.68109865062529
 21
-41.18287827463668
 31
0
  0
LINE
  8
1
 62
7
 10
32.0810986506253
 20
-53.93287827463668
 30
0
 11
32.08109865062529
 21
-21.18287827463668
 31
0
  0
LINE
  8
1
 62
7
 10
32.0810986506253
 20
-53.93287827463668
 30
0
 11
36.18109865062529
 21
-53.93287827463668
 31
0
  0
LINE
  8
1
 62
7
 10
32.08109865062529
 20
31.56712172536331
 30
0
 11
36.18109865062529
 21
31.56712172536331
 31
0
  0
LINE
  8
1
 62
7
 10
32.08109865062529
 20
-1.182878274636689
 30
0
 11
32.08109865062529
 21
31.56712172536331
 31
0
  0
LINE
  8
1
 62
7
 10
42.0810986506253
 20
-1.182878274636689
 30
0
 11
42.0810986506253
 21
16.81712172536331
 31
0
  0
LINE
  8
1
 62
7
 10
48.0810986506253
 20
-21.18287827463668
 30
0
 11
31.58109865062529
 21
-21.18287827463668
 31
0
  0
LINE
  8
1
 62
7
 10
31.58109865062529
 20
-1.1828782746367
 30
0
 11
48.0810986506253
 21
-1.182878274636689
 31
0
  0
LINE
  8
1
 62
3
  6
DASHDOT
 10
39.0810986506253
 20
12.8171217253633
 30
0
 11
54.0810986506253
 21
12.8171217253633
 31
0
  0
LINE
  8
1
 62
7
 10
51.0810986506253
 20
10.41712172536329
 30
0
 11
42.0810986506253
 21
10.41712172536329
 31
0
  0
LINE
  8
1
 62
7
 10
42.0810986506253
 20
15.21712172536331
 30
0
 11
51.0810986506253
 21
15.21712172536331
 31
0
  0
LINE
  8
1
 62
3
 10
51.0810986506253
 20
9.8171217253633
 30
0
 11
42.0810986506253
 21
9.8171217253633
 31
0
  0
LINE
  8
1
 62
3
 10
42.0810986506253
 20
15.8171217253633
 30
0
 11
51.0810986506253
 21
15.8171217253633
 31
0
  0
LINE
  8
1
 62
7
 10
42.0810986506253
 20
-24.6828782746367
 30
0
 11
48.0810986506253
 21
-24.6828782746367
 31
0
  0
LINE
  8
1
 62
7
 10
48.0810986506253
 20
2.3171217253633
 30
0
 11
42.0810986506253
 21
2.3171217253633
 31
0
  0
LINE
  8
1
 62
3
  6
DASHDOT
 10
51.0810986506253
 20
-11.18287827463668
 30
0
 11
56.0810986506253
 21
-11.18287827463668
 31
0
  0
LINE
  8
1
 62
7
 10
48.0810986506253
 20
-27.1828782746367
 30
0
 11
51.0810986506253
 21
-27.1828782746367
 31
0
  0
LINE
  8
1
 62
7
 10
48.0810986506253
 20
4.8171217253633
 30
0
 11
48.0810986506253
 21
-27.1828782746367
 31
0
  0
LINE
  8
1
 62
7
 10
51.0810986506253
 20
4.8171217253633
 30
0
 11
48.0810986506253
 21
4.8171217253633
 31
0
  0
LINE
  8
1
 62
7
 10
38.18109865062529
 20
11.31712172536331
 30
0
 11
37.18109865062529
 21
11.31712172536331
 31
0
  0
LINE
  8
1
 62
7
 10
38.18109865062529
 20
12.31712172536331
 30
0
 11
38.18109865062529
 21
-1.1828782746367
 31
0
  0
LINE
  8
1
 62
7
 10
42.0810986506253
 20
13.31712172536331
 30
0
 11
39.18109865062529
 21
13.31712172536331
 31
0
  0
LINE
  8
1
 62
7
 10
44.0810986506253
 20
18.81712172536331
 30
0
 11
49.0810986506253
 21
18.8171217253633
 31
0
  0
LINE
  8
1
 62
7
 10
42.0810986506253
 20
-31.68287827463668
 30
0
 11
42.0810986506253
 21
-21.18287827463668
 31
0
  0
LINE
  8
1
 62
7
 10
51.0810986506253
 20
-31.68287827463668
 30
0
 11
51.0810986506253
 21
16.8171217253633
 31
0
  0
LINE
  8
1
 62
7
 10
50.8810986506253
 20
-31.68287827463668
 30
0
 11
51.0810986506253
 21
-31.68287827463668
 31
0
  0
LINE
  8
1
 62
7
 10
50.8810986506253
 20
-48.68287827463667
 30
0
 11
50.8810986506253
 21
-31.68287827463668
 31
0
  0
LINE
  8
1
 62
7
 10
47.8810986506253
 20
-50.68287827463668
 30
0
 11
48.8810986506253
 21
-50.68287827463668
 31
0
  0
LINE
  8
1
 62
7
 10
47.8810986506253
 20
-51.18287827463668
 30
0
 11
47.8810986506253
 21
-50.68287827463668
 31
0
  0
LINE
  8
1
 62
7
 10
42.5810986506253
 20
-51.68287827463668
 30
0
 11
47.3810986506253
 21
-51.68287827463668
 31
0
  0
LINE
  8
1
 62
7
 10
42.0810986506253
 20
-50.68287827463668
 30
0
 11
42.0810986506253
 21
-51.18287827463668
 31
0
  0
LINE
  8
1
 62
7
 10
39.18109865062529
 20
-50.68287827463668
 30
0
 11
42.0810986506253
 21
-50.68287827463668
 31
0
  0
LINE
  8
1
 62
7
 10
42.0810986506253
 20
-31.68287827463668
 30
0
 11
39.18109865062529
 21
-31.68287827463668
 31
0
  0
LINE
  8
1
 62
7
 10
38.18109865062529
 20
-46.18287827463667
 30
0
 11
37.18109865062529
 21
-46.18287827463667
 31
0
  0
LINE
  8
1
 62
7
 10
37.18109865062529
 20
-36.18287827463668
 30
0
 11
38.18109865062529
 21
-36.18287827463668
 31
0
  0
LINE
  8
1
 62
7
 10
36.18109865062529
 20
18.8171217253633
 30
0
 11
36.68109865062529
 21
18.8171217253633
 31
0
  0
LINE
  8
1
 62
7
 10
36.68109865062529
 20
18.8171217253633
 30
0
 11
36.68109865062529
 21
-1.182878274636689
 31
0
  0
LINE
  8
1
 62
7
 10
36.68109865062529
 20
11.3171217253633
 30
0
 11
32.08109865062529
 21
11.3171217253633
 31
0
  0
LINE
  8
1
 62
7
 10
36.68109865062529
 20
-33.68287827463671
 30
0
 11
32.0810986506253
 21
-33.68287827463671
 31
0
  0
LINE
  8
1
 62
7
 10
36.18109865062529
 20
30.8171217253633
 30
0
 11
36.68109865062529
 21
30.8171217253633
 31
0
  0
LINE
  8
1
 62
7
 10
36.68109865062529
 20
30.8171217253633
 30
0
 11
36.68109865062529
 21
20.74897337794143
 31
0
  0
LINE
  8
1
 62
7
 10
36.68109865062529
 20
20.74897337794143
 30
0
 11
37.18109865062529
 21
18.88294797415698
 31
0
  0
LINE
  8
1
 62
7
 10
37.18109865062529
 20
18.88294797415698
 30
0
 11
37.18109865062529
 21
-1.182878274636689
 31
0
  0
LINE
  8
1
 62
7
 10
36.18109865062529
 20
20.68314712914773
 30
0
 11
36.68109865062529
 21
18.8171217253633
 31
0
  0
LINE
  8
1
 62
7
 10
36.18109865062529
 20
21.8171217253633
 30
0
 11
36.68109865062529
 21
21.8171217253633
 31
0
  0
LINE
  8
1
 62
7
 10
36.18109865062529
 20
31.56712172536331
 30
0
 11
36.18109865062529
 21
18.8171217253633
 31
0
  0
LINE
  8
1
 62
7
 10
36.68109865062529
 20
29.91712172536329
 30
0
 11
38.0810986506253
 21
29.91712172536329
 31
0
  0
LINE
  8
1
 62
7
 10
38.5810986506253
 20
29.41712172536329
 30
0
 11
38.5810986506253
 21
23.21712172536331
 31
0
  0
LINE
  8
1
 62
7
 10
36.68109865062529
 20
22.71712172536331
 30
0
 11
38.0810986506253
 21
22.71712172536331
 31
0
  0
LINE
  8
1
 62
7
 10
37.18109865062529
 20
29.91712172536329
 30
0
 11
37.18109865062529
 21
22.71712172536331
 31
0
  0
LINE
  8
1
 62
7
 10
38.5810986506253
 20
29.41712172536329
 30
0
 11
38.0810986506253
 21
29.91712172536329
 31
0
  0
LINE
  8
1
 62
7
 10
38.0810986506253
 20
22.71712172536331
 30
0
 11
38.5810986506253
 21
23.21712172536331
 31
0
  0
LINE
  8
1
 62
7
 10
36.68109865062529
 20
-53.1828782746367
 30
0
 11
37.18109865062529
 21
-53.1828782746367
 31
0
  0
LINE
  8
1
 62
7
 10
36.68109865062529
 20
-48.18287827463671
 30
0
 11
37.18109865062529
 21
-48.18287827463671
 31
0
  0
LINE
  8
1
 62
7
 10
36.68109865062529
 20
-34.9328782746367
 30
0
 11
37.18109865062529
 21
-34.9328782746367
 31
0
  0
LINE
  8
1
 62
7
 10
19.08109865062529
 20
-33.68287827463661
 30
0
 11
19.08109865062529
 21
-28.6828782746367
 31
0
  0
LINE
  8
1
 62
7
 10
19.08109865062529
 20
-54.33287827463666
 30
0
 11
19.08109865062529
 21
-56.18287827463668
 31
0
  0
LINE
  8
1
 62
7
 10
17.98109865062534
 20
-53.33287827463663
 30
0
 11
17.98109865062534
 21
-53.68287827463663
 31
0
  0
LINE
  8
1
 62
7
 10
25.98109865062533
 20
-53.33287827463663
 30
0
 11
17.98109865062534
 21
-53.33287827463663
 31
0
  0
LINE
  8
1
 62
7
 10
27.08109865062529
 20
-54.33287827463666
 30
0
 11
27.08109865062529
 21
-33.68287827463661
 31
0
  0
LINE
  8
1
 62
7
 10
27.08109865062529
 20
-54.33287827463666
 30
0
 11
19.08109865062529
 21
-54.33287827463666
 31
0
  0
LINE
  8
1
 62
7
 10
25.98109865062533
 20
-34.68287827463663
 30
0
 11
25.98109865062533
 21
-53.33287827463663
 31
0
  0
LINE
  8
1
 62
7
 10
17.98109865062534
 20
-53.68287827463663
 30
0
 11
12.29010356446737
 21
-53.68287827463663
 31
0
  0
LINE
  8
1
 62
7
 10
27.08109865062529
 20
-33.68287827463661
 30
0
 11
19.08109865062529
 21
-33.68287827463661
 31
0
  0
LINE
  8
1
 62
7
 10
19.08109865062529
 20
11.3171217253633
 30
0
 11
27.08109865062529
 21
11.3171217253633
 31
0
  0
LINE
  8
1
 62
7
 10
19.08109865062529
 20
11.3171217253633
 30
0
 11
19.08109865062529
 21
6.3171217253633
 31
0
  0
LINE
  8
1
 62
7
 10
10.51157551361137
 20
12.31712172536331
 30
0
 11
25.98109865062533
 21
12.31712172536331
 31
0
  0
LINE
  8
1
 62
7
 10
25.98109865062533
 20
30.96712172536331
 30
0
 11
25.98109865062533
 21
12.31712172536331
 31
0
  0
LINE
  8
1
 62
7
 10
19.08109865062529
 20
31.96712172536332
 30
0
 11
27.08109865062529
 21
31.96712172536332
 31
0
  0
LINE
  8
1
 62
7
 10
17.98109865062534
 20
30.96712172536331
 30
0
 11
25.98109865062533
 21
30.96712172536331
 31
0
  0
LINE
  8
1
 62
7
 10
17.98109865062534
 20
31.31712172536331
 30
0
 11
17.98109865062534
 21
30.96712172536331
 31
0
  0
LINE
  8
1
 62
7
 10
31.58109865062529
 20
-31.68287827463668
 30
0
 11
30.78109865062527
 21
-31.68287827463668
 31
0
  0
LINE
  8
1
 62
7
 10
31.58109865062529
 20
9.317121725363311
 30
0
 11
30.78109865062527
 21
9.317121725363311
 31
0
  0
LINE
  8
1
 62
7
 10
19.08109865062529
 20
-28.6828782746367
 30
0
 11
9.581098650625286
 21
-28.6828782746367
 31
0
  0
LINE
  8
1
 62
7
 10
19.08109865062529
 20
6.3171217253633
 30
0
 11
9.581098650625286
 21
6.3171217253633
 31
0
  0
LINE
  8
1
 62
7
 10
5.78109865062531
 20
29.96635519513408
 30
0
 11
8.081098650625336
 21
29.96635519513408
 31
0
  0
LINE
  8
1
 62
7
 10
5.78109865062531
 20
-66.18287827463668
 30
0
 11
8.081098650625336
 21
-66.18287827463668
 31
0
  0
LINE
  8
1
 62
7
 10
5.78109865062531
 20
-62.93287827463668
 30
0
 11
8.081098650625336
 21
-62.93287827463668
 31
0
  0
LINE
  8
1
 62
3
  6
DASHDOT
 10
2.78109865062531
 20
-60.18287827463668
 30
0
 11
11.08109865062534
 21
-60.18287827463668
 31
0
  0
LINE
  8
1
 62
7
 10
5.78109865062531
 20
-57.43287827463668
 30
0
 11
8.081098650625336
 21
-57.43287827463668
 31
0
  0
LINE
  8
1
 62
7
 10
5.78109865062531
 20
-33.6828782746367
 30
0
 11
8.081098650625336
 21
-33.6828782746367
 31
0
  0
LINE
  8
1
 62
7
 10
5.78109865062531
 20
11.3171217253633
 30
0
 11
8.081098650625336
 21
11.3171217253633
 31
0
  0
LINE
  8
1
 62
7
 10
31.58109865062529
 20
-1.682878274636685
 30
0
 11
9.581098650625286
 21
-1.682878274636685
 31
0
  0
LINE
  8
1
 62
7
 10
14.83109865062533
 20
59.89346643801553
 30
0
 11
14.83109865062533
 21
31.31712172536332
 31
0
  0
LINE
  8
1
 62
7
 10
17.33109865062534
 20
59.89346643801553
 30
0
 11
17.33109865062534
 21
31.31712172536331
 31
0
  0
LINE
  8
1
 62
7
 10
14.83109865062533
 20
59.89346643801553
 30
0
 11
17.33109865062534
 21
59.89346643801553
 31
0
  0
LINE
  8
1
 62
7
 10
16.83857709214514
 20
63.19671351559033
 30
0
 11
16.83857709214514
 21
59.89346643801553
 31
0
  0
LINE
  8
1
 62
7
 10
16.35013727187917
 20
63.19671351559033
 30
0
 11
16.35013727187917
 21
59.89346643801553
 31
0
  0
LINE
  8
1
 62
7
 10
15.75808900489017
 20
63.19671351559033
 30
0
 11
15.75808900489017
 21
59.89346643801553
 31
0
  0
LINE
  8
1
 62
7
 10
15.32885401132307
 20
63.19671351559033
 30
0
 11
15.32885401132307
 21
59.89346643801553
 31
0
  0
LINE
  8
1
 62
7
 10
19.08109865062529
 20
33.81712172536333
 30
0
 11
19.08109865062529
 21
31.96712172536332
 31
0
  0
LINE
  8
1
 62
7
 10
31.68109865062527
 20
31.31712172536331
 30
0
 11
30.78109865062527
 21
31.31712172536331
 31
0
  0
LINE
  8
1
 62
7
 10
30.78109865062527
 20
31.31712172536331
 30
0
 11
29.33772297765123
 21
33.81712172536333
 31
0
  0
LINE
  8
1
 62
7
 10
29.33772297765123
 20
33.81712172536333
 30
0
 11
19.08109865062529
 21
33.81712172536333
 31
0
  0
LINE
  8
1
 62
7
 10
31.68109865062527
 20
11.81712172536331
 30
0
 11
30.78109865062527
 21
11.81712172536331
 31
0
  0
LINE
  8
1
 62
7
 10
30.78109865062527
 20
11.81712172536331
 30
0
 11
30.78109865062527
 21
9.317121725363311
 31
0
  0
LINE
  8
1
 62
7
 10
30.78109865062527
 20
9.317121725363311
 30
0
 11
31.58109865062529
 21
9.317121725363311
 31
0
  0
LINE
  8
1
 62
7
 10
31.68109865062527
 20
31.31712172536331
 30
0
 11
31.68109865062527
 21
11.81712172536331
 31
0
  0
LINE
  8
1
 62
7
 10
27.08109865062529
 20
31.96712172536332
 30
0
 11
27.08109865062529
 21
11.3171217253633
 31
0
  0
LINE
  8
1
 62
7
 10
31.58109865062529
 20
-31.68287827463668
 30
0
 11
31.58109865062529
 21
9.317121725363311
 31
0
  0
LINE
  8
1
 62
7
 10
30.78109865062527
 20
-31.68287827463668
 30
0
 11
30.78109865062527
 21
-34.18287827463668
 31
0
  0
LINE
  8
1
 62
7
 10
30.78109865062527
 20
-34.18287827463668
 30
0
 11
31.68109865062527
 21
-34.18287827463668
 31
0
  0
LINE
  8
1
 62
7
 10
31.68109865062527
 20
-34.18287827463668
 30
0
 11
31.68109865062527
 21
-53.68287827463669
 31
0
  0
LINE
  8
1
 62
7
 10
19.08109865062529
 20
-56.18287827463668
 30
0
 11
29.3377229776512
 21
-56.18287827463668
 31
0
  0
LINE
  8
1
 62
7
 10
29.3377229776512
 20
-56.18287827463668
 30
0
 11
30.78109865062527
 21
-53.68287827463668
 31
0
  0
LINE
  8
1
 62
7
 10
30.78109865062527
 20
-53.68287827463668
 30
0
 11
31.68109865062527
 21
-53.68287827463669
 31
0
  0
LINE
  8
1
 62
7
 10
48.0810986506253
 20
-18.68287827463668
 30
0
 11
9.581098650625286
 21
-18.68287827463668
 31
0
  0
LINE
  8
1
 62
7
 10
5.78109865062531
 20
29.96635519513408
 30
0
 11
5.78109865062531
 21
-66.18287827463668
 31
0
  0
LINE
  8
1
 62
7
 10
8.081098650625336
 20
29.96635519513408
 30
0
 11
8.081098650625336
 21
-66.18287827463668
 31
0
  0
LINE
  8
1
 62
7
 10
31.58109865062529
 20
-31.68287827463668
 30
0
 11
30.78109865062527
 21
-31.68287827463668
 31
0
  0
LINE
  8
1
 62
3
  6
DASHDOT
 10
5.78109865062531
 20
-11.1828782746367
 30
0
 11
0.7810986506253101
 21
-11.1828782746367
 31
0
  0
LINE
  8
1
 62
7
 10
9.581098650625286
 20
-3.682878274636678
 30
0
 11
48.0810986506253
 21
-3.682878274636678
 31
0
  0
LINE
  8
1
 62
7
 10
9.581098650625286
 20
6.3171217253633
 30
0
 11
9.581098650625286
 21
-28.6828782746367
 31
0
  0
LINE
  8
1
 62
7
 10
38.18109865062529
 20
-32.68287827463668
 30
0
 11
38.18109865062529
 21
-49.68287827463667
 31
0
  0
LINE
  8
1
 62
7
 10
37.18109865062529
 20
-21.18287827463668
 30
0
 11
37.18109865062529
 21
-53.1828782746367
 31
0
  0
LINE
  8
1
 62
7
 10
36.68109865062529
 20
-21.18287827463668
 30
0
 11
36.68109865062529
 21
-53.1828782746367
 31
0
  0
LINE
  8
1
 62
7
 10
36.18109865062529
 20
-53.93287827463668
 30
0
 11
36.18109865062529
 21
-41.18287827463668
 31
0
  0
LINE
  8
1
 62
7
 10
12.29010356446737
 20
31.31712172536331
 30
0
 11
17.98109865062534
 21
31.31712172536331
 31
0
  0
LINE
  8
1
 62
7
 10
10.94329706566749
 20
-34.68287827463661
 30
0
 11
25.98109865062533
 21
-34.68287827463663
 31
0
  0
LINE
  8
1
 62
7
 10
142.3809793482592
 20
-42.91492908220564
 30
0
 11
142.3809793482592
 21
-46.59120518783273
 31
0
  0
LINE
  8
1
 62
7
 10
142.3809793482592
 20
-35.77455136144075
 30
0
 11
142.3809793482593
 21
-39.45082746706785
 31
0
  0
LINE
  8
1
 62
7
 10
144.3809793482592
 20
-39.45082746706785
 30
0
 11
144.3809793482592
 21
-35.77455136144075
 31
0
  0
LINE
  8
1
 62
7
 10
144.3809793482592
 20
-46.59120518783273
 30
0
 11
144.3809793482592
 21
-42.91492908220564
 31
0
  0
LINE
  8
1
 62
7
 10
116.400217234726
 20
5.549172532932211
 30
0
 11
113.2164687359272
 21
7.38731058574573
 31
0
  0
LINE
  8
1
 62
7
 10
122.5839657335248
 20
1.97898367254974
 30
0
 11
119.400217234726
 21
3.817121725363311
 31
0
  0
LINE
  8
1
 62
7
 10
118.400217234726
 20
2.08507091779447
 30
0
 11
121.5839657335249
 21
0.2469328649809004
 31
0
  0
LINE
  8
1
 62
7
 10
112.2164687359273
 20
5.655259778176891
 30
0
 11
115.400217234726
 21
3.817121725363311
 31
0
  0
LINE
  8
1
 62
7
 10
171.3617414617924
 20
3.817121725363311
 30
0
 11
174.5454899605912
 21
5.655259778176891
 31
0
  0
LINE
  8
1
 62
7
 10
165.1779929629936
 20
0.2469328649809004
 30
0
 11
168.3617414617924
 21
2.08507091779447
 31
0
  0
LINE
  8
1
 62
7
 10
167.3617414617924
 20
3.817121725363311
 30
0
 11
164.1779929629936
 21
1.97898367254974
 31
0
  0
LINE
  8
1
 62
7
 10
173.5454899605912
 20
7.38731058574573
 30
0
 11
170.3617414617924
 21
5.549172532932211
 31
0
  0
LINE
  8
1
 62
7
 10
143.3809793482592
 20
62.50136134306704
 30
0
 11
143.3809793482592
 21
33.81712172536332
 31
0
  0
LINE
  8
1
 62
3
  6
DASHDOT
 10
143.3809793482592
 20
-6.18287827463668
 30
0
 11
143.3809793482592
 21
-16.18287827463668
 31
0
  0
LINE
  8
1
 62
3
  6
DASHDOT
 10
148.3809793482592
 20
-11.18287827463668
 30
0
 11
138.3809793482592
 21
-11.18287827463668
 31
0
  0
LINE
  8
1
 62
7
 10
140.8809793482592
 20
62.50136134306704
 30
0
 11
140.8809793482593
 21
33.7476236143919
 31
0
  0
LINE
  8
1
 62
7
 10
145.8809793482592
 20
62.50136134306704
 30
0
 11
145.8809793482592
 21
33.74762361439189
 31
0
  0
LINE
  8
1
 62
7
 10
140.8809793482592
 20
62.50136134306704
 30
0
 11
145.8809793482592
 21
62.50136134306704
 31
0
  0
LINE
  8
1
 62
7
 10
106.7203737886125
 20
29.81712172536331
 30
0
 11
124.8311790012302
 21
29.81712172536331
 31
0
  0
LINE
  8
1
 62
7
 10
102.3809793482592
 20
25.47772728501004
 30
0
 11
102.3809793482592
 21
7.21223668636549
 31
0
  0
LINE
  8
1
 62
7
 10
161.9282163392506
 20
29.81712172536331
 30
0
 11
180.0415849079059
 21
29.81712172536331
 31
0
  0
LINE
  8
1
 62
7
 10
184.3809793482592
 20
25.47772728501004
 30
0
 11
184.3809793482592
 21
7.323351592648731
 31
0
  0
LINE
  8
1
 62
7
 10
102.3809793482592
 20
-47.84348383428341
 30
0
 11
102.3809793482592
 21
-29.60094251091927
 31
0
  0
LINE
  8
1
 62
7
 10
106.7203737886125
 20
-52.18287827463669
 30
0
 11
125.0054681018303
 21
-52.18287827463669
 31
0
  0
LINE
  8
1
 62
7
 10
184.3809793482592
 20
-47.84348383428341
 30
0
 11
184.3809793482592
 21
-29.5421054554246
 31
0
  0
LINE
  8
1
 62
7
 10
180.0415849079059
 20
-52.18287827463669
 30
0
 11
161.9415514767622
 21
-52.18287827463669
 31
0
  0
LINE
  8
1
 62
7
  6
DASHDOT
 10
140.8809793482592
 20
-1.682878274636685
 30
0
 11
145.8809793482592
 21
-1.682878274636685
 31
0
  0
LINE
  8
1
 62
7
  6
DASHDOT
 10
140.8809793482592
 20
-1.682878274636685
 30
0
 11
140.8809793482592
 21
-4.002817345342465
 31
0
  0
LINE
  8
1
 62
7
  6
DASHDOT
 10
145.8809793482592
 20
-1.682878274636685
 30
0
 11
145.8809793482592
 21
-4.104781772270968
 31
0
  0
LINE
  8
1
 62
3
  6
DASHDOT
 10
182.095075618224
 20
27.53121799532545
 30
0
 11
173.9633476345787
 21
19.39949001168016
 31
0
  0
LINE
  8
1
 62
3
  6
DASHDOT
 10
173.3809793482593
 20
-11.18287827463669
 30
0
 11
161.3809793482591
 21
-11.18287827463754
 31
0
  0
LINE
  8
1
 62
3
  6
DASHDOT
 10
104.666883078297
 20
27.53121799532815
 30
0
 11
112.7986110619423
 21
19.39949001168287
 31
0
  0
LINE
  8
1
 62
3
  6
DASHDOT
 10
104.6668830782943
 20
-49.89697454459882
 30
0
 11
112.7986110619396
 21
-41.76524656095353
 31
0
  0
LINE
  8
1
 62
3
  6
DASHDOT
 10
182.0950756182213
 20
-49.89697454460153
 30
0
 11
173.963347634576
 21
-41.76524656095626
 31
0
  0
LINE
  8
1
 62
3
  6
DASHDOT
 10
158.3809793482593
 20
14.79788383889655
 30
0
 11
152.3809793482599
 21
4.40557899348272
 31
0
  0
LINE
  8
1
 62
3
  6
DASHDOT
 10
128.3809793482591
 20
14.79788383889661
 30
0
 11
134.38097934826
 21
4.405578993483573
 31
0
  0
LINE
  8
1
 62
3
  6
DASHDOT
 10
113.3809793482591
 20
-11.18287827463666
 30
0
 11
125.3809793482593
 21
-11.18287827463581
 31
0
  0
LINE
  8
1
 62
3
  6
DASHDOT
 10
128.3809793482591
 20
-37.16364038816991
 30
0
 11
134.3809793482585
 21
-26.77133554275602
 31
0
  0
LINE
  8
1
 62
3
  6
DASHDOT
 10
158.3809793482593
 20
-37.16364038816994
 30
0
 11
152.3809793482584
 21
-26.7713355427569
 31
0
  0
LINE
  8
1
 62
7
 10
-73.91890134937472
 20
-53.53287827463664
 30
0
 11
-75.01890134937469
 21
-53.53287827463663
 31
0
  0
LINE
  8
1
 62
7
 10
-73.91890134937472
 20
-56.18287827463668
 30
0
 11
-73.91890134937472
 21
33.81712172536333
 31
0
  0
LINE
  8
1
 62
7
 10
-63.66227702234875
 20
33.81712172536333
 30
0
 11
-63.66227702234875
 21
-56.18287827463668
 31
0
  0
LINE
  8
1
 62
7
 10
-62.21890134937475
 20
-53.68287827463668
 30
0
 11
-62.21890134937475
 21
31.31712172536331
 31
0
  0
LINE
  8
1
 62
7
 10
-61.31890134937474
 20
-53.68287827463668
 30
0
 11
-61.31890134937474
 21
31.31712172536331
 31
0
  0
LINE
  8
1
 62
3
  6
DASHDOT
 10
-87.2189013493747
 20
-11.18287827463668
 30
0
 11
-92.2189013493747
 21
-11.18287827463668
 31
0
  0
LINE
  8
1
 62
7
 10
-80.10989643553265
 20
31.31712172536331
 30
0
 11
-75.01890134937467
 21
31.31712172536331
 31
0
  0
LINE
  8
1
 62
7
 10
-87.2189013493747
 20
29.96635519513411
 30
0
 11
-87.2189013493747
 21
-66.18287827463668
 31
0
  0
LINE
  8
1
 62
7
 10
-84.91890134937469
 20
29.96635519513411
 30
0
 11
-84.91890134937469
 21
-66.18287827463668
 31
0
  0
LINE
  8
1
 62
7
 10
-75.01890134937469
 20
-53.53287827463663
 30
0
 11
-75.01890134937467
 21
-53.68287827463656
 31
0
  0
LINE
  8
1
 62
7
 10
-75.01890134937467
 20
-53.68287827463656
 30
0
 11
-80.10989643553265
 21
-53.68287827463656
 31
0
  0
LINE
  8
1
 62
7
 10
-75.01890134937467
 20
31.16712172536331
 30
0
 11
-73.91890134937472
 21
31.16712172536331
 31
0
  0
LINE
  8
1
 62
7
 10
-75.01890134937467
 20
31.31712172536331
 30
0
 11
-75.01890134937467
 21
31.16712172536331
 31
0
  0
LINE
  8
1
 62
7
 10
-84.91890134937469
 20
29.96635519513411
 30
0
 11
-87.2189013493747
 21
29.96635519513411
 31
0
  0
LINE
  8
1
 62
3
  6
DASHDOT
 10
-90.2189013493747
 20
-60.18287827463668
 30
0
 11
-81.91890134937469
 21
-60.18287827463668
 31
0
  0
LINE
  8
1
 62
7
 10
-78.16890134937469
 20
57.16087931954474
 30
0
 11
-78.16890134937469
 21
31.31712172536331
 31
0
  0
LINE
  8
1
 62
7
 10
-75.66890134937469
 20
57.16087931954474
 30
0
 11
-75.66890134937469
 21
31.31712172536331
 31
0
  0
LINE
  8
1
 62
7
 10
-61.31890134937474
 20
31.31712172536331
 30
0
 11
-62.21890134937475
 21
31.31712172536331
 31
0
  0
LINE
  8
1
 62
7
 10
-62.21890134937475
 20
31.31712172536331
 30
0
 11
-63.66227702234875
 21
33.81712172536333
 31
0
  0
LINE
  8
1
 62
7
 10
-63.66227702234875
 20
33.81712172536333
 30
0
 11
-73.91890134937472
 21
33.81712172536333
 31
0
  0
LINE
  8
1
 62
7
 10
-73.91890134937472
 20
-56.18287827463668
 30
0
 11
-63.66227702234875
 21
-56.18287827463668
 31
0
  0
LINE
  8
1
 62
7
 10
-63.66227702234875
 20
-56.18287827463668
 30
0
 11
-62.21890134937475
 21
-53.68287827463668
 31
0
  0
LINE
  8
1
 62
7
 10
-62.21890134937475
 20
-53.68287827463668
 30
0
 11
-61.31890134937474
 21
-53.68287827463668
 31
0
  0
LINE
  8
1
 62
7
 10
-78.16890134937469
 20
57.16087931954474
 30
0
 11
-75.66890134937469
 21
57.16087931954474
 31
0
  0
LINE
  8
1
 62
7
 10
-76.41890134937469
 20
60.46412639711944
 30
0
 11
-76.41890134937469
 21
57.16087931954474
 31
0
  0
LINE
  8
1
 62
7
 10
-76.91890134937469
 20
60.46412639711944
 30
0
 11
-76.91890134937469
 21
57.16087931954474
 31
0
  0
LINE
  8
1
 62
7
 10
-77.41890134937469
 20
60.46412639711944
 30
0
 11
-77.41890134937469
 21
57.16087931954474
 31
0
  0
LINE
  8
1
 62
7
 10
-87.2189013493747
 20
-66.18287827463668
 30
0
 11
-84.91890134937469
 21
-66.18287827463668
 31
0
  0
LINE
  8
1
 62
7
 10
-56.81890134937473
 20
31.56712172536331
 30
0
 11
-56.81890134937473
 21
-53.93287827463668
 31
0
  0
LINE
  8
1
 62
7
 10
-55.81890134937473
 20
18.88294797415698
 30
0
 11
-55.81890134937473
 21
-53.1828782746367
 31
0
  0
LINE
  8
1
 62
7
 10
-56.31890134937473
 20
18.8171217253633
 30
0
 11
-56.31890134937473
 21
-53.1828782746367
 31
0
  0
LINE
  8
1
 62
7
 10
-56.31890134937473
 20
-53.1828782746367
 30
0
 11
-55.81890134937473
 21
-53.1828782746367
 31
0
  0
LINE
  8
1
 62
7
 10
-54.91890134937473
 20
22.71712172536331
 30
0
 11
-54.41890134937473
 21
23.21712172536331
 31
0
  0
LINE
  8
1
 62
7
 10
-54.41890134937473
 20
29.41712172536329
 30
0
 11
-54.91890134937473
 21
29.91712172536329
 31
0
  0
LINE
  8
1
 62
7
 10
-55.81890134937473
 20
29.91712172536329
 30
0
 11
-55.81890134937473
 21
22.71712172536331
 31
0
  0
LINE
  8
1
 62
7
 10
-56.31890134937473
 20
22.71712172536331
 30
0
 11
-54.91890134937473
 21
22.71712172536331
 31
0
  0
LINE
  8
1
 62
7
 10
-54.41890134937473
 20
29.41712172536329
 30
0
 11
-54.41890134937473
 21
23.21712172536331
 31
0
  0
LINE
  8
1
 62
7
 10
-56.31890134937473
 20
29.91712172536329
 30
0
 11
-54.91890134937473
 21
29.91712172536329
 31
0
  0
LINE
  8
1
 62
7
 10
-56.81890134937473
 20
20.68314712914773
 30
0
 11
-56.31890134937473
 21
18.8171217253633
 31
0
  0
LINE
  8
1
 62
7
 10
-56.31890134937473
 20
20.74897337794143
 30
0
 11
-55.81890134937473
 21
18.88294797415698
 31
0
  0
LINE
  8
1
 62
7
 10
-56.31890134937473
 20
30.8171217253633
 30
0
 11
-56.31890134937473
 21
20.74897337794143
 31
0
  0
LINE
  8
1
 62
7
 10
-56.81890134937473
 20
30.8171217253633
 30
0
 11
-56.31890134937473
 21
30.8171217253633
 31
0
  0
LINE
  8
1
 62
7
 10
-56.81890134937473
 20
18.8171217253633
 30
0
 11
-56.31890134937473
 21
18.8171217253633
 31
0
  0
LINE
  8
1
 62
7
 10
-55.81890134937473
 20
-36.18287827463668
 30
0
 11
-54.81890134937473
 21
-36.18287827463668
 31
0
  0
LINE
  8
1
 62
7
 10
-54.81890134937473
 20
-46.18287827463667
 30
0
 11
-55.81890134937473
 21
-46.18287827463667
 31
0
  0
LINE
  8
1
 62
7
 10
-50.91890134937471
 20
-31.68287827463668
 30
0
 11
-53.81890134937473
 21
-31.68287827463668
 31
0
  0
LINE
  8
1
 62
7
 10
-54.81890134937473
 20
-32.68287827463668
 30
0
 11
-54.81890134937473
 21
-49.68287827463667
 31
0
  0
LINE
  8
1
 62
7
 10
-53.81890134937473
 20
-50.68287827463668
 30
0
 11
-50.91890134937472
 21
-50.68287827463668
 31
0
  0
LINE
  8
1
 62
7
 10
-50.91890134937471
 20
16.81712172536331
 30
0
 11
-50.91890134937471
 21
-51.18287827463668
 31
0
  0
LINE
  8
1
 62
7
 10
-50.41890134937471
 20
-51.68287827463668
 30
0
 11
-45.61890134937471
 21
-51.68287827463668
 31
0
  0
LINE
  8
1
 62
7
 10
-45.11890134937471
 20
-51.18287827463668
 30
0
 11
-45.11890134937471
 21
-50.68287827463668
 31
0
  0
LINE
  8
1
 62
7
 10
-45.11890134937471
 20
-50.68287827463668
 30
0
 11
-44.11890134937471
 21
-50.68287827463668
 31
0
  0
LINE
  8
1
 62
7
 10
-42.11890134937471
 20
-48.68287827463667
 30
0
 11
-42.11890134937471
 21
-31.68287827463668
 31
0
  0
LINE
  8
1
 62
7
 10
-42.11890134937471
 20
-31.68287827463668
 30
0
 11
-41.91890134937471
 21
-31.68287827463668
 31
0
  0
LINE
  8
1
 62
7
 10
-41.91890134937471
 20
-31.68287827463668
 30
0
 11
-41.91890134937471
 21
16.8171217253633
 31
0
  0
LINE
  8
1
 62
7
 10
-48.91890134937471
 20
18.81712172536331
 30
0
 11
-43.91890134937471
 21
18.8171217253633
 31
0
  0
LINE
  8
1
 62
7
 10
-50.91890134937471
 20
13.31712172536331
 30
0
 11
-53.81890134937473
 21
13.31712172536331
 31
0
  0
LINE
  8
1
 62
7
 10
-54.81890134937473
 20
8.817121725363311
 30
0
 11
-55.81890134937473
 21
8.817121725363311
 31
0
  0
LINE
  8
1
 62
3
  6
DASHDOT
 10
-41.91890134937471
 20
-11.1828782746367
 30
0
 11
-36.91890134937471
 21
-11.18287827463668
 31
0
  0
LINE
  8
1
 62
7
 10
-56.31890134937473
 20
-41.18287827463668
 30
0
 11
-56.81890134937475
 21
-41.18287827463668
 31
0
  0
LINE
  8
1
 62
7
 10
-50.91890134937471
 20
-21.18287827463668
 30
0
 11
-55.81890134937473
 21
-21.18287827463668
 31
0
  0
LINE
  8
1
 62
7
 10
-54.81890134937472
 20
-4.682878274636685
 30
0
 11
-54.81890134937473
 21
12.31712172536331
 31
0
  0
LINE
  8
1
 62
7
 10
-53.81890134937472
 20
-5.682878274636685
 30
0
 11
-50.91890134937471
 21
-5.682878274636685
 31
0
  0
LINE
  8
1
 62
7
 10
-54.81890134937473
 20
-1.182878274636689
 30
0
 11
-55.81890134937472
 21
-1.182878274636689
 31
0
  0
LINE
  8
1
 62
7
 10
-60.91890134937476
 20
31.56712172536331
 30
0
 11
-56.81890134937473
 21
31.56712172536331
 31
0
  0
LINE
  8
1
 62
7
 10
-60.91890134937476
 20
-53.93287827463668
 30
0
 11
-56.81890134937473
 21
-53.93287827463668
 31
0
  0
LINE
  8
1
 62
7
 10
-60.91890134937476
 20
-53.93287827463668
 30
0
 11
-60.91890134937476
 21
31.56712172536331
 31
0
  0
ARC
  8
1
 62
7
 10
12.38871939673898
 20
-49.37634481161916
 30
0
 40
4.307662422992749
 50
179.7479627428853
 51
268.6882062496331
  0
ARC
  8
1
 62
7
 10
12.0219253643544
 20
15.98736754251751
 30
0
 40
3.968861427409241
 50
186.8141030816588
 51
247.6322506248016
  0
ARC
  8
1
 62
7
 10
12.38871939673898
 20
27.01058826234586
 30
0
 40
4.307662422992743
 50
91.3117937503669
 51
180.2520372571148
  0
ARC
  8
1
 62
7
 10
12.02192536435441
 20
-38.50235756156169
 30
0
 40
3.968861427409372
 50
105.7697817863058
 51
180.5597672422256
  0
ARC
  8
1
 62
7
 10
47.3810986506253
 20
-51.18287827463668
 30
0
 40
0.5
 50
270
 51
0
  0
ARC
  8
1
 62
7
 10
42.5810986506253
 20
-51.18287827463668
 30
0
 40
0.5
 50
180
 51
270
  0
ARC
  8
1
 62
7
 10
39.18109865062529
 20
-32.68287827463668
 30
0
 40
1
 50
90
 51
180
  0
ARC
  8
1
 62
7
 10
39.18109865062529
 20
-49.68287827463667
 30
0
 40
1
 50
180
 51
270
  0
ARC
  8
1
 62
7
 10
39.18109865062529
 20
12.31712172536331
 30
0
 40
1
 50
90
 51
180
  0
ARC
  8
1
 62
7
 10
48.8810986506253
 20
-48.68287827463667
 30
0
 40
2.000000000000007
 50
270
 51
0
  0
ARC
  8
1
 62
7
 10
44.0810986506253
 20
16.81712172536331
 30
0
 40
2
 50
90
 51
180
  0
ARC
  8
1
 62
7
 10
49.0810986506253
 20
16.8171217253633
 30
0
 40
2
 50
0
 51
90
  0
ARC
  8
1
 62
7
 10
122.2492829244034
 20
-45.14537827463672
 30
0
 40
10.00000000000008
 50
10.62045918564156
 51
58.1098476657145
  0
ARC
  8
1
 62
7
 10
131.0597923394701
 20
-31.77871160797005
 30
0
 40
6.000000000000068
 50
239.1105803057433
 51
322.6472553903832
  0
ARC
  8
1
 62
7
 10
155.7021663570484
 20
-31.77871160797005
 30
0
 40
5.999999999999996
 50
217.3527446096165
 51
300.8894196942556
  0
ARC
  8
1
 62
7
 10
164.512675772115
 20
-45.14537827463672
 30
0
 40
9.99999999999995
 50
121.8901523342856
 51
169.3795408143586
  0
ARC
  8
1
 62
7
 10
124.5344397841581
 20
24.09895765348322
 30
0
 40
9.999999999999968
 50
250.6204591856419
 51
298.1098476657145
  0
ARC
  8
1
 62
7
 10
131.7050579738769
 20
9.78549934642022
 30
0
 40
6.000000000000072
 50
119.110580305745
 51
202.6472553903838
  0
ARC
  8
1
 62
7
 10
119.3838709650876
 20
-11.55542256236023
 30
0
 40
5.999999999999982
 50
97.35274460961647
 51
180.8894196942559
  0
ARC
  8
1
 62
7
 10
103.4027433603024
 20
-12.50221420275656
 30
0
 40
9.999999999999876
 50
1.890152334285991
 51
49.37954081435918
  0
ARC
  8
1
 62
7
 10
183.3592153362161
 20
-12.50221420275662
 30
0
 40
10.00000000000003
 50
130.6204591856417
 51
178.1098476657142
  0
ARC
  8
1
 62
7
 10
167.3780877314308
 20
-11.55542256236028
 30
0
 40
5.999999999999978
 50
359.1105803057442
 51
82.64725539038352
  0
ARC
  8
1
 62
7
 10
155.0569007226416
 20
9.78549934642022
 30
0
 40
6.000000000000002
 50
337.3527446096162
 51
60.88941969425576
  0
ARC
  8
1
 62
7
 10
162.2275189123603
 20
24.09895765348322
 30
0
 40
9.999999999999993
 50
241.8901523342856
 51
289.3795408143588
  0
ARC
  8
1
 62
7
 10
133.6607593282231
 20
9.662200827206281
 30
0
 40
9.999999999999988
 50
115.0000000000001
 51
153.6526431029452
  0
ARC
  8
1
 62
7
 10
132.3809793482592
 20
7.869680608620971
 30
0
 40
20
 50
120
 51
160.1520394506768
  0
ARC
  8
1
 62
7
 10
132.3809793482591
 20
-30.23543715789432
 30
0
 40
20.00000000000001
 50
240
 51
280.1520394506769
  0
ARC
  8
1
 62
7
 10
130.188721312185
 20
-30.02337529328349
 30
0
 40
9.99999999999995
 50
235.0000000000001
 51
273.6526431029459
  0
ARC
  8
1
 62
7
 10
166.2934574043694
 20
-13.18746035783283
 30
0
 40
9.999999999999854
 50
354.9999999999996
 51
33.65264310294496
  0
ARC
  8
1
 62
7
 10
165.3809793482592
 20
-11.1828782746367
 30
0
 40
20
 50
0
 51
40.15203945067676
  0
ARC
  8
1
 62
7
 10
143.3809793482603
 20
-11.18287827463603
 30
0
 40
30.00000000000005
 50
300.8894196942533
 51
301.8901523342832
  0
ARC
  8
1
 62
7
 10
143.3809793482608
 20
-11.18287827463754
 30
0
 40
30.00000000000004
 50
240.8894196942523
 51
241.8901523342821
  0
ARC
  8
1
 62
7
 10
143.3809793482591
 20
-11.18287827463944
 30
0
 40
29.99999999999986
 50
180.8894196942505
 51
181.8901523342803
  0
ARC
  8
1
 62
7
 10
143.3809793482592
 20
-11.18287827463668
 30
0
 40
30.00000000000002
 50
181.8901523342856
 51
238.1098476657143
  0
ARC
  8
1
 62
7
 10
143.3809793482592
 20
-11.18287827463668
 30
0
 40
30.00000000000002
 50
60.88941969425581
 51
119.1105803057442
  0
ARC
  8
1
 62
7
 10
143.3809793482591
 20
-41.18287827463668
 30
0
 40
11.49999999999983
 50
190.6204591856417
 51
241.7825414127082
  0
ARC
  8
1
 62
7
 10
143.3809793482592
 20
-11.18287827463668
 30
0
 40
40.50000000000009
 50
262.2843230440967
 51
277.7156769559034
  0
ARC
  8
1
 62
7
 10
143.3809793482591
 20
-41.18287827463668
 30
0
 40
9.500000000000075
 50
37.35274460961512
 51
142.6472553903839
  0
ARC
  8
1
 62
7
 10
143.3809793482581
 20
-11.18287827463603
 30
0
 40
30.00000000000004
 50
238.1098476657167
 51
239.1105803057467
  0
ARC
  8
1
 62
7
 10
143.3809793482591
 20
-41.18287827463668
 30
0
 40
11.50000000000015
 50
298.2174585872927
 51
349.3795408143583
  0
ARC
  8
1
 62
7
 10
143.3809793482603
 20
-11.18287827463603
 30
0
 40
30.00000000000005
 50
300.8894196942533
 51
301.8901523342832
  0
ARC
  8
1
 62
7
 10
117.400217234726
 20
3.817121725363311
 30
0
 40
11.50000000000006
 50
70.62045918564098
 51
121.7825414127075
  0
ARC
  8
1
 62
7
 10
143.3809793482592
 20
-11.18287827463668
 30
0
 40
40.49999999999996
 50
142.2843230440967
 51
157.7156769559033
  0
ARC
  8
1
 62
7
 10
117.400217234726
 20
3.817121725363311
 30
0
 40
9.499999999999991
 50
277.352744609616
 51
22.6472553903837
  0
ARC
  8
1
 62
7
 10
143.3809793482592
 20
-11.18287827463668
 30
0
 40
30.00000000000002
 50
118.1098476657142
 51
119.1105803057442
  0
ARC
  8
1
 62
7
 10
117.400217234726
 20
3.817121725363311
 30
0
 40
11.49999999999997
 50
178.2174585872923
 51
229.3795408143584
  0
ARC
  8
1
 62
7
 10
143.3809793482591
 20
-11.18287827463944
 30
0
 40
29.99999999999986
 50
180.8894196942505
 51
181.8901523342803
  0
ARC
  8
1
 62
7
 10
169.3617414617924
 20
3.817121725363311
 30
0
 40
11.49999999999996
 50
310.620459185641
 51
1.782541412707728
  0
ARC
  8
1
 62
7
 10
143.3809793482592
 20
-11.18287827463668
 30
0
 40
40.49999999999999
 50
22.28432304409669
 51
37.71567695590321
  0
ARC
  8
1
 62
7
 10
169.3617414617924
 20
3.817121725363311
 30
0
 40
9.500000000000059
 50
157.3527446096161
 51
262.647255390384
  0
ARC
  8
1
 62
7
 10
143.3809793482591
 20
-11.18287827463944
 30
0
 40
30.00000000000005
 50
358.1098476657195
 51
359.1105803057494
  0
ARC
  8
1
 62
7
 10
169.3617414617924
 20
3.817121725363311
 30
0
 40
11.50000000000004
 50
58.21745858729214
 51
109.3795408143585
  0
ARC
  8
1
 62
7
 10
143.3809793482592
 20
-11.18287827463668
 30
0
 40
30.00000000000002
 50
60.88941969425581
 51
61.89015233428572
  0
ARC
  8
1
 62
7
 10
154.3809793482592
 20
7.869680608620971
 30
0
 40
20.00000000000013
 50
19.84796054932313
 51
60.00000000000003
  0
ARC
  8
1
 62
7
 10
143.3809793482592
 20
-11.18287827463668
 30
0
 40
42.00000000000002
 50
60.00000000000002
 51
120
  0
ARC
  8
1
 62
7
 10
143.3809793482592
 20
-11.18287827463668
 30
0
 40
33
 50
65.00000000000013
 51
115
  0
ARC
  8
1
 62
7
 10
153.1011993682952
 20
9.662200827206259
 30
0
 40
10.00000000000004
 50
26.34735689705487
 51
65.00000000000006
  0
ARC
  8
1
 62
7
 10
143.3809793482592
 20
-11.18287827463668
 30
0
 40
42.00000000000003
 50
299.9999999999999
 51
0
  0
ARC
  8
1
 62
7
 10
143.3809793482592
 20
-11.18287827463668
 30
0
 40
32.99999999999999
 50
304.9999999999999
 51
354.9999999999999
  0
ARC
  8
1
 62
7
 10
154.3809793482592
 20
-30.23543715789432
 30
0
 40
20.00000000000001
 50
259.8479605493234
 51
299.9999999999999
  0
ARC
  8
1
 62
7
 10
156.5732373843332
 20
-30.02337529328349
 30
0
 40
10.00000000000003
 50
266.3473568970551
 51
305.0000000000002
  0
ARC
  8
1
 62
7
 10
143.3809793482592
 20
-11.18287827463668
 30
0
 40
41.99999999999999
 50
180
 51
239.9999999999999
  0
ARC
  8
1
 62
7
 10
143.3809793482592
 20
-11.18287827463668
 30
0
 40
33.00000000000009
 50
185
 51
234.9999999999999
  0
ARC
  8
1
 62
7
 10
121.3809793482592
 20
-11.1828782746367
 30
0
 40
20.00000000000007
 50
139.8479605493229
 51
180
  0
ARC
  8
1
 62
7
 10
120.468501292149
 20
-13.18746035783282
 30
0
 40
10.00000000000003
 50
146.3473568970545
 51
184.9999999999999
  0
ARC
  8
1
 62
7
 10
143.3809793482592
 20
-11.18287827463668
 30
0
 40
30.00000000000006
 50
300.8894196942558
 51
359.4181438542612
  0
ARC
  8
1
 62
7
 10
143.3809793482592
 20
-11.18287827463668
 30
0
 40
54.99999999999996
 50
131.8018441931411
 51
138.1981558068589
  0
ARC
  8
1
 62
7
 10
143.3809793482592
 20
-11.18287827463668
 30
0
 40
55
 50
41.80184419314107
 51
48.19815580685894
  0
ARC
  8
1
 62
7
 10
143.3809793482592
 20
-11.18287827463668
 30
0
 40
54.99999999999999
 50
221.8018441931411
 51
228.198155806859
  0
ARC
  8
1
 62
7
 10
143.3809793482592
 20
-11.18287827463668
 30
0
 40
55.00000000000001
 50
311.8018441931411
 51
318.1981558068589
  0
ARC
  8
1
 62
3
  6
DASHDOT
 10
143.3809793482591
 20
-11.18287827463944
 30
0
 40
49.000000000002
 50
37.50000000000233
 51
52.50000000000135
  0
ARC
  8
1
 62
3
  6
DASHDOT
 10
143.3809793482591
 20
-11.18287827463944
 30
0
 40
24.00000000000012
 50
345.0000000000086
 51
15.00000000000711
  0
ARC
  8
1
 62
3
  6
DASHDOT
 10
143.3809793482619
 20
-11.18287827463675
 30
0
 40
49.00000000000201
 50
127.5000000000023
 51
142.5000000000013
  0
ARC
  8
1
 62
3
  6
DASHDOT
 10
143.3809793482592
 20
-11.18287827463393
 30
0
 40
49.00000000000199
 50
217.5000000000023
 51
232.5000000000014
  0
ARC
  8
1
 62
3
  6
DASHDOT
 10
143.3809793482564
 20
-11.18287827463664
 30
0
 40
49.00000000000202
 50
307.5000000000023
 51
322.5000000000013
  0
ARC
  8
1
 62
3
  6
DASHDOT
 10
143.3809793482608
 20
-11.18287827463754
 30
0
 40
24.00000000000021
 50
45.00000000000637
 51
75.000000000005
  0
ARC
  8
1
 62
3
  6
DASHDOT
 10
143.3809793482616
 20
-11.18287827463536
 30
0
 40
24.00000000000012
 50
105.0000000000086
 51
135.0000000000071
  0
ARC
  8
1
 62
3
  6
DASHDOT
 10
143.3809793482592
 20
-11.18287827463393
 30
0
 40
24.00000000000003
 50
165.0000000000085
 51
195.0000000000071
  0
ARC
  8
1
 62
3
  6
DASHDOT
 10
143.3809793482569
 20
-11.18287827463523
 30
0
 40
24.0000000000001
 50
225.0000000000085
 51
255.000000000007
  0
ARC
  8
1
 62
3
  6
DASHDOT
 10
143.3809793482568
 20
-11.18287827463797
 30
0
 40
24.00000000000011
 50
285.0000000000086
 51
315.0000000000071
  0
ARC
  8
1
 62
7
 10
-43.91890134937471
 20
16.8171217253633
 30
0
 40
2
 50
0
 51
90
  0
ARC
  8
1
 62
7
 10
-48.91890134937471
 20
16.81712172536331
 30
0
 40
2
 50
90
 51
180
  0
ARC
  8
1
 62
7
 10
-44.11890134937471
 20
-48.68287827463667
 30
0
 40
2.000000000000007
 50
270
 51
0
  0
ARC
  8
1
 62
7
 10
-53.81890134937473
 20
12.31712172536331
 30
0
 40
1
 50
90
 51
180
  0
ARC
  8
1
 62
7
 10
-53.81890134937473
 20
-49.68287827463667
 30
0
 40
1
 50
180
 51
270
  0
ARC
  8
1
 62
7
 10
-53.81890134937473
 20
-32.68287827463668
 30
0
 40
1
 50
90
 51
180
  0
ARC
  8
1
 62
7
 10
-50.41890134937471
 20
-51.18287827463668
 30
0
 40
0.5
 50
180
 51
270
  0
ARC
  8
1
 62
7
 10
-45.61890134937471
 20
-51.18287827463668
 30
0
 40
0.5
 50
270
 51
0
  0
ARC
  8
1
 62
7
 10
-53.81890134937472
 20
-4.682878274636685
 30
0
 40
1
 50
180
 51
270
  0
ARC
  8
1
 62
7
 10
-80.31128060326105
 20
-49.07074398278248
 30
0
 40
4.616528816016259
 50
183.5599305249649
 51
272.500174031713
  0
ARC
  8
1
 62
7
 10
-80.31128060326105
 20
26.70498743350911
 30
0
 40
4.616528816016327
 50
87.49982596828711
 51
176.4400694750348
  0
CIRCLE
  8
1
 62
3
 10
167.3809793482592
 20
-11.18287827463668
 30
0
 40
3.000000000000114
  0
CIRCLE
  8
1
 62
7
 10
167.3809793482592
 20
-11.18287827463668
 30
0
 40
2.400000000000006
  0
CIRCLE
  8
1
 62
3
 10
155.3809793482592
 20
-31.96748796546321
 30
0
 40
3
  0
CIRCLE
  8
1
 62
7
 10
155.3809793482592
 20
-31.96748796546321
 30
0
 40
2.400000000000006
  0
CIRCLE
  8
1
 62
3
 10
131.3809793482592
 20
-31.96748796546321
 30
0
 40
3
  0
CIRCLE
  8
1
 62
7
 10
131.3809793482592
 20
-31.96748796546321
 30
0
 40
2.400000000000006
  0
CIRCLE
  8
1
 62
3
 10
119.3809793482592
 20
-11.18287827463669
 30
0
 40
3
  0
CIRCLE
  8
1
 62
7
 10
119.3809793482592
 20
-11.18287827463669
 30
0
 40
2.399999999999992
  0
CIRCLE
  8
1
 62
3
 10
131.3809793482592
 20
9.601731416189839
 30
0
 40
3
  0
CIRCLE
  8
1
 62
7
 10
131.3809793482592
 20
9.601731416189839
 30
0
 40
2.400000000000006
  0
CIRCLE
  8
1
 62
3
 10
155.3809793482592
 20
9.601731416189839
 30
0
 40
3
  0
CIRCLE
  8
1
 62
7
 10
155.3809793482592
 20
9.601731416189839
 30
0
 40
2.400000000000006
  0
CIRCLE
  8
1
 62
7
 10
143.3809793482592
 20
-11.18287827463668
 30
0
 40
13.5
  0
CIRCLE
  8
1
 62
7
 10
143.3809793482592
 20
-11.18287827463668
 30
0
 40
16
  0
CIRCLE
  8
1
 62
7
 10
143.3809793482591
 20
-41.18287827463668
 30
0
 40
2
  0
CIRCLE
  8
1
 62
7
 10
143.3809793482591
 20
-41.18287827463668
 30
0
 40
5.5
  0
CIRCLE
  8
1
 62
7
 10
143.3809793482591
 20
-41.18287827463668
 30
0
 40
7.5
  0
CIRCLE
  8
1
 62
7
 10
117.400217234726
 20
3.817121725363311
 30
0
 40
2
  0
CIRCLE
  8
1
 62
7
 10
117.400217234726
 20
3.817121725363311
 30
0
 40
5.5
  0
CIRCLE
  8
1
 62
7
 10
117.400217234726
 20
3.817121725363311
 30
0
 40
7.5
  0
CIRCLE
  8
1
 62
7
 10
169.3617414617924
 20
3.817121725363311
 30
0
 40
2
  0
CIRCLE
  8
1
 62
7
 10
169.3617414617924
 20
3.817121725363311
 30
0
 40
5.5
  0
CIRCLE
  8
1
 62
7
 10
169.3617414617924
 20
3.817121725363311
 30
0
 40
7.5
  0
CIRCLE
  8
1
 62
7
 10
175.8569319901756
 20
-29.9328782746367
 30
0
 40
3.599999999999994
  0
CIRCLE
  8
1
 62
7
 10
110.9050267063427
 20
-29.93287827463666
 30
0
 40
3.600000000000009
  0
CIRCLE
  8
1
 62
7
 10
143.3809793482592
 20
26.31712172536331
 30
0
 40
3.599999999999909
  0
CIRCLE
  8
1
 62
7
 10
143.3809793482592
 20
-11.18287827463668
 30
0
 40
45
  0
CIRCLE
  8
1
 62
7
 10
108.7327470701184
 20
23.46535400350415
 30
0
 40
2.75
  0
CIRCLE
  8
1
 62
7
 10
178.0292116264
 20
23.46535400350415
 30
0
 40
2.75
  0
CIRCLE
  8
1
 62
7
 10
108.7327470701184
 20
-45.83111055277751
 30
0
 40
2.75
  0
CIRCLE
  8
1
 62
7
 10
178.0292116264
 20
-45.83111055277751
 30
0
 40
2.75
  0
CIRCLE
  8
1
 62
7
 10
143.3809793482592
 20
-11.18287827463668
 30
0
 40
7.5
  0
CIRCLE
  8
1
 62
7
 10
143.3809793482592
 20
-11.18287827463668
 30
0
 40
10
  0
CIRCLE
  8
1
 62
7
 10
143.3809793482592
 20
-11.18287827463668
 30
0
 40
42.75
  0
TEXT
  8
1
 62
7
 10
-90.26682701047355
 20
84.07370245397712
 30
0
 40
3.5
  1
TMAF 1.2
 41
0.9
  7
SIMPLEX
  0
TEXT
  8
1
 62
7
 10
-90.26682701047355
 20
78.82370245397712
 30
0
 40
3.5
  1
DC2202
 41
0.9
  7
SIMPLEX
  0
ENDSEC
  0
EOF
