  0
SECTION
  2
HEADER
  9
$ACADVER
  1
AC1009
  9
$INSBASE
 10
0
 20
0
  9
$EXTMIN
 10
-115.9999999999974
 20
-67.49999999999996
  9
$EXTMAX
 10
223
 20
111.2829276113022
  9
$LIMMIN
 10
-115.9999999999974
 20
-67.49999999999996
  9
$LIMMAX
 10
223
 20
111.2829276113022
  9
$VIEWCTR
 10
10
 20
10
  9
$VIEWSIZE
 40
10
  9
$SNAPMODE
 70
0
  9
$SNAPUNIT
 10
1
 20
1
  9
$SNAPBASE
 10
0
 20
0
  9
$SNAPANG
 50
0
  9
$SNAPSTYLE
 70
0
  9
$SNAPISOPAIR
 70
0
  9
$GRIDMODE
 70
0
  9
$GRIDUNIT
 10
0
 20
0
  9
$ORTHOMODE
 70
0
  9
$REGENMODE
 70
1
  9
$FILLMODE
 70
1
  9
$QTEXTMODE
 70
0
  9
$DRAGMODE
 70
2
  9
$LTSCALE
 40
1
  9
$OSMODE
 70
0
  9
$ATTMODE
 70
1
  9
$TEXTSIZE
 40
3.5
  9
$TRACEWID
 40
0.5
  9
$TEXTSTYLE
  7
STANDARD
  9
$CLAYER
  8
0
  9
$CELTYPE
  6
BYLAYER
  9
$CECOLOR
 62
256
  9
$DIMSCALE
 40
1
  9
$DIMASZ
 40
0.18
  9
$DIMEXO
 40
0.0625
  9
$DIMDLI
 40
0.38
  9
$DIMRND
 40
0
  9
$DIMDLE
 40
0
  9
$DIMEXE
 40
0.18
  9
$DIMTP
 40
0
  9
$DIMTM
 40
0
  9
$DIMTXT
 40
0.18
  9
$DIMCEN
 40
0.09
  9
$DIMTSZ
 40
0
  9
$DIMTOL
 70
0
  9
$DIMLIM
 70
0
  9
$DIMTIH
 70
1
  9
$DIMTOH
 70
1
  9
$DIMSE1
 70
0
  9
$DIMSE2
 70
0
  9
$DIMTAD
 70
0
  9
$DIMZIN
 70
0
  9
$DIMBLK
  1

  9
$DIMASO
 70
1
  9
$DIMSHO
 70
1
  9
$DIMPOST
  1

  9
$DIMAPOST
  1

  9
$DIMALT
 70
0
  9
$DIMALTD
 70
2
  9
$DIMALTF
 40
25.4
  9
$DIMLFAC
 40
1
  9
$DIMTOFL
 70
0
  9
$DIMTVP
 40
0
  9
$DIMTIX
 70
0
  9
$DIMSOXD
 70
0
  9
$DIMSAH
 70
0
  9
$DIMBLK1
  1

  9
$DIMBLK2
  1

  9
$DIMSTYLE
  2
*UNNAMED
  9
$DIMCLRD
 70
0
  9
$DIMCLRE
 70
0
  9
$DIMCLRT
 70
0
  9
$DIMTFAC
 40
1
  9
$DIMGAP
 40
0.09
  9
$LUNITS
 70
2
  9
$LUPREC
 70
4
  9
$AXISMODE
 70
0
  9
$AXISUNIT
 10
0
 20
0
  9
$SKETCHINC
 40
0.1
  9
$FILLETRAD
 40
2
  9
$AUNITS
 70
0
  9
$AUPREC
 70
0
  9
$MENU
  1
ACAD
  9
$ELEVATION
 40
0
  9
$THICKNESS
 40
0
  9
$VIEWDIR
 10
0
 20
0
 30
1
  9
$LIMCHECK
 70
0
  9
$BLIPMODE
 70
1
  9
$CHAMFERA
 40
0
  9
$CHAMFERB
 40
0
  9
$FASTZOOM
 70
1
  9
$SKPOLY
 70
0
  9
$ANGBASE
 50
0
  9
$ANGDIR
 70
0
  9
$PDMODE
 70
0
  9
$PDSIZE
 40
0
  9
$PLINEWID
 40
0
  9
$COORDS
 70
2
  0
ENDSEC
  0
SECTION
  2
TABLES
  0
TABLE
  2
DIMSTYLE
 70
0
  0
ENDTAB
  0
TABLE
  2
LTYPE
 70
9
  0
LTYPE
  2
CONTINUOUS
 70
64
  3
Solid line
 72
65
 73
0
 40
0
  0
LTYPE
  2
BORDER
 70
64
  3
__ __ . __ __ .
 72
65
 73
6
 40
15.61184210526304
 49
4.46052631578944
 49
-2.23026315789472
 49
4.46052631578944
 49
-2.23026315789472
 49
0
 49
-2.23026315789472
  0
LTYPE
  2
CENTER
 70
64
  3
____ _ ____ _
 72
65
 73
4
 40
17.84210526315776
 49
11.1513157894736
 49
-2.23026315789472
 49
2.23026315789472
 49
-2.23026315789472
  0
LTYPE
  2
DASHDOT
 70
64
  3
__ . __ . __ .
 72
65
 73
4
 40
8.921052631578879
 49
4.46052631578944
 49
-2.23026315789472
 49
0
 49
-2.23026315789472
  0
LTYPE
  2
DASHED
 70
64
  3
__ __ __ __ __
 72
65
 73
2
 40
6.690789473684159
 49
4.46052631578944
 49
-2.23026315789472
  0
LTYPE
  2
DIVIDE
 70
64
  3
__ . . __ . . 
 72
65
 73
6
 40
11.1513157894736
 49
4.46052631578944
 49
-2.23026315789472
 49
0
 49
-2.23026315789472
 49
0
 49
-2.23026315789472
  0
LTYPE
  2
DOT
 70
64
  3
..............
 72
65
 73
4
 40
4.46052631578944
 49
0
 49
-2.23026315789472
 49
0
 49
-2.23026315789472
  0
LTYPE
  2
HIDDEN
 70
64
  3
_ _ _ _ _ _ _
 72
65
 73
2
 40
3.34539473684208
 49
2.23026315789472
 49
-1.11513157894736
  0
LTYPE
  2
PHANTOM
 70
64
  3
_____ _ _ _____ _ _ 
 72
65
 73
6
 40
22.3026315789472
 49
11.1513157894736
 49
-2.23026315789472
 49
2.23026315789472
 49
-2.23026315789472
 49
2.23026315789472
 49
-2.23026315789472
  0
ENDTAB
  0
TABLE
  2
LAYER
 70
3
  0
LAYER
  2
1
 70
0
 62
7
  6
CONTINUOUS
  0
LAYER
  2
0
 70
0
 62
7
  6
CONTINUOUS
  0
ENDTAB
  0
TABLE
  2
STYLE
 70
4
  0
STYLE
  2
STANDARD
 70
0
 40
0
 41
1
 50
0
 71
0
 42
3.5
  3
txt
  4

  0
STYLE
  2
SIMPLEX
 70
0
 40
0
 41
1
 50
0
 71
0
 42
3.5
  3
simplex
  4

  0
STYLE
  2
COMPLEX
 70
0
 40
0
 41
1
 50
0
 71
0
 42
3.5
  3
complex
  4

  0
STYLE
  2
ITALIC
 70
0
 40
0
 41
1
 50
0
 71
0
 42
3.5
  3
italic
  4

  0
ENDTAB
  0
TABLE
  2
VIEW
 70
0
  0
ENDTAB
  0
ENDSEC
  0
SECTION
  2
BLOCKS
  0
ENDSEC
  0
SECTION
  2
ENTITIES
  0
LINE
  8
1
 62
7
 10
0
 20
-26
 30
0
 11
2.600000000000279
 21
-26
 31
0
  0
LINE
  8
1
 62
7
 10
3.500000000000051
 20
10
 30
0
 11
48.99999999999999
 21
10
 31
0
  0
LINE
  8
1
 62
7
 10
3.5
 20
-10
 30
0
 11
48.99999999999999
 21
-10
 31
0
  0
LINE
  8
1
 62
7
 10
2.599999999999994
 20
50
 30
0
 11
0
 21
50
 31
0
  0
LINE
  8
1
 62
3
  6
DASHDOT
 10
0
 20
0
 30
0
 11
-5
 21
0
 31
0
  0
LINE
  8
1
 62
7
 10
8.000000000000199
 20
53.5
 30
0
 11
13.70000000000019
 21
53.49999999999996
 31
0
  0
LINE
  8
1
 62
7
 10
28.39999999999998
 20
-23.49999999999994
 30
0
 11
28.39999999999998
 21
-26.99999999999994
 31
0
  0
LINE
  8
1
 62
7
 10
28.39999999999998
 20
-26.99999999999994
 30
0
 11
29.69999999999998
 21
-27.00000000000006
 31
0
  0
LINE
  8
1
 62
7
 10
29.5
 20
-23.50000000000006
 30
0
 11
28.39999999999998
 21
-23.49999999999994
 31
0
  0
LINE
  8
1
 62
7
 10
9.800000000000182
 20
78.69036320982664
 30
0
 11
12.20000000000019
 21
78.69036320982664
 31
0
  0
LINE
  8
1
 62
7
 10
2.599999999999994
 20
50
 30
0
 11
2.599999999999994
 21
-67.49999999999996
 31
0
  0
LINE
  8
1
 62
7
 10
0
 20
-67.49999999999996
 30
0
 11
2.599999999999994
 21
-67.49999999999996
 31
0
  0
LINE
  8
1
 62
7
 10
0
 20
-64.24999999999996
 30
0
 11
2.599999999999994
 21
-64.24999999999996
 31
0
  0
LINE
  8
1
 62
3
  6
DASHDOT
 10
-3
 20
-60.99999999999996
 30
0
 11
5.600000000000039
 21
-60.99999999999996
 31
0
  0
LINE
  8
1
 62
7
 10
0
 20
-57.74999999999996
 30
0
 11
2.599999999999994
 21
-57.74999999999996
 31
0
  0
LINE
  8
1
 62
7
 10
9.800000000000182
 20
78.69036320982664
 30
0
 11
9.800000000000182
 21
53.5
 31
0
  0
LINE
  8
1
 62
7
 10
12.20000000000019
 20
78.69036320982664
 30
0
 11
12.20000000000019
 21
53.5
 31
0
  0
LINE
  8
1
 62
7
 10
22.70000000000019
 20
27.5
 30
0
 11
22.70000000000019
 21
53.14999999999997
 31
0
  0
LINE
  8
1
 62
7
 10
5.602084238343792
 20
-27.49999999999996
 30
0
 11
22.70000000000019
 21
-27.49999999999996
 31
0
  0
LINE
  8
1
 62
7
 10
22.70000000000019
 20
-53.14999999999997
 30
0
 11
13.70000000000019
 21
-53.14999999999997
 31
0
  0
LINE
  8
1
 62
7
 10
8.000000000000199
 20
-53.49999999999996
 30
0
 11
13.70000000000019
 21
-53.49999999999996
 31
0
  0
LINE
  8
1
 62
7
 10
13.70000000000019
 20
-53.14999999999997
 30
0
 11
13.70000000000019
 21
-53.49999999999996
 31
0
  0
LINE
  8
1
 62
7
 10
5.602084238343878
 20
27.5
 30
0
 11
22.70000000000019
 21
27.5
 31
0
  0
LINE
  8
1
 62
7
 10
22.70000000000019
 20
-27.49999999999996
 30
0
 11
22.70000000000019
 21
-53.14999999999997
 31
0
  0
LINE
  8
1
 62
7
 10
24.89999999999998
 20
-26.50000000000006
 30
0
 11
24.89999999999998
 21
-54.15000000000006
 31
0
  0
LINE
  8
1
 62
7
 10
24.89999999999998
 20
-26.50000000000006
 30
0
 11
15.39999999999998
 21
-26.50000000000006
 31
0
  0
LINE
  8
1
 62
7
 10
15.39999999999998
 20
-54.15000000000006
 30
0
 11
24.89999999999998
 21
-54.15000000000006
 31
0
  0
LINE
  8
1
 62
7
 10
15.39999999999998
 20
-56.49999999999996
 30
0
 11
15.39999999999998
 21
-54.15000000000006
 31
0
  0
LINE
  8
1
 62
7
 10
26.66794919243108
 20
-56.49999999999996
 30
0
 11
15.39999999999998
 21
-56.49999999999996
 31
0
  0
LINE
  8
1
 62
7
 10
28.39999999999998
 20
-53.49999999999996
 30
0
 11
26.66794919243108
 21
-56.49999999999996
 31
0
  0
LINE
  8
1
 62
7
 10
29.69999999999998
 20
-53.49999999999996
 30
0
 11
28.39999999999998
 21
-53.49999999999996
 31
0
  0
LINE
  8
1
 62
7
 10
28.39999999999998
 20
27
 30
0
 11
28.39999999999998
 21
23.5
 31
0
  0
LINE
  8
1
 62
7
 10
29.69999999999998
 20
27
 30
0
 11
28.39999999999998
 21
27
 31
0
  0
LINE
  8
1
 62
7
 10
29.69999999999998
 20
53.5
 30
0
 11
29.69999999999998
 21
27
 31
0
  0
LINE
  8
1
 62
7
 10
28.39999999999998
 20
53.5
 30
0
 11
29.69999999999998
 21
53.5
 31
0
  0
LINE
  8
1
 62
7
 10
26.66794919243108
 20
56.5
 30
0
 11
28.39999999999998
 21
53.5
 31
0
  0
LINE
  8
1
 62
7
 10
15.39999999999998
 20
56.5
 30
0
 11
26.66794919243108
 21
56.5
 31
0
  0
LINE
  8
1
 62
7
 10
15.39999999999998
 20
54.14999999999998
 30
0
 11
15.39999999999998
 21
56.5
 31
0
  0
LINE
  8
1
 62
7
 10
24.89999999999998
 20
54.14999999999998
 30
0
 11
15.39999999999998
 21
54.14999999999998
 31
0
  0
LINE
  8
1
 62
7
 10
24.89999999999998
 20
26.49999999999999
 30
0
 11
24.89999999999998
 21
54.14999999999998
 31
0
  0
LINE
  8
1
 62
7
 10
15.39999999999998
 20
26.49999999999999
 30
0
 11
24.89999999999998
 21
26.49999999999999
 31
0
  0
LINE
  8
1
 62
7
 10
15.39999999999998
 20
20.5
 30
0
 11
15.39999999999998
 21
26.49999999999999
 31
0
  0
LINE
  8
1
 62
7
 10
15.39999999999998
 20
20.5
 30
0
 11
3.5
 21
20.5
 31
0
  0
LINE
  8
1
 62
7
 10
29.5
 20
23.5
 30
0
 11
29.5
 21
-23.50000000000006
 31
0
  0
LINE
  8
1
 62
7
 10
15.39999999999998
 20
-26.50000000000006
 30
0
 11
15.39999999999998
 21
-20.50000000000006
 31
0
  0
LINE
  8
1
 62
7
 10
3.5
 20
20.5
 30
0
 11
3.500000000000199
 21
-20.5
 31
0
  0
LINE
  8
1
 62
7
 10
3.500000000000199
 20
-20.5
 30
0
 11
15.39999999999998
 21
-20.50000000000006
 31
0
  0
LINE
  8
1
 62
7
 10
3.5
 20
12
 30
0
 11
29.5
 21
12
 31
0
  0
LINE
  8
1
 62
7
 10
28.39999999999998
 20
23.5
 30
0
 11
29.5
 21
23.5
 31
0
  0
LINE
  8
1
 62
7
 10
29.69999999999998
 20
-27.00000000000006
 30
0
 11
29.69999999999998
 21
-53.49999999999996
 31
0
  0
LINE
  8
1
 62
7
 10
0
 20
-67.49999999999996
 30
0
 11
0
 21
50
 31
0
  0
LINE
  8
1
 62
7
 10
37.10000000000259
 20
43.5
 30
0
 11
36.60000000000259
 21
43
 31
0
  0
LINE
  8
1
 62
7
 10
37.10000000000259
 20
43.5
 30
0
 11
36.60000000000259
 21
43
 31
0
  0
LINE
  8
1
 62
7
 10
37.10000000000259
 20
51.5
 30
0
 11
36.60000000000259
 21
52
 31
0
  0
LINE
  8
1
 62
7
 10
37.10000000000259
 20
51.5
 30
0
 11
36.60000000000259
 21
52
 31
0
  0
LINE
  8
1
 62
7
 10
37.10000000000259
 20
43.5
 30
0
 11
37.10000000000259
 21
51.5
 31
0
  0
LINE
  8
1
 62
7
 10
34.8000000000026
 20
-30.00000000000006
 30
0
 11
35.50000000000259
 21
-30.00000000000006
 31
0
  0
LINE
  8
1
 62
7
 10
34.8000000000026
 20
-53.00000000000006
 30
0
 11
35.50000000000259
 21
-53.00000000000006
 31
0
  0
LINE
  8
1
 62
7
 10
34.80000000000268
 20
-26.50000000000001
 30
0
 11
30.10000000000258
 21
-26.50000000000001
 31
0
  0
LINE
  8
1
 62
7
 10
34.10000000000258
 20
42
 30
0
 11
34.8000000000026
 21
42
 31
0
  0
LINE
  8
1
 62
7
 10
35.50000000000259
 20
38
 30
0
 11
35.5000000000027
 21
13.5
 31
0
  0
LINE
  8
1
 62
7
 10
35.50000000000259
 20
52
 30
0
 11
35.50000000000259
 21
43
 31
0
  0
LINE
  8
1
 62
7
 10
34.8000000000026
 20
52
 30
0
 11
36.60000000000259
 21
52
 31
0
  0
LINE
  8
1
 62
7
 10
34.8000000000026
 20
43
 30
0
 11
36.60000000000259
 21
43
 31
0
  0
LINE
  8
1
 62
7
 10
34.10000000000258
 20
40.61243556529822
 30
0
 11
34.8000000000026
 21
38
 31
0
  0
LINE
  8
1
 62
7
 10
34.8000000000026
 20
40.54136836602153
 30
0
 11
35.50000000000259
 21
38
 31
0
  0
LINE
  8
1
 62
7
 10
34.8000000000026
 20
53
 30
0
 11
34.8000000000026
 21
40.54136836602153
 31
0
  0
LINE
  8
1
 62
7
 10
34.10000000000258
 20
53
 30
0
 11
34.8000000000026
 21
53
 31
0
  0
LINE
  8
1
 62
7
 10
34.8000000000026
 20
38
 30
0
 11
34.80000000000268
 21
13.5
 31
0
  0
LINE
  8
1
 62
7
 10
34.10000000000258
 20
38
 30
0
 11
34.8000000000026
 21
38
 31
0
  0
LINE
  8
1
 62
7
 10
37.5000000000034
 20
-49.49999999999996
 30
0
 11
42.00000000000269
 21
-49.49999999999996
 31
0
  0
LINE
  8
1
 62
7
 10
42.00000000000269
 20
-49.49999999999996
 30
0
 11
42.00000000000269
 21
-49.99999999999996
 31
0
  0
LINE
  8
1
 62
7
 10
42.50000000000269
 20
-50.49999999999996
 30
0
 11
48.30000000000339
 21
-50.49999999999986
 31
0
  0
LINE
  8
1
 62
7
 10
48.80000000000339
 20
-49.99999999999986
 30
0
 11
48.80000000000339
 21
-49.49999999999986
 31
0
  0
LINE
  8
1
 62
7
 10
48.80000000000339
 20
-49.49999999999986
 30
0
 11
50.80000000000329
 21
-49.49999999999986
 31
0
  0
LINE
  8
1
 62
7
 10
35.5000000000027
 20
-31.99999999999996
 30
0
 11
36.50000000000269
 21
-31.99999999999996
 31
0
  0
LINE
  8
1
 62
7
 10
52.80000000000329
 20
-47.49999999999976
 30
0
 11
52.80000000000248
 21
-27.00410435609251
 31
0
  0
LINE
  8
1
 62
7
 10
52.30000000000248
 20
-26.50410435609253
 30
0
 11
51.80000000000238
 21
-26.50410435609253
 31
0
  0
LINE
  8
1
 62
7
 10
50.80000000000238
 20
-25.50410435609257
 30
0
 11
50.80000000000238
 21
-25.50109924362597
 31
0
  0
LINE
  8
1
 62
7
 10
51.80000000000238
 20
-24.50109924362594
 30
0
 11
52.80000000000238
 21
-24.50109924362594
 31
0
  0
LINE
  8
1
 62
7
 10
52.80000000000238
 20
-24.50109924362594
 30
0
 11
52.80000000000229
 21
-20.99999999999984
 31
0
  0
LINE
  8
1
 62
7
 10
36.50000000000318
 20
-43.99999999999996
 30
0
 11
35.5000000000027
 21
-43.99999999999996
 31
0
  0
LINE
  8
1
 62
7
 10
52.99999999999999
 20
33.00000000000014
 30
0
 11
52.99999999999999
 21
-20.99999999999983
 31
0
  0
LINE
  8
1
 62
7
 10
36.5000000000034
 20
-48.50000000000006
 30
0
 11
36.50000000000249
 21
-27.50000000000006
 31
0
  0
LINE
  8
1
 62
7
 10
37.50000000000249
 20
-26.49999999999999
 30
0
 11
41.00000000000178
 21
-26.49999999999997
 31
0
  0
LINE
  8
1
 62
7
 10
42.00000000000168
 20
-25.49999999999993
 30
0
 11
42.00000000000129
 21
-13.5
 31
0
  0
LINE
  8
1
 62
7
 10
42.9999999999994
 20
35.00000000000004
 30
0
 11
50.99999999999999
 21
35.00000000000014
 31
0
  0
LINE
  8
1
 62
7
 10
41.9999999999995
 20
30.50000000000003
 30
0
 11
37.50000000000028
 21
30.50000000000003
 31
0
  0
LINE
  8
1
 62
7
 10
36.50000000000028
 20
29.49999999999999
 30
0
 11
36.5000000000009
 21
13.5
 31
0
  0
LINE
  8
1
 62
7
 10
36.50000000000038
 20
25.00000000000003
 30
0
 11
35.50000000000259
 21
25.00000000000003
 31
0
  0
LINE
  8
1
 62
3
  6
DASHDOT
 10
52.99999999999999
 20
0
 30
0
 11
57.99999999999999
 21
0
 31
0
  0
LINE
  8
1
 62
3
 10
52.99999999999999
 20
26
 30
0
 11
41.9999999999996
 21
26
 31
0
  0
LINE
  8
1
 62
3
 10
41.9999999999996
 20
32
 30
0
 11
52.99999999999999
 21
32
 31
0
  0
LINE
  8
1
 62
7
 10
52.99999999999999
 20
26.59999999999999
 30
0
 11
41.9999999999996
 21
26.59999999999999
 31
0
  0
LINE
  8
1
 62
7
 10
41.9999999999996
 20
31.4
 30
0
 11
52.99999999999999
 21
31.4
 31
0
  0
LINE
  8
1
 62
3
  6
DASHDOT
 10
55.99999999999999
 20
29
 30
0
 11
38.9999999999996
 21
29
 31
0
  0
LINE
  8
1
 62
7
 10
52.99999999999999
 20
21
 30
0
 11
48.99999999999999
 21
21
 31
0
  0
LINE
  8
1
 62
7
 10
48.99999999999999
 20
17.5
 30
0
 11
41.99999999999999
 21
17.5
 31
0
  0
LINE
  8
1
 62
7
 10
48.99999999999999
 20
21
 30
0
 11
48.99999999999999
 21
-21
 31
0
  0
LINE
  8
1
 62
7
 10
48.99999999999999
 20
-21
 30
0
 11
53.00000000000229
 21
-20.99999999999984
 31
0
  0
LINE
  8
1
 62
7
 10
48.99999999999999
 20
-17.5
 30
0
 11
42.00000000000139
 21
-17.5
 31
0
  0
LINE
  8
1
 62
7
 10
29.5
 20
13.5
 30
0
 11
48.99999999999999
 21
13.5
 31
0
  0
LINE
  8
1
 62
7
 10
48.99999999999999
 20
-13.5
 30
0
 11
29.50000000000259
 21
-13.5
 31
0
  0
LINE
  8
1
 62
7
 10
42.00000000000019
 20
13.5
 30
0
 11
41.9999999999994
 21
34.00000000000001
 31
0
  0
LINE
  8
1
 62
7
 10
34.80000000000268
 20
-13.5
 30
0
 11
34.8000000000026
 21
-53.00000000000006
 31
0
  0
LINE
  8
1
 62
7
 10
35.5000000000027
 20
-13.5
 30
0
 11
35.50000000000259
 21
-53.00000000000006
 31
0
  0
LINE
  8
1
 62
7
 10
30.10000000000258
 20
-13.5
 30
0
 11
30.10000000000258
 21
-53.75
 31
0
  0
LINE
  8
1
 62
7
 10
10.4794119651705
 20
78.69036320982664
 30
0
 11
10.4794119651705
 21
82.31492568812219
 31
0
  0
LINE
  8
1
 62
7
 10
10.96731373699149
 20
78.69036320982664
 30
0
 11
10.96731373699149
 21
82.31492568812219
 31
0
  0
LINE
  8
1
 62
7
 10
11.45521550881148
 20
78.69036320982664
 30
0
 11
11.45521550881148
 21
82.25393796664464
 31
0
  0
LINE
  8
1
 62
7
 10
30.10000000000258
 20
26.5
 30
0
 11
34.80000000000268
 21
26.5
 31
0
  0
LINE
  8
1
 62
7
 10
2.60000000000008
 20
26
 30
0
 11
0
 21
26
 31
0
  0
LINE
  8
1
 62
7
 10
30.10000000000258
 20
53.75
 30
0
 11
34.10000000000258
 21
53.75
 31
0
  0
LINE
  8
1
 62
7
 10
30.10000000000258
 20
53.75
 30
0
 11
30.10000000000258
 21
13.5
 31
0
  0
LINE
  8
1
 62
7
 10
34.10000000000258
 20
53.75
 30
0
 11
34.10000000000258
 21
38
 31
0
  0
LINE
  8
1
 62
7
 10
30.10000000000258
 20
-53.75
 30
0
 11
34.10000000000258
 21
-53.75
 31
0
  0
LINE
  8
1
 62
7
 10
34.8000000000026
 20
-45.87565829054886
 30
0
 11
35.5000000000027
 21
-45.87565829054886
 31
0
  0
LINE
  8
1
 62
7
 10
34.10000000000258
 20
-53.75
 30
0
 11
34.10000000000258
 21
-37.99999999999996
 31
0
  0
LINE
  8
1
 62
7
 10
34.10000000000258
 20
-37.99999999999996
 30
0
 11
34.8000000000026
 21
-37.99999999999996
 31
0
  0
LINE
  8
1
 62
7
 10
13.70000000000019
 20
53.49999999999996
 30
0
 11
13.70000000000019
 21
53.14999999999997
 31
0
  0
LINE
  8
1
 62
7
 10
13.70000000000019
 20
53.14999999999997
 30
0
 11
22.70000000000019
 21
53.14999999999997
 31
0
  0
LINE
  8
1
 62
7
 10
167.5
 20
-32.08392021690037
 30
0
 11
167.5
 21
-35.70871215252207
 31
0
  0
LINE
  8
1
 62
7
 10
165.5
 20
-35.70871215252207
 30
0
 11
165.5
 21
-32.08392021690037
 31
0
  0
LINE
  8
1
 62
7
 10
165.5
 20
-40.29128784747786
 30
0
 11
165.5
 21
-43.91607978309956
 31
0
  0
LINE
  8
1
 62
7
 10
167.5
 20
-43.91607978309956
 30
0
 11
167.5
 21
-40.29128784747786
 31
0
  0
LINE
  8
1
 62
7
 10
138.2145100391712
 20
15.17593470466581
 30
0
 11
135.0753481394898
 21
16.98833067247666
 31
0
  0
LINE
  8
1
 62
7
 10
136.0753481394898
 20
18.72038148004556
 30
0
 11
139.2145100391712
 21
16.90798551223471
 31
0
  0
LINE
  8
1
 62
7
 10
132.1067211728929
 20
21.01166932752348
 30
0
 11
128.9675592732115
 21
22.82406529533434
 31
0
  0
LINE
  8
1
 62
7
 10
127.9675592732115
 20
21.0920144877654
 30
0
 11
131.1067211728929
 21
19.27961851995457
 31
0
  0
LINE
  8
1
 62
7
 10
193.7854899608289
 20
16.90798551223467
 30
0
 11
196.9246518605102
 21
18.72038148004552
 31
0
  0
LINE
  8
1
 62
7
 10
197.9246518605103
 20
16.98833067247664
 30
0
 11
194.7854899608289
 21
15.17593470466578
 31
0
  0
LINE
  8
1
 62
7
 10
201.8932788271071
 20
19.27961851995456
 30
0
 11
205.0324407267885
 21
21.0920144877654
 31
0
  0
LINE
  8
1
 62
7
 10
204.0324407267885
 20
22.82406529533431
 30
0
 11
200.8932788271071
 21
21.01166932752345
 31
0
  0
LINE
  8
1
 62
7
 10
164.8695086807674
 20
79.84946616005063
 30
0
 11
164.8715112921002
 21
82.84946616005063
 31
0
  0
LINE
  8
1
 62
7
 10
165.3786753432564
 20
79.84946616005063
 30
0
 11
165.3676071440542
 21
82.84946616005063
 31
0
  0
LINE
  8
1
 62
7
 10
165.868235789943
 20
79.84946616005063
 30
0
 11
165.8637029960082
 21
82.84946616005063
 31
0
  0
LINE
  8
1
 62
7
 10
168.1284887078999
 20
82.84946616005063
 30
0
 11
168.1304913192326
 21
79.84946616005063
 31
0
  0
LINE
  8
1
 62
7
 10
167.6323928559458
 20
82.84946616005063
 30
0
 11
167.6213246567436
 21
79.84946616005063
 31
0
  0
LINE
  8
1
 62
7
 10
167.1362970039918
 20
82.84946616005063
 30
0
 11
167.131764210057
 21
79.84946616005063
 31
0
  0
LINE
  8
1
 62
7
 10
164
 20
79.84946616005063
 30
0
 11
169
 21
79.84946616005063
 31
0
  0
LINE
  8
1
 62
7
 10
169
 20
79.84946616005063
 30
0
 11
169
 21
56.44466316668038
 31
0
  0
LINE
  8
1
 62
7
 10
164
 20
79.84946616005063
 30
0
 11
164
 21
56.44466316668037
 31
0
  0
LINE
  8
1
 62
7
 10
166.5
 20
79.84946616005063
 30
0
 11
166.5
 21
56.50000000000004
 31
0
  0
LINE
  8
1
 62
7
 10
192.8106442338457
 20
50.00000000000004
 30
0
 11
211.8458928680427
 21
50.00000000000004
 31
0
  0
LINE
  8
1
 62
7
 10
121.1541071319574
 20
50.00000000000004
 30
0
 11
140.1893557661543
 21
50.00000000000004
 31
0
  0
LINE
  8
1
 62
7
 10
121.1541071319574
 20
-49.99999999999996
 30
0
 11
140.6378688263602
 21
-49.99999999999996
 31
0
  0
LINE
  8
1
 62
7
 10
192.8106442338457
 20
-49.99999999999996
 30
0
 11
211.8458928680427
 21
-49.99999999999996
 31
0
  0
LINE
  8
1
 62
7
 10
116.5
 20
45.34589286804268
 30
0
 11
116.5
 21
26.31064423384574
 31
0
  0
LINE
  8
1
 62
7
 10
216.5
 20
45.34589286804268
 30
0
 11
216.5
 21
26.84523761961259
 31
0
  0
LINE
  8
1
 62
7
 10
216.5
 20
-26.31064423384565
 30
0
 11
216.5
 21
-45.34589286804257
 31
0
  0
LINE
  8
1
 62
7
 10
116.5
 20
-26.31064423384565
 30
0
 11
116.5
 21
-45.34589286804257
 31
0
  0
LINE
  8
1
 62
7
  6
DASHDOT
 10
164
 20
12.00000000000005
 30
0
 11
164
 21
9.639563676331839
 31
0
  0
LINE
  8
1
 62
7
  6
DASHDOT
 10
169
 20
12.00000000000005
 30
0
 11
169
 21
9.661246816358535
 31
0
  0
LINE
  8
1
 62
7
  6
DASHDOT
 10
164
 20
12.00000000000005
 30
0
 11
169
 21
12.00000000000005
 31
0
  0
LINE
  8
1
 62
3
  6
DASHDOT
 10
166.5
 20
5.000000000000043
 30
0
 11
166.5
 21
-4.999999999999957
 31
0
  0
LINE
  8
1
 62
3
  6
DASHDOT
 10
171.5
 20
4.263256414560601e-014
 30
0
 11
161.5
 21
4.263256414560601e-014
 31
0
  0
LINE
  8
1
 62
3
  6
DASHDOT
 10
214.0529310347953
 20
47.55293103479536
 30
0
 11
205.2140962699635
 21
38.71409626996351
 31
0
  0
LINE
  8
1
 62
3
  6
DASHDOT
 10
183.9990022911639
 20
30.30916105006008
 30
0
 11
178.0008106889814
 21
19.91998844154693
 31
0
  0
LINE
  8
1
 62
3
  6
DASHDOT
 10
118.9470689652047
 20
47.55293103479534
 30
0
 11
127.7859037300365
 21
38.71409626996351
 31
0
  0
LINE
  8
1
 62
3
  6
DASHDOT
 10
118.9470689652047
 20
-47.55293103479531
 30
0
 11
127.7859037300365
 21
-38.71409626996345
 31
0
  0
LINE
  8
1
 62
3
  6
DASHDOT
 10
214.0529310347953
 20
-47.55293103479528
 30
0
 11
205.2140962699635
 21
-38.71409626996345
 31
0
  0
LINE
  8
1
 62
3
  6
DASHDOT
 10
149.0009977088361
 20
30.30916105006008
 30
0
 11
154.9991893110187
 21
19.91998844154693
 31
0
  0
LINE
  8
1
 62
3
  6
DASHDOT
 10
131.5019954176723
 20
2.842170943040401e-014
 30
0
 11
143.4983786220374
 21
5.684341886080802e-014
 31
0
  0
LINE
  8
1
 62
3
  6
DASHDOT
 10
149.0009977088361
 20
-30.30916105005996
 30
0
 11
154.9991893110187
 21
-19.9199884415468
 31
0
  0
LINE
  8
1
 62
3
  6
DASHDOT
 10
183.9990022911638
 20
-30.30916105005997
 30
0
 11
178.0008106889813
 21
-19.91998844154679
 31
0
  0
LINE
  8
1
 62
3
  6
DASHDOT
 10
201.4980045823277
 20
0
 30
0
 11
189.5016213779626
 21
0
 31
0
  0
LINE
  8
1
 62
7
 10
-76.89999999999481
 20
53.75
 30
0
 11
-76.89999999999481
 21
-53.75
 31
0
  0
LINE
  8
1
 62
7
 10
-81.29999999999741
 20
-53.49999999999996
 30
0
 11
-82.59999999999732
 21
-53.49999999999996
 31
0
  0
LINE
  8
1
 62
7
 10
-81.29999999999743
 20
53.5
 30
0
 11
-81.29999999999741
 21
-53.49999999999996
 31
0
  0
LINE
  8
1
 62
7
 10
-75.49999999999471
 20
-13.5
 30
0
 11
-68.99999999999619
 21
-13.5
 31
0
  0
LINE
  8
1
 62
7
 10
-73.4999999999965
 20
7.500000000000028
 30
0
 11
-68.99999999999619
 21
7.500000000000028
 31
0
  0
LINE
  8
1
 62
7
 10
-75.49999999999471
 20
13.00000000000003
 30
0
 11
-74.4999999999965
 21
13.00000000000003
 31
0
  0
LINE
  8
1
 62
7
 10
-74.49999999999491
 20
-27.50000000000006
 30
0
 11
-74.49999999999412
 21
-48.50000000000006
 31
0
  0
LINE
  8
1
 62
7
 10
-68.99999999999469
 20
-49.99999999999996
 30
0
 11
-68.9999999999973
 21
34.00000000000005
 31
0
  0
LINE
  8
1
 62
7
 10
-74.4999999999971
 20
29.49999999999999
 30
0
 11
-74.4999999999965
 21
8.500000000000028
 31
0
  0
LINE
  8
1
 62
7
 10
-75.4999999999948
 20
-53.00000000000006
 30
0
 11
-75.4999999999948
 21
38
 31
0
  0
LINE
  8
1
 62
7
 10
-76.19999999999482
 20
-53.00000000000006
 30
0
 11
-76.19999999999482
 21
38
 31
0
  0
LINE
  8
1
 62
7
 10
-76.19999999999482
 20
-37.99999999999996
 30
0
 11
-76.89999999999481
 21
-37.99999999999996
 31
0
  0
LINE
  8
1
 62
7
 10
-74.49999999999471
 20
-31.99999999999996
 30
0
 11
-75.49999999999471
 21
-31.99999999999996
 31
0
  0
LINE
  8
1
 62
3
  6
DASHDOT
 10
-57.99999999999741
 20
0
 30
0
 11
-52.99999999999741
 21
0
 31
0
  0
LINE
  8
1
 62
7
 10
-74.49999999999702
 20
25.00000000000003
 30
0
 11
-75.4999999999948
 21
25.00000000000003
 31
0
  0
LINE
  8
1
 62
7
 10
-68.9999999999979
 20
30.50000000000003
 30
0
 11
-73.4999999999971
 21
30.50000000000003
 31
0
  0
LINE
  8
1
 62
7
 10
-67.9999999999981
 20
35.00000000000005
 30
0
 11
-59.99999999999741
 21
35.00000000000014
 31
0
  0
LINE
  8
1
 62
7
 10
-73.49999999999491
 20
-26.49999999999999
 30
0
 11
-69.99999999999568
 21
-26.49999999999997
 31
0
  0
LINE
  8
1
 62
7
 10
-57.99999999999741
 20
33.00000000000014
 30
0
 11
-57.99999999999741
 21
-20.99999999999983
 31
0
  0
LINE
  8
1
 62
7
 10
-74.4999999999942
 20
-43.99999999999996
 30
0
 11
-75.49999999999471
 21
-43.99999999999996
 31
0
  0
LINE
  8
1
 62
7
 10
-58.19999999999501
 20
-24.50109924362594
 30
0
 11
-58.19999999999521
 21
-20.99999999999984
 31
0
  0
LINE
  8
1
 62
7
 10
-59.19999999999501
 20
-24.50109924362594
 30
0
 11
-58.19999999999501
 21
-24.50109924362594
 31
0
  0
LINE
  8
1
 62
7
 10
-60.19999999999501
 20
-25.50410435609257
 30
0
 11
-60.19999999999501
 21
-25.50109924362597
 31
0
  0
LINE
  8
1
 62
7
 10
-58.69999999999492
 20
-26.50410435609253
 30
0
 11
-59.19999999999501
 21
-26.50410435609253
 31
0
  0
LINE
  8
1
 62
7
 10
-58.19999999999413
 20
-47.49999999999976
 30
0
 11
-58.19999999999492
 21
-27.00410435609251
 31
0
  0
LINE
  8
1
 62
7
 10
-62.19999999999401
 20
-49.49999999999986
 30
0
 11
-60.19999999999413
 21
-49.49999999999986
 31
0
  0
LINE
  8
1
 62
7
 10
-62.19999999999401
 20
-49.99999999999986
 30
0
 11
-62.19999999999401
 21
-49.49999999999986
 31
0
  0
LINE
  8
1
 62
7
 10
-68.49999999999469
 20
-50.49999999999996
 30
0
 11
-62.69999999999401
 21
-50.49999999999986
 31
0
  0
LINE
  8
1
 62
7
 10
-73.49999999999412
 20
-49.49999999999996
 30
0
 11
-68.99999999999469
 21
-49.49999999999996
 31
0
  0
LINE
  8
1
 62
7
 10
-76.89999999999481
 20
38
 30
0
 11
-76.19999999999482
 21
38
 31
0
  0
LINE
  8
1
 62
7
 10
-76.89999999999481
 20
53
 30
0
 11
-76.19999999999482
 21
53
 31
0
  0
LINE
  8
1
 62
7
 10
-76.19999999999482
 20
53
 30
0
 11
-76.19999999999482
 21
40.54136836602153
 31
0
  0
LINE
  8
1
 62
7
 10
-76.19999999999482
 20
40.54136836602153
 30
0
 11
-75.4999999999948
 21
38
 31
0
  0
LINE
  8
1
 62
7
 10
-76.89999999999481
 20
40.61243556529822
 30
0
 11
-76.19999999999482
 21
38
 31
0
  0
LINE
  8
1
 62
7
 10
-76.19999999999482
 20
43
 30
0
 11
-74.39999999999481
 21
43
 31
0
  0
LINE
  8
1
 62
7
 10
-76.19999999999482
 20
52
 30
0
 11
-74.39999999999481
 21
52
 31
0
  0
LINE
  8
1
 62
7
 10
-75.4999999999948
 20
52
 30
0
 11
-75.4999999999948
 21
43
 31
0
  0
LINE
  8
1
 62
7
 10
-76.19999999999482
 20
-53.00000000000006
 30
0
 11
-75.4999999999948
 21
-53.00000000000006
 31
0
  0
LINE
  8
1
 62
7
 10
-73.89999999999481
 20
43.5
 30
0
 11
-73.89999999999481
 21
51.5
 31
0
  0
LINE
  8
1
 62
7
 10
-73.89999999999481
 20
51.5
 30
0
 11
-74.39999999999481
 21
52
 31
0
  0
LINE
  8
1
 62
7
 10
-73.89999999999481
 20
51.5
 30
0
 11
-74.39999999999481
 21
52
 31
0
  0
LINE
  8
1
 62
7
 10
-73.89999999999481
 20
43.5
 30
0
 11
-74.39999999999481
 21
43
 31
0
  0
LINE
  8
1
 62
7
 10
-73.89999999999481
 20
43.5
 30
0
 11
-74.39999999999481
 21
43
 31
0
  0
LINE
  8
1
 62
7
 10
-110.9999999999974
 20
-67.49999999999996
 30
0
 11
-110.9999999999974
 21
50
 31
0
  0
LINE
  8
1
 62
7
 10
-80.89999999999742
 20
53.75
 30
0
 11
-80.89999999999742
 21
-53.75000000000001
 31
0
  0
LINE
  8
1
 62
7
 10
-95.59999999999729
 20
56.5
 30
0
 11
-84.33205080756602
 21
56.5
 31
0
  0
LINE
  8
1
 62
7
 10
-84.33205080756602
 20
56.5
 30
0
 11
-82.59999999999732
 21
53.5
 31
0
  0
LINE
  8
1
 62
7
 10
-82.59999999999732
 20
53.5
 30
0
 11
-81.29999999999743
 21
53.5
 31
0
  0
LINE
  8
1
 62
7
 10
-82.59999999999732
 20
-53.49999999999996
 30
0
 11
-84.33205080756602
 21
-56.49999999999996
 31
0
  0
LINE
  8
1
 62
7
 10
-84.33205080756602
 20
-56.49999999999996
 30
0
 11
-95.59999999999729
 21
-56.49999999999996
 31
0
  0
LINE
  8
1
 62
7
 10
-95.59999999999729
 20
-56.49999999999996
 30
0
 11
-95.59999999999729
 21
56.5
 31
0
  0
LINE
  8
1
 62
7
 10
-108.3999999999972
 20
-67.49999999999996
 30
0
 11
-108.3999999999972
 21
50
 31
0
  0
LINE
  8
1
 62
7
 10
-98.79999999999723
 20
78.69036320982664
 30
0
 11
-98.79999999999723
 21
53.5
 31
0
  0
LINE
  8
1
 62
7
 10
-101.1999999999971
 20
78.69036320982664
 30
0
 11
-101.1999999999971
 21
53.5
 31
0
  0
LINE
  8
1
 62
7
 10
-110.9999999999974
 20
50
 30
0
 11
-108.3999999999972
 21
50
 31
0
  0
LINE
  8
1
 62
7
 10
-101.1999999999971
 20
78.69036320982664
 30
0
 11
-98.79999999999723
 21
78.69036320982664
 31
0
  0
LINE
  8
1
 62
3
  6
DASHDOT
 10
-110.9999999999974
 20
0
 30
0
 11
-115.9999999999974
 21
0
 31
0
  0
LINE
  8
1
 62
7
 10
-102.999999999997
 20
53.5
 30
0
 11
-95.59999999999729
 21
53.5
 31
0
  0
LINE
  8
1
 62
7
 10
-95.59999999999729
 20
-53.49999999999996
 30
0
 11
-102.999999999997
 21
-53.49999999999996
 31
0
  0
LINE
  8
1
 62
7
 10
-84.33205080756602
 20
56.5
 30
0
 11
-84.33205080756602
 21
-56.49999999999996
 31
0
  0
LINE
  8
1
 62
7
 10
-82.59999999999732
 20
-53.49999999999996
 30
0
 11
-82.59999999999732
 21
53.5
 31
0
  0
LINE
  8
1
 62
7
 10
-99.99999999999699
 20
83.69036320982664
 30
0
 11
-99.99999999999699
 21
78.69036320982664
 31
0
  0
LINE
  8
1
 62
7
 10
-99.49999999999699
 20
83.69036320982664
 30
0
 11
-99.49999999999699
 21
78.69036320982664
 31
0
  0
LINE
  8
1
 62
7
 10
-100.499999999997
 20
83.69036320982664
 30
0
 11
-100.499999999997
 21
78.69036320982664
 31
0
  0
LINE
  8
1
 62
3
  6
DASHDOT
 10
-113.9999999999974
 20
-60.99999999999996
 30
0
 11
-105.3999999999972
 21
-60.99999999999996
 31
0
  0
LINE
  8
1
 62
7
 10
-108.3999999999972
 20
-67.49999999999996
 30
0
 11
-110.9999999999974
 21
-67.49999999999996
 31
0
  0
LINE
  8
1
 62
7
 10
-58.19999999999521
 20
-20.99999999999984
 30
0
 11
-57.99999999999741
 21
-20.99999999999983
 31
0
  0
LINE
  8
1
 62
7
 10
-76.89999999999481
 20
-53.75
 30
0
 11
-80.89999999999742
 21
-53.75000000000001
 31
0
  0
LINE
  8
1
 62
7
 10
-76.89999999999481
 20
53.75
 30
0
 11
-80.89999999999742
 21
53.75
 31
0
  0
ARC
  8
1
 62
7
 10
8.000000000000199
 20
47.58428571428541
 30
0
 40
5.915714285714593
 50
90
 51
155.898430233179
  0
ARC
  8
1
 62
7
 10
8.000000000000199
 20
-32.99999999999996
 30
0
 40
6.000000000000015
 50
113.5564643091017
 51
154.1580672368365
  0
ARC
  8
1
 62
7
 10
8.000000000000199
 20
-47.49999999999996
 30
0
 40
6.000000000000013
 50
205.8419327631628
 51
270
  0
ARC
  8
1
 62
7
 10
8.000000000000199
 20
33
 30
0
 40
6.000000000000044
 50
205.8419327631636
 51
246.4435356908991
  0
ARC
  8
1
 62
7
 10
51.80000000000238
 20
-25.50109924362594
 30
0
 40
1
 50
90
 51
180
  0
ARC
  8
1
 62
7
 10
51.80000000000238
 20
-25.50410435609253
 30
0
 40
1
 50
180
 51
270
  0
ARC
  8
1
 62
7
 10
52.30000000000248
 20
-27.00410435609253
 30
0
 40
0.5
 50
0
 51
90
  0
ARC
  8
1
 62
7
 10
48.30000000000339
 20
-49.99999999999986
 30
0
 40
0.5
 50
270
 51
0
  0
ARC
  8
1
 62
7
 10
42.50000000000269
 20
-49.99999999999996
 30
0
 40
0.5
 50
180
 51
270
  0
ARC
  8
1
 62
7
 10
50.80000000000329
 20
-47.49999999999986
 30
0
 40
2
 50
270
 51
0
  0
ARC
  8
1
 62
7
 10
37.5000000000034
 20
-48.49999999999996
 30
0
 40
1
 50
180
 51
270
  0
ARC
  8
1
 62
7
 10
50.99999999999999
 20
33.00000000000014
 30
0
 40
2
 50
0
 51
90
  0
ARC
  8
1
 62
7
 10
42.9999999999994
 20
34.00000000000005
 30
0
 40
0.9999999999999929
 50
90
 51
180
  0
ARC
  8
1
 62
7
 10
37.50000000000249
 20
-27.49999999999996
 30
0
 40
0.9999999999999716
 50
90
 51
180
  0
ARC
  8
1
 62
7
 10
41.00000000000168
 20
-25.49999999999997
 30
0
 40
1
 50
270
 51
0
  0
ARC
  8
1
 62
7
 10
37.50000000000028
 20
29.50000000000003
 30
0
 40
1
 50
90
 51
180
  0
ARC
  8
1
 62
7
 10
141.0447392990936
 20
-39.50986842105256
 30
0
 40
11.99999999999997
 50
3.394498688914945
 51
57.20728763602104
  0
ARC
  8
1
 62
7
 10
191.9552607009064
 20
-39.50986842105266
 30
0
 40
12.00000000000009
 50
122.7927123639787
 51
176.6055013110851
  0
ARC
  8
1
 62
7
 10
145.011080597641
 20
41.79983663746695
 30
0
 40
11.99999999999996
 50
243.3944986889152
 51
297.2072876360214
  0
ARC
  8
1
 62
7
 10
119.5558198967347
 20
-2.289968216414209
 30
0
 40
11.99999999999999
 50
2.792712363978854
 51
56.60550131108506
  0
ARC
  8
1
 62
7
 10
213.4441801032654
 20
-2.289968216414209
 30
0
 40
12.00000000000002
 50
123.3944986889151
 51
177.2072876360211
  0
ARC
  8
1
 62
7
 10
187.988919402359
 20
41.79983663746695
 30
0
 40
12.00000000000004
 50
242.7927123639786
 51
296.6055013110847
  0
ARC
  8
1
 62
7
 10
152.5
 20
24.24871130596437
 30
0
 40
24.99999999999996
 50
120
 51
163.0478329667678
  0
ARC
  8
1
 62
7
 10
154.2440704095197
 20
26.28292582406288
 30
0
 40
13.00000000000002
 50
115.0000000000001
 51
162.3607155091333
  0
ARC
  8
1
 62
7
 10
166.5
 20
4.263256414560601e-014
 30
0
 40
38.00000000000004
 50
52.01584433361083
 51
127.984155666389
  0
ARC
  8
1
 62
7
 10
166.5
 20
4.263256414560601e-014
 30
0
 40
38.00000000000003
 50
172.0158443336108
 51
247.9841556663892
  0
ARC
  8
1
 62
7
 10
149.8662833458197
 20
-23.75540928438075
 30
0
 40
13.0000000000001
 50
234.9999999999991
 51
282.3607155091333
  0
ARC
  8
1
 62
7
 10
152.4999999999999
 20
-24.24871130596419
 30
0
 40
25.00000000000007
 50
240.0000000000001
 51
283.0478329667681
  0
ARC
  8
1
 62
7
 10
195.3896462446606
 20
-2.527516539682054
 30
0
 40
13
 50
354.9999999999997
 51
42.36071550913341
  0
ARC
  8
1
 62
7
 10
194.5
 20
1.4210854715202e-014
 30
0
 40
25.00000000000011
 50
359.9999999999997
 51
43.04783296676783
  0
ARC
  8
1
 62
7
 10
166.5
 20
4.263256414560601e-014
 30
0
 40
50.50000000000001
 50
143.3270588242186
 51
156.6729411757813
  0
ARC
  8
1
 62
7
 10
133.5910346561913
 20
19.00000000000003
 30
0
 40
13.50000000000005
 50
63.39449868891468
 51
124.2350427551474
  0
ARC
  8
1
 62
7
 10
166.5
 20
4.263256414560601e-014
 30
0
 40
50.50000000000004
 50
263.3270588242187
 51
276.6729411757813
  0
ARC
  8
1
 62
7
 10
166.5
 20
-37.99999999999996
 30
0
 40
13.50000000000005
 50
183.3944986889147
 51
244.2350427551481
  0
ARC
  8
1
 62
7
 10
166.5
 20
4.263256414560601e-014
 30
0
 40
50.50000000000003
 50
23.32705882421869
 51
36.6729411757813
  0
ARC
  8
1
 62
7
 10
199.4089653438087
 20
19
 30
0
 40
13.49999999999996
 50
303.3944986889151
 51
4.235042755148173
  0
ARC
  8
1
 62
7
 10
166.5
 20
4.263256414560601e-014
 30
0
 40
34.99999999999999
 50
302.7927123639788
 51
357.2072876360212
  0
ARC
  8
1
 62
7
 10
166.5
 20
4.263256414560601e-014
 30
0
 40
34.99999999999997
 50
182.7927123639788
 51
237.2072876360211
  0
ARC
  8
1
 62
7
 10
166.5
 20
4.263256414560601e-014
 30
0
 40
34.99999999999997
 50
62.79271236397886
 51
117.2072876360211
  0
ARC
  8
1
 62
7
 10
166.5
 20
1.190048060095705e-012
 30
0
 40
35.00000000000011
 50
357.2072876360193
 51
359.9999999999981
  0
ARC
  8
1
 62
7
 10
166.5
 20
-37.99999999999996
 30
0
 40
13.49999999999998
 50
295.764957244852
 51
356.6055013110849
  0
ARC
  8
1
 62
7
 10
133.5910346561913
 20
19.00000000000003
 30
0
 40
13.49999999999991
 50
175.764957244852
 51
236.6055013110853
  0
ARC
  8
1
 62
7
 10
199.4089653438087
 20
19
 30
0
 40
13.50000000000004
 50
55.7649572448521
 51
116.6055013110854
  0
ARC
  8
1
 62
7
 10
166.5
 20
4.263256414560601e-014
 30
0
 40
53
 50
59.99999999999999
 51
120
  0
ARC
  8
1
 62
7
 10
180.5
 20
24.24871130596433
 30
0
 40
24.99999999999997
 50
16.95216703323218
 51
59.99999999999999
  0
ARC
  8
1
 62
7
 10
166.5
 20
4.263256414560601e-014
 30
0
 40
42.00000000000005
 50
64.99999999999997
 51
115
  0
ARC
  8
1
 62
7
 10
178.7559295904803
 20
26.2829258240629
 30
0
 40
13.00000000000004
 50
17.63928449086626
 51
64.99999999999996
  0
ARC
  8
1
 62
7
 10
166.5
 20
4.263256414560601e-014
 30
0
 40
41.99999999999994
 50
304.9999999999999
 51
354.9999999999999
  0
ARC
  8
1
 62
7
 10
166.5
 20
4.263256414560601e-014
 30
0
 40
52.99999999999989
 50
299.9999999999998
 51
359.9999999999999
  0
ARC
  8
1
 62
7
 10
137.6103537553394
 20
-2.527516539682054
 30
0
 40
13.00000000000006
 50
137.6392844908664
 51
184.9999999999999
  0
ARC
  8
1
 62
7
 10
166.5
 20
4.263256414560601e-014
 30
0
 40
42.00000000000009
 50
185
 51
234.9999999999998
  0
ARC
  8
1
 62
7
 10
138.5
 20
2.842170943040401e-014
 30
0
 40
25.00000000000009
 50
136.9521670332319
 51
179.9999999999999
  0
ARC
  8
1
 62
7
 10
166.5
 20
4.263256414560601e-014
 30
0
 40
53.0000000000001
 50
180
 51
239.9999999999999
  0
ARC
  8
1
 62
7
 10
183.1337166541803
 20
-23.75540928438069
 30
0
 40
12.99999999999993
 50
257.6392844908666
 51
304.9999999999996
  0
ARC
  8
1
 62
7
 10
180.4999999999999
 20
-24.24871130596422
 30
0
 40
24.99999999999995
 50
256.9521670332324
 51
299.9999999999998
  0
ARC
  8
1
 62
7
 10
166.5
 20
4.263256414560601e-014
 30
0
 40
67.49999999999997
 50
132.2054464037323
 51
137.7945535962677
  0
ARC
  8
1
 62
7
 10
166.5
 20
4.263256414560601e-014
 30
0
 40
67.49999999999999
 50
222.2054464037323
 51
227.7945535962677
  0
ARC
  8
1
 62
7
 10
166.5
 20
4.263256414560601e-014
 30
0
 40
67.5
 50
42.2054464037323
 51
47.79455359626767
  0
ARC
  8
1
 62
7
 10
166.5
 20
4.263256414560601e-014
 30
0
 40
67.50000000000004
 50
312.2054464037323
 51
317.7945535962678
  0
ARC
  8
1
 62
7
 10
166.5
 20
4.263256414560601e-014
 30
0
 40
38.00000000000007
 50
292.0158443336109
 51
7.984155666389193
  0
ARC
  8
1
 62
3
  6
DASHDOT
 10
166.5
 20
4.263256414560601e-014
 30
0
 40
60.99999999999995
 50
37.50000000000002
 51
52.50000000000003
  0
ARC
  8
1
 62
3
  6
DASHDOT
 10
166.5
 20
4.263256414560601e-014
 30
0
 40
28.99999999999995
 50
47.50000000000006
 51
72.50000000000001
  0
ARC
  8
1
 62
7
 10
181.1412370500196
 20
-25.12039683665918
 30
0
 40
6.000000000000097
 50
221.3374421668261
 51
306.9257163810551
  0
ARC
  8
1
 62
7
 10
166.5
 20
-37.99999999999996
 30
0
 40
13.50000000000003
 50
41.33744216682625
 51
138.6625578331739
  0
ARC
  8
1
 62
7
 10
151.8587629499805
 20
-25.12039683665928
 30
0
 40
6.000000000000072
 50
233.0742836189435
 51
318.6625578331735
  0
ARC
  8
1
 62
7
 10
180.9342832886834
 20
25.23988164647651
 30
0
 40
6.000000000000075
 50
341.3374421668261
 51
66.92571638105576
  0
ARC
  8
1
 62
7
 10
137.4244796612971
 20
-0.1194848098172088
 30
0
 40
6.000000000000084
 50
101.337442166827
 51
186.9257163810555
  0
ARC
  8
1
 62
7
 10
199.4089653438087
 20
19
 30
0
 40
13.50000000000001
 50
161.3374421668263
 51
258.6625578331738
  0
ARC
  8
1
 62
7
 10
133.5910346561913
 20
19.00000000000003
 30
0
 40
13.49999999999999
 50
281.3374421668262
 51
18.66255783317386
  0
ARC
  8
1
 62
7
 10
195.575520338703
 20
-0.1194848098171804
 30
0
 40
6.000000000000052
 50
353.0742836189444
 51
78.66255783317395
  0
ARC
  8
1
 62
7
 10
152.0657167113166
 20
25.23988164647658
 30
0
 40
6.000000000000027
 50
113.0742836189445
 51
198.662557833174
  0
ARC
  8
1
 62
3
  6
DASHDOT
 10
166.5
 20
4.263256414560601e-014
 30
0
 40
61
 50
127.5
 51
142.5
  0
ARC
  8
1
 62
3
  6
DASHDOT
 10
166.5
 20
4.263256414560601e-014
 30
0
 40
60.99999999999997
 50
217.5
 51
232.5
  0
ARC
  8
1
 62
3
  6
DASHDOT
 10
166.5
 20
4.263256414560601e-014
 30
0
 40
60.99999999999996
 50
307.4999999999999
 51
322.5
  0
ARC
  8
1
 62
3
  6
DASHDOT
 10
166.5
 20
4.263256414560601e-014
 30
0
 40
28.99999999999997
 50
107.5
 51
132.4999999999999
  0
ARC
  8
1
 62
3
  6
DASHDOT
 10
166.5
 20
4.263256414560601e-014
 30
0
 40
28.99999999999992
 50
167.5
 51
192.5
  0
ARC
  8
1
 62
3
  6
DASHDOT
 10
166.5
 20
4.263256414560601e-014
 30
0
 40
28.99999999999992
 50
227.5
 51
252.5
  0
ARC
  8
1
 62
3
  6
DASHDOT
 10
166.5
 20
4.263256414560601e-014
 30
0
 40
28.99999999999989
 50
287.5
 51
312.5
  0
ARC
  8
1
 62
3
  6
DASHDOT
 10
166.5
 20
4.263256414560601e-014
 30
0
 40
28.99999999999985
 50
347.4999999999999
 51
12.49999999999998
  0
ARC
  8
1
 62
7
 10
-73.4999999999965
 20
8.500000000000028
 30
0
 40
1
 50
180
 51
270
  0
ARC
  8
1
 62
7
 10
-73.4999999999971
 20
29.50000000000003
 30
0
 40
1
 50
90
 51
180
  0
ARC
  8
1
 62
7
 10
-69.999999999995
 20
-25.49999999999993
 30
0
 40
1.000000000000043
 50
269.9999999999609
 51
0
  0
ARC
  8
1
 62
7
 10
-73.49999999999491
 20
-27.49999999999996
 30
0
 40
0.9999999999999716
 50
90
 51
180
  0
ARC
  8
1
 62
7
 10
-67.99999999999798
 20
34.00000000000005
 30
0
 40
1
 50
90
 51
180
  0
ARC
  8
1
 62
7
 10
-59.99999999999741
 20
33.00000000000014
 30
0
 40
2
 50
0
 51
90
  0
ARC
  8
1
 62
7
 10
-73.49999999999412
 20
-48.49999999999996
 30
0
 40
1
 50
180
 51
270
  0
ARC
  8
1
 62
7
 10
-60.19999999999413
 20
-47.49999999999986
 30
0
 40
2
 50
270
 51
0
  0
ARC
  8
1
 62
7
 10
-68.49999999999469
 20
-49.99999999999996
 30
0
 40
0.5
 50
180
 51
270
  0
ARC
  8
1
 62
7
 10
-62.69999999999401
 20
-49.99999999999986
 30
0
 40
0.5
 50
270
 51
0
  0
ARC
  8
1
 62
7
 10
-58.69999999999492
 20
-27.00410435609253
 30
0
 40
0.5
 50
0
 51
90
  0
ARC
  8
1
 62
7
 10
-59.19999999999501
 20
-25.50410435609253
 30
0
 40
1
 50
180
 51
270
  0
ARC
  8
1
 62
7
 10
-59.19999999999501
 20
-25.50109924362594
 30
0
 40
1
 50
90
 51
180
  0
ARC
  8
1
 62
7
 10
-102.999999999997
 20
-47.49999999999996
 30
0
 40
6.00000000000001
 50
205.8419327631628
 51
270
  0
ARC
  8
1
 62
7
 10
-102.999999999997
 20
47.58428571428541
 30
0
 40
5.915714285714593
 50
90
 51
155.898430233179
  0
CIRCLE
  8
1
 62
7
 10
166.5
 20
4.263256414560601e-014
 30
0
 40
53.75
  0
CIRCLE
  8
1
 62
7
 10
166.5
 20
4.263256414560601e-014
 30
0
 40
13.5
  0
CIRCLE
  8
1
 62
7
 10
166.5
 20
4.263256414560601e-014
 30
0
 40
10
  0
CIRCLE
  8
1
 62
7
 10
133.5910346561913
 20
19.00000000000003
 30
0
 40
11.5
  0
CIRCLE
  8
1
 62
7
 10
166.5
 20
-37.99999999999996
 30
0
 40
11.5
  0
CIRCLE
  8
1
 62
7
 10
199.4089653438087
 20
19
 30
0
 40
11.5
  0
CIRCLE
  8
1
 62
7
 10
166.5
 20
4.263256414560601e-014
 30
0
 40
21
  0
CIRCLE
  8
1
 62
7
 10
166.5
 20
4.263256414560601e-014
 30
0
 40
17.5
  0
CIRCLE
  8
1
 62
3
 10
195.4998129801452
 20
0.1041494916069183
 30
0
 40
3
  0
CIRCLE
  8
1
 62
7
 10
195.4998129801452
 20
0.1041494916069183
 30
0
 40
2.400000000000006
  0
CIRCLE
  8
1
 62
3
 10
181.0901025955954
 20
-25.06249999999997
 30
0
 40
3
  0
CIRCLE
  8
1
 62
7
 10
181.0901025955954
 20
-25.06249999999997
 30
0
 40
2.400000000000006
  0
CIRCLE
  8
1
 62
3
 10
152.0902896154502
 20
-25.16664949160686
 30
0
 40
3
  0
CIRCLE
  8
1
 62
7
 10
152.0902896154502
 20
-25.16664949160686
 30
0
 40
2.400000000000006
  0
CIRCLE
  8
1
 62
3
 10
137.5001870198548
 20
-0.1041494916068331
 30
0
 40
3
  0
CIRCLE
  8
1
 62
7
 10
137.5001870198548
 20
-0.1041494916068331
 30
0
 40
2.39999999999992
  0
CIRCLE
  8
1
 62
3
 10
151.9098974044046
 20
25.06250000000005
 30
0
 40
3
  0
CIRCLE
  8
1
 62
7
 10
151.9098974044046
 20
25.06250000000005
 30
0
 40
2.400000000000006
  0
CIRCLE
  8
1
 62
3
 10
180.9097103845498
 20
25.16664949160695
 30
0
 40
3
  0
CIRCLE
  8
1
 62
7
 10
180.9097103845498
 20
25.16664949160695
 30
0
 40
2.399999999999977
  0
CIRCLE
  8
1
 62
7
 10
166.5
 20
-37.99999999999996
 30
0
 40
8.5
  0
CIRCLE
  8
1
 62
7
 10
133.5910346561913
 20
19.00000000000003
 30
0
 40
8.5
  0
CIRCLE
  8
1
 62
7
 10
199.4089653438087
 20
19
 30
0
 40
8.5
  0
CIRCLE
  8
1
 62
7
 10
166.5
 20
47.50000000000003
 30
0
 40
4.5
  0
CIRCLE
  8
1
 62
7
 10
207.6362066797608
 20
-23.75
 30
0
 40
4.5
  0
CIRCLE
  8
1
 62
7
 10
199.4089653438087
 20
19
 30
0
 40
2.5
  0
CIRCLE
  8
1
 62
7
 10
125.3637933202392
 20
-23.74999999999999
 30
0
 40
4.500000000000014
  0
CIRCLE
  8
1
 62
7
 10
133.5910346561913
 20
19.00000000000003
 30
0
 40
2.515446296218983
  0
CIRCLE
  8
1
 62
7
 10
166.5
 20
-37.99999999999996
 30
0
 40
2.57830040172351
  0
CIRCLE
  8
1
 62
7
 10
209.6335136523794
 20
43.13351365237943
 30
0
 40
3.25
  0
CIRCLE
  8
1
 62
7
 10
123.3664863476206
 20
-43.13351365237936
 30
0
 40
3.25
  0
CIRCLE
  8
1
 62
7
 10
123.3664863476206
 20
43.13351365237943
 30
0
 40
3.25
  0
CIRCLE
  8
1
 62
7
 10
209.6335136523794
 20
-43.13351365237936
 30
0
 40
3.25
  0
CIRCLE
  8
1
 62
7
 10
166.5
 20
4.263256414560601e-014
 30
0
 40
56.5
  0
CIRCLE
  8
1
 62
7
 10
166.5
 20
-37.99999999999996
 30
0
 40
6
  0
CIRCLE
  8
1
 62
7
 10
199.4089653438087
 20
19
 30
0
 40
6
  0
CIRCLE
  8
1
 62
7
 10
133.5910346561913
 20
19.00000000000003
 30
0
 40
6.000000000000085
  0
TEXT
  8
1
 62
7
 10
-113.7051003153585
 20
100.151494715238
 30
0
 40
4
  1
DC2203
 41
0.9
  7
SIMPLEX
  0
TEXT
  8
1
 62
7
 10
-113.7051003153585
 20
107.2829276113022
 30
0
 40
4
  1
TMAF 2.5
 41
0.9
  7
SIMPLEX
  0
ENDSEC
  0
EOF
