  0
SECTION
  2
HEADER
  9
$ACADVER
  1
AC1009
  9
$INSBASE
 10
0
 20
0
  9
$EXTMIN
 10
-136.4
 20
-82.5
  9
$EXTMAX
 10
272.9940173953462
 20
127.3430403833911
  9
$LIMMIN
 10
-136.4
 20
-82.5
  9
$LIMMAX
 10
272.9940173953462
 20
127.3430403833911
  9
$VIEWCTR
 10
10
 20
10
  9
$VIEWSIZE
 40
10
  9
$SNAPMODE
 70
0
  9
$SNAPUNIT
 10
1
 20
1
  9
$SNAPBASE
 10
0
 20
0
  9
$SNAPANG
 50
0
  9
$SNAPSTYLE
 70
0
  9
$SNAPISOPAIR
 70
0
  9
$GRIDMODE
 70
0
  9
$GRIDUNIT
 10
0
 20
0
  9
$ORTHOMODE
 70
0
  9
$REGENMODE
 70
1
  9
$FILLMODE
 70
1
  9
$QTEXTMODE
 70
0
  9
$DRAGMODE
 70
2
  9
$LTSCALE
 40
1
  9
$OSMODE
 70
0
  9
$ATTMODE
 70
1
  9
$TEXTSIZE
 40
3.5
  9
$TRACEWID
 40
0.5
  9
$TEXTSTYLE
  7
STANDARD
  9
$CLAYER
  8
0
  9
$CELTYPE
  6
BYLAYER
  9
$CECOLOR
 62
256
  9
$DIMSCALE
 40
1
  9
$DIMASZ
 40
0.18
  9
$DIMEXO
 40
0.0625
  9
$DIMDLI
 40
0.38
  9
$DIMRND
 40
0
  9
$DIMDLE
 40
0
  9
$DIMEXE
 40
0.18
  9
$DIMTP
 40
0
  9
$DIMTM
 40
0
  9
$DIMTXT
 40
0.18
  9
$DIMCEN
 40
0.09
  9
$DIMTSZ
 40
0
  9
$DIMTOL
 70
0
  9
$DIMLIM
 70
0
  9
$DIMTIH
 70
1
  9
$DIMTOH
 70
1
  9
$DIMSE1
 70
0
  9
$DIMSE2
 70
0
  9
$DIMTAD
 70
0
  9
$DIMZIN
 70
0
  9
$DIMBLK
  1

  9
$DIMASO
 70
1
  9
$DIMSHO
 70
1
  9
$DIMPOST
  1

  9
$DIMAPOST
  1

  9
$DIMALT
 70
0
  9
$DIMALTD
 70
2
  9
$DIMALTF
 40
25.4
  9
$DIMLFAC
 40
1
  9
$DIMTOFL
 70
0
  9
$DIMTVP
 40
0
  9
$DIMTIX
 70
0
  9
$DIMSOXD
 70
0
  9
$DIMSAH
 70
0
  9
$DIMBLK1
  1

  9
$DIMBLK2
  1

  9
$DIMSTYLE
  2
*UNNAMED
  9
$DIMCLRD
 70
0
  9
$DIMCLRE
 70
0
  9
$DIMCLRT
 70
0
  9
$DIMTFAC
 40
1
  9
$DIMGAP
 40
0.09
  9
$LUNITS
 70
2
  9
$LUPREC
 70
4
  9
$AXISMODE
 70
0
  9
$AXISUNIT
 10
0
 20
0
  9
$SKETCHINC
 40
0.1
  9
$FILLETRAD
 40
2
  9
$AUNITS
 70
0
  9
$AUPREC
 70
0
  9
$MENU
  1
ACAD
  9
$ELEVATION
 40
0
  9
$THICKNESS
 40
0
  9
$VIEWDIR
 10
0
 20
0
 30
1
  9
$LIMCHECK
 70
0
  9
$BLIPMODE
 70
1
  9
$CHAMFERA
 40
0
  9
$CHAMFERB
 40
0
  9
$FASTZOOM
 70
1
  9
$SKPOLY
 70
0
  9
$ANGBASE
 50
0
  9
$ANGDIR
 70
0
  9
$PDMODE
 70
0
  9
$PDSIZE
 40
0
  9
$PLINEWID
 40
0
  9
$COORDS
 70
2
  0
ENDSEC
  0
SECTION
  2
TABLES
  0
TABLE
  2
DIMSTYLE
 70
0
  0
ENDTAB
  0
TABLE
  2
LTYPE
 70
9
  0
LTYPE
  2
CONTINUOUS
 70
64
  3
Solid line
 72
65
 73
0
 40
0
  0
LTYPE
  2
BORDER
 70
64
  3
__ __ . __ __ .
 72
65
 73
6
 40
18.85367185373305
 49
5.386763386780871
 49
-2.693381693390435
 49
5.386763386780871
 49
-2.693381693390435
 49
0
 49
-2.693381693390435
  0
LTYPE
  2
CENTER
 70
64
  3
____ _ ____ _
 72
65
 73
4
 40
21.54705354712348
 49
13.46690846695218
 49
-2.693381693390435
 49
2.693381693390435
 49
-2.693381693390435
  0
LTYPE
  2
DASHDOT
 70
64
  3
__ . __ . __ .
 72
65
 73
4
 40
10.77352677356174
 49
5.386763386780871
 49
-2.693381693390435
 49
0
 49
-2.693381693390435
  0
LTYPE
  2
DASHED
 70
64
  3
__ __ __ __ __
 72
65
 73
2
 40
8.080145080171306
 49
5.386763386780871
 49
-2.693381693390435
  0
LTYPE
  2
DIVIDE
 70
64
  3
__ . . __ . . 
 72
65
 73
6
 40
13.46690846695218
 49
5.386763386780871
 49
-2.693381693390435
 49
0
 49
-2.693381693390435
 49
0
 49
-2.693381693390435
  0
LTYPE
  2
DOT
 70
64
  3
..............
 72
65
 73
4
 40
5.386763386780871
 49
0
 49
-2.693381693390435
 49
0
 49
-2.693381693390435
  0
LTYPE
  2
HIDDEN
 70
64
  3
_ _ _ _ _ _ _
 72
65
 73
2
 40
4.040072540085653
 49
2.693381693390435
 49
-1.346690846695218
  0
LTYPE
  2
PHANTOM
 70
64
  3
_____ _ _ _____ _ _ 
 72
65
 73
6
 40
26.93381693390435
 49
13.46690846695218
 49
-2.693381693390435
 49
2.693381693390435
 49
-2.693381693390435
 49
2.693381693390435
 49
-2.693381693390435
  0
ENDTAB
  0
TABLE
  2
LAYER
 70
3
  0
LAYER
  2
1
 70
0
 62
7
  6
CONTINUOUS
  0
LAYER
  2
0
 70
0
 62
7
  6
CONTINUOUS
  0
ENDTAB
  0
TABLE
  2
STYLE
 70
4
  0
STYLE
  2
STANDARD
 70
0
 40
0
 41
1
 50
0
 71
0
 42
3.5
  3
txt
  4

  0
STYLE
  2
SIMPLEX
 70
0
 40
0
 41
1
 50
0
 71
0
 42
3.5
  3
simplex
  4

  0
STYLE
  2
COMPLEX
 70
0
 40
0
 41
1
 50
0
 71
0
 42
3.5
  3
complex
  4

  0
STYLE
  2
ITALIC
 70
0
 40
0
 41
1
 50
0
 71
0
 42
3.5
  3
italic
  4

  0
ENDTAB
  0
TABLE
  2
VIEW
 70
0
  0
ENDTAB
  0
ENDSEC
  0
SECTION
  2
BLOCKS
  0
ENDSEC
  0
SECTION
  2
ENTITIES
  0
LINE
  8
1
 62
7
 10
2.599999999999994
 20
-82.5
 30
0
 11
2.599999999999994
 21
62.5
 31
0
  0
LINE
  8
1
 62
7
 10
47.99999999999999
 20
-16
 30
0
 11
47.99999999999999
 21
-34.49999999999998
 31
0
  0
LINE
  8
1
 62
7
 10
33.59999999999988
 20
-16
 30
0
 11
33.59999999999988
 21
-67.74999999999999
 31
0
  0
LINE
  8
1
 62
7
 10
55.99999999999999
 20
-16
 30
0
 11
33.09999999999999
 21
-16
 31
0
  0
LINE
  8
1
 62
7
 10
33.09999999999999
 20
16
 30
0
 11
55.99999999999999
 21
16
 31
0
  0
LINE
  8
1
 62
7
 10
55.99999999999999
 20
-26
 30
0
 11
59.99999999999999
 21
-26
 31
0
  0
LINE
  8
1
 62
7
 10
47.99999999999999
 20
-21.5
 30
0
 11
55.99999999999999
 21
-21.5
 31
0
  0
LINE
  8
1
 62
7
 10
55.99999999999999
 20
21.5
 30
0
 11
47.99999999999999
 21
21.5
 31
0
  0
LINE
  8
1
 62
7
 10
55.99999999999999
 20
26
 30
0
 11
55.99999999999999
 21
-26
 31
0
  0
LINE
  8
1
 62
7
 10
59.99999999999999
 20
26
 30
0
 11
55.99999999999999
 21
26
 31
0
  0
LINE
  8
1
 62
3
  6
DASHDOT
 10
62.99999999999999
 20
35
 30
0
 11
44.99999999999999
 21
35
 31
0
  0
LINE
  8
1
 62
7
 10
47.99999999999999
 20
38.2
 30
0
 11
59.99999999999999
 21
38.2
 31
0
  0
LINE
  8
1
 62
7
 10
59.99999999999999
 20
31.8
 30
0
 11
47.99999999999999
 21
31.8
 31
0
  0
LINE
  8
1
 62
3
 10
47.99999999999999
 20
39
 30
0
 11
59.99999999999999
 21
39
 31
0
  0
LINE
  8
1
 62
3
 10
59.99999999999999
 20
31
 30
0
 11
47.99999999999999
 21
31
 31
0
  0
LINE
  8
1
 62
3
  6
DASHDOT
 10
59.99999999999999
 20
0
 30
0
 11
65
 21
0
 31
0
  0
LINE
  8
1
 62
7
 10
40.29999999999998
 20
16.75
 30
0
 11
41.29999999999998
 21
16.75
 31
0
  0
LINE
  8
1
 62
7
 10
41.29999999999998
 20
30.75
 30
0
 11
40.29999999999998
 21
30.75
 31
0
  0
LINE
  8
1
 62
7
 10
41.29999999999998
 20
35.25
 30
0
 11
41.29999999999998
 21
16
 31
0
  0
LINE
  8
1
 62
7
 10
47.99999999999999
 20
36.25
 30
0
 11
42.29999999999998
 21
36.25
 31
0
  0
LINE
  8
1
 62
7
 10
58.99999999999999
 20
-34.99999999999999
 30
0
 11
59.79999999999997
 21
-34.99999999999999
 31
0
  0
LINE
  8
1
 62
7
 10
57.99999999999999
 20
-33.00003882417309
 30
0
 11
57.99999999999999
 21
-33.99999999999999
 31
0
  0
LINE
  8
1
 62
7
 10
57.99999999999999
 20
43.00000000000001
 30
0
 11
48.99999999999999
 21
43.00000000000001
 31
0
  0
LINE
  8
1
 62
7
 10
59.99999999999999
 20
-32.00003882417309
 30
0
 11
59.99999999999999
 21
41
 31
0
  0
LINE
  8
1
 62
7
 10
58.99999999999999
 20
-32.00003882417309
 30
0
 11
59.99999999999999
 21
-32.00003882417309
 31
0
  0
LINE
  8
1
 62
7
 10
59.79999999999997
 20
-57.99999999999999
 30
0
 11
59.79999999999997
 21
-32.00003882417309
 31
0
  0
LINE
  8
1
 62
7
 10
47.99999999999999
 20
42.00000000000001
 30
0
 11
47.99999999999999
 21
16
 31
0
  0
LINE
  8
1
 62
7
 10
42.29999999999998
 20
-35
 30
0
 11
47.49999999999999
 21
-34.99999999999999
 31
0
  0
LINE
  8
1
 62
7
 10
41.29999999999998
 20
-59.00000000000001
 30
0
 11
41.29999999999998
 21
-36
 31
0
  0
LINE
  8
1
 62
7
 10
56.29999999999998
 20
-59.99999999999999
 30
0
 11
57.79999999999997
 21
-59.99999999999999
 31
0
  0
LINE
  8
1
 62
7
 10
55.79999999999998
 20
-61.49999999999999
 30
0
 11
55.79999999999998
 21
-60.49999999999999
 31
0
  0
LINE
  8
1
 62
7
 10
48.49999999999999
 20
-61.99999999999999
 30
0
 11
55.29999999999998
 21
-61.99999999999999
 31
0
  0
LINE
  8
1
 62
7
 10
47.99999999999999
 20
-60.49999999999999
 30
0
 11
47.99999999999999
 21
-61.49999999999999
 31
0
  0
LINE
  8
1
 62
7
 10
42.29999999999998
 20
-60.00000000000001
 30
0
 11
47.49999999999999
 21
-59.99999999999999
 31
0
  0
LINE
  8
1
 62
7
 10
40.29999999999998
 20
-54.49999999999999
 30
0
 11
41.29999999999998
 21
-54.49999999999999
 31
0
  0
LINE
  8
1
 62
7
 10
40.29999999999998
 20
-40.49999999999999
 30
0
 11
41.29999999999998
 21
-40.49999999999999
 31
0
  0
LINE
  8
1
 62
7
 10
39.29999999999998
 20
-16
 30
0
 11
39.29999999999998
 21
-66.53672573724259
 31
0
  0
LINE
  8
1
 62
7
 10
39.29999999999998
 20
-66.53672573724259
 30
0
 11
40.29999999999998
 21
-66.53672573724259
 31
0
  0
LINE
  8
1
 62
7
 10
40.29999999999998
 20
-16
 30
0
 11
40.29999999999998
 21
-66.53672573724259
 31
0
  0
LINE
  8
1
 62
7
 10
40.29999999999998
 20
47.63165249758737
 30
0
 11
40.29999999999998
 21
16
 31
0
  0
LINE
  8
1
 62
7
 10
39.49999999999999
 20
50.61729314364243
 30
0
 11
40.29999999999998
 21
47.63165249758737
 31
0
  0
LINE
  8
1
 62
7
 10
38.49999999999999
 20
50.4856406460551
 30
0
 11
39.29999999999998
 21
47.50000000000001
 31
0
  0
LINE
  8
1
 62
7
 10
38.55885855344859
 20
54.50000000000001
 30
0
 11
39.49999999999999
 21
54.50000000000001
 31
0
  0
LINE
  8
1
 62
7
 10
41.79999999999998
 20
55.50000000000001
 30
0
 11
42.29999999999998
 21
56.00000000000001
 31
0
  0
LINE
  8
1
 62
7
 10
41.79999999999998
 20
65.50000000000001
 30
0
 11
42.29999999999998
 21
65.00000000000001
 31
0
  0
LINE
  8
1
 62
7
 10
40.19999999999999
 20
65.50000000000001
 30
0
 11
40.19999999999999
 21
55.50000000000001
 31
0
  0
LINE
  8
1
 62
7
 10
38.49999999999999
 20
66.50000000000001
 30
0
 11
39.49999999999999
 21
66.50000000000001
 31
0
  0
LINE
  8
1
 62
7
 10
39.49999999999999
 20
66.50000000000001
 30
0
 11
39.49999999999999
 21
50.61729314364243
 31
0
  0
LINE
  8
1
 62
7
 10
39.49999999999999
 20
65.50000000000001
 30
0
 11
41.79999999999998
 21
65.50000000000001
 31
0
  0
LINE
  8
1
 62
7
 10
39.49999999999999
 20
55.50000000000001
 30
0
 11
41.79999999999998
 21
55.50000000000001
 31
0
  0
LINE
  8
1
 62
7
 10
42.29999999999998
 20
65.00000000000001
 30
0
 11
42.29999999999998
 21
56.00000000000001
 31
0
  0
LINE
  8
1
 62
7
 10
39.29999999999998
 20
-32.99999999999999
 30
0
 11
33.59999999999988
 21
-32.99999999999999
 31
0
  0
LINE
  8
1
 62
7
 10
33.59999999999988
 20
33
 30
0
 11
39.29999999999998
 21
33
 31
0
  0
LINE
  8
1
 62
7
 10
39.29999999999998
 20
47.50000000000001
 30
0
 11
39.29999999999998
 21
16
 31
0
  0
LINE
  8
1
 62
7
 10
38.49999999999999
 20
47.50000000000001
 30
0
 11
39.29999999999998
 21
47.50000000000001
 31
0
  0
LINE
  8
1
 62
3
  6
DASHDOT
 10
0
 20
0
 30
0
 11
-5.000000000000001
 21
0
 31
0
  0
LINE
  8
1
 62
7
 10
15.59999999999999
 20
67.19999999999999
 30
0
 11
25.59999999999999
 21
67.19999999999999
 31
0
  0
LINE
  8
1
 62
7
 10
15.59999999999999
 20
67.19999999999999
 30
0
 11
15.59999999999999
 21
67.5
 31
0
  0
LINE
  8
1
 62
7
 10
15.59999999999999
 20
67.5
 30
0
 11
9.599999999999994
 21
67.5
 31
0
  0
LINE
  8
1
 62
7
 10
31.19999999999999
 20
-28.99999999999989
 30
0
 11
32.99999999999999
 21
-28.99999999999989
 31
0
  0
LINE
  8
1
 62
7
 10
31.19999999999999
 20
29
 30
0
 11
32.99999999999999
 21
29
 31
0
  0
LINE
  8
1
 62
7
 10
25.59999999999999
 20
-67.19999999999999
 30
0
 11
15.59999999999999
 21
-67.19999999999999
 31
0
  0
LINE
  8
1
 62
7
 10
15.59999999999999
 20
-67.5
 30
0
 11
15.59999999999999
 21
-67.19999999999999
 31
0
  0
LINE
  8
1
 62
7
 10
25.59999999999999
 20
-34
 30
0
 11
25.59999999999999
 21
-67.19999999999999
 31
0
  0
LINE
  8
1
 62
7
 10
9.599999999999994
 20
-67.5
 30
0
 11
15.59999999999999
 21
-67.5
 31
0
  0
LINE
  8
1
 62
7
 10
25.59999999999999
 20
-34
 30
0
 11
7.001923788646678
 21
-34
 31
0
  0
LINE
  8
1
 62
7
 10
7.001923788646678
 20
34
 30
0
 11
25.59999999999999
 21
34
 31
0
  0
LINE
  8
1
 62
7
 10
25.59999999999999
 20
67.19999999999999
 30
0
 11
25.59999999999999
 21
34
 31
0
  0
LINE
  8
1
 62
7
 10
2.599999999999994
 20
-82.5
 30
0
 11
0
 21
-82.5
 31
0
  0
LINE
  8
1
 62
7
 10
0
 20
-82.5
 30
0
 11
0
 21
62.5
 31
0
  0
LINE
  8
1
 62
7
 10
0
 20
62.5
 30
0
 11
2.599999999999994
 21
62.5
 31
0
  0
LINE
  8
1
 62
7
 10
0
 20
-32.5
 30
0
 11
2.599999999999994
 21
-32.5
 31
0
  0
LINE
  8
1
 62
7
 10
2.599999999999994
 20
32.5
 30
0
 11
0
 21
32.5
 31
0
  0
LINE
  8
1
 62
7
 10
0
 20
-71.75
 30
0
 11
2.599999999999994
 21
-71.75
 31
0
  0
LINE
  8
1
 62
7
 10
0
 20
-78.25
 30
0
 11
2.599999999999994
 21
-78.25
 31
0
  0
LINE
  8
1
 62
3
  6
DASHDOT
 10
-3
 20
-75
 30
0
 11
5.599999999999995
 21
-75
 31
0
  0
LINE
  8
1
 62
7
 10
4
 20
15.5
 30
0
 11
32.99999999999999
 21
15.5
 31
0
  0
LINE
  8
1
 62
7
 10
4
 20
25.5
 30
0
 11
4
 21
-25.5
 31
0
  0
LINE
  8
1
 62
7
 10
17.19999999999999
 20
25.5
 30
0
 11
4
 21
25.5
 31
0
  0
LINE
  8
1
 62
7
 10
17.19999999999999
 20
25.5
 30
0
 11
17.19999999999999
 21
33
 31
0
  0
LINE
  8
1
 62
7
 10
17.19999999999999
 20
33
 30
0
 11
27.19999999999999
 21
33
 31
0
  0
LINE
  8
1
 62
7
 10
27.19999999999999
 20
33
 30
0
 11
27.19999999999999
 21
68.20000000000005
 31
0
  0
LINE
  8
1
 62
7
 10
27.19999999999999
 20
68.20000000000005
 30
0
 11
17.19999999999999
 21
68.20000000000005
 31
0
  0
LINE
  8
1
 62
7
 10
29.1792740578363
 20
71
 30
0
 11
31.19999999999999
 21
67.5
 31
0
  0
LINE
  8
1
 62
7
 10
31.19999999999999
 20
67.5
 30
0
 11
33.09999999999988
 21
67.5
 31
0
  0
LINE
  8
1
 62
7
 10
33.09999999999988
 20
67.5
 30
0
 11
33.09999999999988
 21
33.49999999999999
 31
0
  0
LINE
  8
1
 62
7
 10
31.19999999999999
 20
33.5
 30
0
 11
33.09999999999988
 21
33.49999999999999
 31
0
  0
LINE
  8
1
 62
7
 10
31.19999999999999
 20
33.5
 30
0
 11
31.19999999999999
 21
29
 31
0
  0
LINE
  8
1
 62
7
 10
17.19999999999999
 20
71
 30
0
 11
17.19999999999999
 21
68.20000000000005
 31
0
  0
LINE
  8
1
 62
7
 10
17.19999999999999
 20
71
 30
0
 11
29.1792740578363
 21
71
 31
0
  0
LINE
  8
1
 62
7
 10
29.1792740578363
 20
-70.99999999999989
 30
0
 11
17.19999999999999
 21
-70.99999999999989
 31
0
  0
LINE
  8
1
 62
7
 10
17.19999999999999
 20
-68.19999999999999
 30
0
 11
17.19999999999999
 21
-70.99999999999989
 31
0
  0
LINE
  8
1
 62
7
 10
31.19999999999999
 20
-28.99999999999989
 30
0
 11
31.19999999999999
 21
-33.49999999999989
 31
0
  0
LINE
  8
1
 62
7
 10
33.09999999999988
 20
-33.49999999999989
 30
0
 11
31.19999999999999
 21
-33.49999999999989
 31
0
  0
LINE
  8
1
 62
7
 10
33.09999999999988
 20
-67.49999999999989
 30
0
 11
31.19999999999999
 21
-67.49999999999989
 31
0
  0
LINE
  8
1
 62
7
 10
31.19999999999999
 20
-67.49999999999989
 30
0
 11
29.1792740578363
 21
-70.99999999999989
 31
0
  0
LINE
  8
1
 62
7
 10
17.19999999999999
 20
-68.19999999999999
 30
0
 11
27.19999999999999
 21
-68.19999999999999
 31
0
  0
LINE
  8
1
 62
7
 10
27.19999999999999
 20
-68.19999999999999
 30
0
 11
27.19999999999999
 21
-32.99999999999988
 31
0
  0
LINE
  8
1
 62
7
 10
27.19999999999999
 20
-32.99999999999988
 30
0
 11
17.19999999999999
 21
-32.99999999999987
 31
0
  0
LINE
  8
1
 62
7
 10
17.19999999999999
 20
-25.49999999999989
 30
0
 11
4
 21
-25.5
 31
0
  0
LINE
  8
1
 62
7
 10
32.99999999999999
 20
29
 30
0
 11
32.99999999999999
 21
-28.99999999999989
 31
0
  0
LINE
  8
1
 62
7
 10
11.34999999999999
 20
92.99542969767484
 30
0
 11
11.34999999999999
 21
67.5
 31
0
  0
LINE
  8
1
 62
7
 10
13.84999999999999
 20
92.99542969767484
 30
0
 11
13.84999999999999
 21
67.5
 31
0
  0
LINE
  8
1
 62
7
 10
11.34999999999999
 20
92.99542969767484
 30
0
 11
13.84999999999999
 21
92.99542969767484
 31
0
  0
LINE
  8
1
 62
7
 10
12.09999999999999
 20
95.99542969767484
 30
0
 11
12.09999999999999
 21
92.99542969767484
 31
0
  0
LINE
  8
1
 62
7
 10
13.09999999999999
 20
92.99542969767484
 30
0
 11
13.09999999999999
 21
95.99542969767484
 31
0
  0
LINE
  8
1
 62
7
 10
12.59999999999999
 20
92.99542969767484
 30
0
 11
12.59999999999999
 21
95.99542969767484
 31
0
  0
LINE
  8
1
 62
7
 10
17.19999999999999
 20
-25.49999999999989
 30
0
 11
17.19999999999999
 21
-32.99999999999987
 31
0
  0
LINE
  8
1
 62
7
 10
33.09999999999988
 20
-33.49999999999989
 30
0
 11
33.09999999999988
 21
-67.49999999999989
 31
0
  0
LINE
  8
1
 62
7
 10
33.59999999999988
 20
67.75
 30
0
 11
38.49999999999999
 21
67.75
 31
0
  0
LINE
  8
1
 62
7
 10
33.59999999999988
 20
67.75
 30
0
 11
33.59999999999988
 21
16
 31
0
  0
LINE
  8
1
 62
7
 10
38.49999999999999
 20
67.75
 30
0
 11
38.49999999999999
 21
47.50000000000001
 31
0
  0
LINE
  8
1
 62
7
 10
33.59999999999988
 20
-67.74999999999999
 30
0
 11
38.49999999999999
 21
-67.74999999999999
 31
0
  0
LINE
  8
1
 62
7
 10
38.49999999999999
 20
-67.74999999999999
 30
0
 11
38.49999999999999
 21
-47.5
 31
0
  0
LINE
  8
1
 62
7
 10
38.49999999999999
 20
-47.5
 30
0
 11
39.29999999999998
 21
-47.5
 31
0
  0
LINE
  8
1
 62
7
 10
39.29999999999998
 20
-37.58873634068348
 30
0
 11
40.29999999999998
 21
-37.58873634068348
 31
0
  0
LINE
  8
1
 62
7
 10
39.29999999999988
 20
-57.61295660208108
 30
0
 11
40.29999999999988
 21
-57.61295660208108
 31
0
  0
LINE
  8
1
 62
7
 10
4
 20
12.5
 30
0
 11
55.99999999999999
 21
12.5
 31
0
  0
LINE
  8
1
 62
7
 10
4
 20
-12.5
 30
0
 11
55.99999999999999
 21
-12.5
 31
0
  0
LINE
  8
1
 62
7
 10
-97.80000000000013
 20
-67.74999999999999
 30
0
 11
-97.80000000000013
 21
67.75
 31
0
  0
LINE
  8
1
 62
7
 10
-97.80000000000013
 20
-67.74999999999999
 30
0
 11
-92.90000000000001
 21
-67.75000000000001
 31
0
  0
LINE
  8
1
 62
7
 10
-92.90000000000001
 20
67.75
 30
0
 11
-92.90000000000001
 21
-67.75000000000001
 31
0
  0
LINE
  8
1
 62
7
 10
-97.80000000000013
 20
67.75
 30
0
 11
-92.90000000000001
 21
67.75
 31
0
  0
LINE
  8
1
 62
7
 10
-100.2
 20
-67.49999999999989
 30
0
 11
-100.2
 21
67.5
 31
0
  0
LINE
  8
1
 62
7
 10
-102.2207259421637
 20
71
 30
0
 11
-102.2207259421637
 21
-70.99999999999989
 31
0
  0
LINE
  8
1
 62
7
 10
-115.8
 20
67.35000000000002
 30
0
 11
-114.2
 21
67.35000000000002
 31
0
  0
LINE
  8
1
 62
7
 10
-115.8
 20
-67.34999999999997
 30
0
 11
-114.2
 21
-67.34999999999997
 31
0
  0
LINE
  8
1
 62
7
 10
-118.8
 20
92.99542969767484
 30
0
 11
-118.8
 21
95.99542969767484
 31
0
  0
LINE
  8
1
 62
7
 10
-118.3
 20
92.99542969767484
 30
0
 11
-118.3
 21
95.99542969767484
 31
0
  0
LINE
  8
1
 62
7
 10
-119.3
 20
95.99542969767484
 30
0
 11
-119.3
 21
92.99542969767484
 31
0
  0
LINE
  8
1
 62
7
 10
-120.05
 20
92.99542969767484
 30
0
 11
-117.55
 21
92.99542969767484
 31
0
  0
LINE
  8
1
 62
7
 10
-117.55
 20
92.99542969767484
 30
0
 11
-117.55
 21
67.5
 31
0
  0
LINE
  8
1
 62
7
 10
-120.05
 20
92.99542969767484
 30
0
 11
-120.05
 21
67.5
 31
0
  0
LINE
  8
1
 62
7
 10
-100.2
 20
-67.49999999999989
 30
0
 11
-102.2207259421637
 21
-70.99999999999989
 31
0
  0
LINE
  8
1
 62
7
 10
-98.30000000000013
 20
-67.4999999999999
 30
0
 11
-100.2
 21
-67.49999999999989
 31
0
  0
LINE
  8
1
 62
7
 10
-114.2
 20
-70.99999999999989
 30
0
 11
-114.2
 21
71
 31
0
  0
LINE
  8
1
 62
7
 10
-102.2207259421637
 20
-70.99999999999989
 30
0
 11
-114.2
 21
-70.99999999999989
 31
0
  0
LINE
  8
1
 62
7
 10
-114.2
 20
71
 30
0
 11
-102.2207259421637
 21
71
 31
0
  0
LINE
  8
1
 62
7
 10
-98.30000000000013
 20
67.5
 30
0
 11
-98.30000000000013
 21
-67.4999999999999
 31
0
  0
LINE
  8
1
 62
7
 10
-100.2
 20
67.5
 30
0
 11
-98.30000000000013
 21
67.5
 31
0
  0
LINE
  8
1
 62
7
 10
-102.2207259421637
 20
71
 30
0
 11
-100.2
 21
67.5
 31
0
  0
LINE
  8
1
 62
3
  6
DASHDOT
 10
-134.4
 20
-75
 30
0
 11
-125.8
 21
-75
 31
0
  0
LINE
  8
1
 62
7
 10
-131.4
 20
62.5
 30
0
 11
-128.8
 21
62.5
 31
0
  0
LINE
  8
1
 62
7
 10
-131.4
 20
-82.5
 30
0
 11
-131.4
 21
62.5
 31
0
  0
LINE
  8
1
 62
7
 10
-128.8
 20
-82.5
 30
0
 11
-131.4
 21
-82.5
 31
0
  0
LINE
  8
1
 62
7
 10
-121.8
 20
-67.5
 30
0
 11
-115.8
 21
-67.5
 31
0
  0
LINE
  8
1
 62
7
 10
-115.8
 20
-67.5
 30
0
 11
-115.8
 21
-67.34999999999997
 31
0
  0
LINE
  8
1
 62
7
 10
-115.8
 20
67.5
 30
0
 11
-121.8000000000001
 21
67.5
 31
0
  0
LINE
  8
1
 62
3
  6
DASHDOT
 10
-131.4
 20
0
 30
0
 11
-136.4
 21
0
 31
0
  0
LINE
  8
1
 62
7
 10
-115.8
 20
67.5
 30
0
 11
-115.8
 21
67.35000000000002
 31
0
  0
LINE
  8
1
 62
7
 10
-92.90000000000001
 20
47.50000000000001
 30
0
 11
-92.10000000000002
 21
47.50000000000001
 31
0
  0
LINE
  8
1
 62
7
 10
-92.10000000000002
 20
47.50000000000001
 30
0
 11
-92.10000000000002
 21
-66.53672573724259
 31
0
  0
LINE
  8
1
 62
7
 10
-89.10000000000002
 20
65.00000000000001
 30
0
 11
-89.10000000000002
 21
56.00000000000001
 31
0
  0
LINE
  8
1
 62
7
 10
-91.90000000000001
 20
55.50000000000001
 30
0
 11
-89.60000000000002
 21
55.50000000000001
 31
0
  0
LINE
  8
1
 62
7
 10
-91.90000000000001
 20
65.50000000000001
 30
0
 11
-89.60000000000002
 21
65.50000000000001
 31
0
  0
LINE
  8
1
 62
7
 10
-91.90000000000001
 20
66.50000000000001
 30
0
 11
-91.90000000000001
 21
50.61729314364243
 31
0
  0
LINE
  8
1
 62
7
 10
-92.90000000000001
 20
66.50000000000001
 30
0
 11
-91.90000000000001
 21
66.50000000000001
 31
0
  0
LINE
  8
1
 62
7
 10
-91.20000000000002
 20
65.50000000000001
 30
0
 11
-91.20000000000002
 21
55.50000000000001
 31
0
  0
LINE
  8
1
 62
7
 10
-89.60000000000002
 20
65.50000000000001
 30
0
 11
-89.10000000000002
 21
65.00000000000001
 31
0
  0
LINE
  8
1
 62
7
 10
-89.60000000000002
 20
55.50000000000001
 30
0
 11
-89.10000000000002
 21
56.00000000000001
 31
0
  0
LINE
  8
1
 62
7
 10
-92.90000000000001
 20
50.4856406460551
 30
0
 11
-92.10000000000002
 21
47.50000000000001
 31
0
  0
LINE
  8
1
 62
7
 10
-91.90000000000001
 20
50.61729314364243
 30
0
 11
-91.10000000000002
 21
47.63165249758737
 31
0
  0
LINE
  8
1
 62
7
 10
-91.10000000000002
 20
47.63165249758737
 30
0
 11
-91.10000000000002
 21
-66.53672573724259
 31
0
  0
LINE
  8
1
 62
7
 10
-92.10000000000002
 20
-66.53672573724259
 30
0
 11
-91.10000000000002
 21
-66.53672573724259
 31
0
  0
LINE
  8
1
 62
7
 10
-91.10000000000002
 20
-40.49999999999999
 30
0
 11
-90.10000000000002
 21
-40.49999999999999
 31
0
  0
LINE
  8
1
 62
7
 10
-91.10000000000002
 20
-54.49999999999999
 30
0
 11
-90.10000000000002
 21
-54.49999999999999
 31
0
  0
LINE
  8
1
 62
7
 10
-90.10000000000002
 20
-36
 30
0
 11
-90.10000000000002
 21
-59.00000000000001
 31
0
  0
LINE
  8
1
 62
7
 10
-89.10000000000002
 20
-60.00000000000001
 30
0
 11
-83.90000000000001
 21
-59.99999999999999
 31
0
  0
LINE
  8
1
 62
7
 10
-83.40000000000001
 20
42.00000000000001
 30
0
 11
-83.40000000000001
 21
-61.49999999999999
 31
0
  0
LINE
  8
1
 62
7
 10
-82.90000000000001
 20
-61.99999999999999
 30
0
 11
-76.10000000000002
 21
-61.99999999999999
 31
0
  0
LINE
  8
1
 62
7
 10
-75.60000000000002
 20
-61.49999999999999
 30
0
 11
-75.60000000000002
 21
-60.49999999999999
 31
0
  0
LINE
  8
1
 62
7
 10
-75.10000000000002
 20
-59.99999999999999
 30
0
 11
-73.60000000000002
 21
-59.99999999999999
 31
0
  0
LINE
  8
1
 62
7
 10
-89.10000000000002
 20
-35
 30
0
 11
-83.90000000000001
 21
-35
 31
0
  0
LINE
  8
1
 62
7
 10
-71.60000000000002
 20
-57.99999999999999
 30
0
 11
-71.60000000000002
 21
-32.00003882417309
 31
0
  0
LINE
  8
1
 62
7
 10
-71.60000000000002
 20
-32.00003882417309
 30
0
 11
-71.40000000000001
 21
-32.00003882417309
 31
0
  0
LINE
  8
1
 62
7
 10
-71.40000000000001
 20
-32.00003882417309
 30
0
 11
-71.40000000000001
 21
41
 31
0
  0
LINE
  8
1
 62
7
 10
-73.40000000000001
 20
43.00000000000001
 30
0
 11
-82.40000000000001
 21
43.00000000000001
 31
0
  0
LINE
  8
1
 62
7
 10
-83.40000000000001
 20
36.25
 30
0
 11
-89.10000000000002
 21
36.25
 31
0
  0
LINE
  8
1
 62
7
 10
-90.10000000000002
 20
35.25
 30
0
 11
-90.10000000000002
 21
12.25
 31
0
  0
LINE
  8
1
 62
7
 10
-90.10000000000002
 20
30.75
 30
0
 11
-91.10000000000002
 21
30.75
 31
0
  0
LINE
  8
1
 62
7
 10
-91.10000000000002
 20
16.75
 30
0
 11
-90.10000000000002
 21
16.75
 31
0
  0
LINE
  8
1
 62
3
  6
DASHDOT
 10
-71.40000000000001
 20
3.552713678800501e-015
 30
0
 11
-66.40000000000001
 21
1.97215226305253e-031
 31
0
  0
LINE
  8
1
 62
7
 10
-92.10000000000002
 20
-47.5
 30
0
 11
-92.90000000000001
 21
-47.5
 31
0
  0
LINE
  8
1
 62
7
 10
-83.40000000000001
 20
11.25
 30
0
 11
-89.10000000000002
 21
11.25
 31
0
  0
LINE
  8
1
 62
7
 10
-83.40000000000001
 20
-16
 30
0
 11
-91.10000000000002
 21
-16
 31
0
  0
LINE
  8
1
 62
7
 10
-128.8
 20
62.5
 30
0
 11
-128.8
 21
-82.5
 31
0
  0
LINE
  8
1
 62
7
  6
DASHED
 10
205.4940173953462
 20
15.5
 30
0
 11
205.4940173953462
 21
12.0166432875651
 31
0
  0
LINE
  8
1
 62
7
  6
DASHED
 10
198.4940173953462
 20
15.5
 30
0
 11
198.4940173953462
 21
12.0166432875651
 31
0
  0
LINE
  8
1
 62
7
  6
DASHED
 10
198.4940173953462
 20
15.5
 30
0
 11
205.4940173953462
 21
15.5
 31
0
  0
LINE
  8
1
 62
7
 10
264.4940173953463
 20
33.68605052540281
 30
0
 11
264.4940173953463
 21
53.85164807134503
 31
0
  0
LINE
  8
1
 62
7
 10
264.4940173953463
 20
-33.68605052540281
 30
0
 11
264.4940173953463
 21
-53.85164807134503
 31
0
  0
LINE
  8
1
 62
7
 10
235.6800679207491
 20
-62.49999999999999
 30
0
 11
255.8456654666913
 21
-62.49999999999999
 31
0
  0
LINE
  8
1
 62
7
 10
139.4940173953462
 20
-33.68605052540283
 30
0
 11
139.4940173953462
 21
-53.85164807134503
 31
0
  0
LINE
  8
1
 62
7
 10
168.3079668699434
 20
-62.49999999999999
 30
0
 11
148.1423693240012
 21
-62.49999999999999
 31
0
  0
LINE
  8
1
 62
7
 10
139.4940173953462
 20
33.68605052540283
 30
0
 11
139.4940173953462
 21
53.85164807134503
 31
0
  0
LINE
  8
1
 62
7
 10
168.3079668699434
 20
62.50000000000001
 30
0
 11
148.1423693240012
 21
62.50000000000001
 31
0
  0
LINE
  8
1
 62
7
 10
204.0172534666195
 20
99.47490172533136
 30
0
 11
204.0172534666195
 21
95.64395312194722
 31
0
  0
LINE
  8
1
 62
7
 10
203.3082122325287
 20
99.47490172533136
 30
0
 11
203.3082122325287
 21
95.64395312194722
 31
0
  0
LINE
  8
1
 62
7
 10
202.5282668750288
 20
99.47490172533136
 30
0
 11
202.5282668750288
 21
95.64395312194722
 31
0
  0
LINE
  8
1
 62
7
 10
201.5356091473016
 20
99.47490172533136
 30
0
 11
201.5356091473016
 21
95.64395312194722
 31
0
  0
LINE
  8
1
 62
7
 10
200.1884308025291
 20
99.47490172533136
 30
0
 11
200.1884308025291
 21
95.64395312194722
 31
0
  0
LINE
  8
1
 62
7
 10
200.8265679132108
 20
95.64395312194722
 30
0
 11
200.8265679132108
 21
99.47490172533136
 31
0
  0
LINE
  8
1
 62
7
 10
199.59539103691
 20
95.64395312194722
 30
0
 11
204.59539103691
 21
95.64395312194722
 31
0
  0
LINE
  8
1
 62
7
 10
204.59539103691
 20
95.64395312194722
 30
0
 11
204.59539103691
 21
70.9523280462098
 31
0
  0
LINE
  8
1
 62
7
 10
201.9940173953462
 20
95.64395312194722
 30
0
 11
201.9940173953462
 21
70.99999999999994
 31
0
  0
LINE
  8
1
 62
7
 10
199.59539103691
 20
95.64395312194722
 30
0
 11
199.59539103691
 21
70.9594714720495
 31
0
  0
LINE
  8
1
 62
7
 10
248.3015837162706
 20
28.467736688471
 30
0
 11
244.6302240751071
 21
26.34807621135331
 31
0
  0
LINE
  8
1
 62
7
 10
249.8015837162706
 20
25.86966047711768
 30
0
 11
246.1302240751071
 21
23.74999999999999
 31
0
  0
LINE
  8
1
 62
7
 10
240.1302240751071
 20
23.74999999999999
 30
0
 11
236.4588644339436
 21
21.6303395228823
 31
0
  0
LINE
  8
1
 62
7
 10
241.6302240751071
 20
21.15192378864666
 30
0
 11
237.9588644339436
 21
19.03226331152899
 31
0
  0
LINE
  8
1
 62
7
 10
154.1864510744219
 20
25.86966047711768
 30
0
 11
157.8578107155854
 21
23.74999999999999
 31
0
  0
LINE
  8
1
 62
7
 10
155.6864510744219
 20
28.467736688471
 30
0
 11
159.3578107155854
 21
26.34807621135331
 31
0
  0
LINE
  8
1
 62
7
 10
162.3578107155854
 20
21.15192378864668
 30
0
 11
166.0291703567489
 21
19.03226331152899
 31
0
  0
LINE
  8
1
 62
7
 10
163.8578107155854
 20
23.75
 30
0
 11
167.5291703567489
 21
21.6303395228823
 31
0
  0
LINE
  8
1
 62
7
 10
203.4940173953462
 20
-54.33739716558876
 30
0
 11
203.4940173953462
 21
-50.09807621135338
 31
0
  0
LINE
  8
1
 62
7
 10
200.4940173953462
 20
-54.33739716558873
 30
0
 11
200.4940173953462
 21
-50.09807621135338
 31
0
  0
LINE
  8
1
 62
7
 10
203.4940173953462
 20
-44.90192378864675
 30
0
 11
203.4940173953462
 21
-40.6626028344114
 31
0
  0
LINE
  8
1
 62
7
 10
200.4940173953462
 20
-44.9019237886467
 30
0
 11
200.4940173953462
 21
-40.6626028344114
 31
0
  0
LINE
  8
1
 62
3
  6
DASHDOT
 10
201.9940173953462
 20
5.000000000000004
 30
0
 11
201.9940173953462
 21
-4.999999999999996
 31
0
  0
LINE
  8
1
 62
3
  6
DASHDOT
 10
206.9940173953462
 20
3.552713678800501e-015
 30
0
 11
196.9940173953462
 21
3.552713678800501e-015
 31
0
  0
LINE
  8
1
 62
7
 10
235.6800679207491
 20
62.50000000000001
 30
0
 11
255.8456654666913
 21
62.50000000000001
 31
0
  0
LINE
  8
1
 62
3
  6
DASHDOT
 10
229.9940173953462
 20
3.552713678800501e-015
 30
0
 11
243.9940173953462
 21
-1.243449787580175e-014
 31
0
  0
LINE
  8
1
 62
3
  6
DASHDOT
 10
259.4464433667532
 20
57.452425971407
 30
0
 11
250.6076086019214
 21
48.61359120657519
 31
0
  0
LINE
  8
1
 62
3
  6
DASHDOT
 10
144.5415914239392
 20
57.45242597140702
 30
0
 11
153.380426188771
 21
48.61359120657519
 31
0
  0
LINE
  8
1
 62
3
  6
DASHDOT
 10
144.5415914239392
 20
-57.452425971407
 30
0
 11
153.380426188771
 21
-48.61359120657519
 31
0
  0
LINE
  8
1
 62
3
  6
DASHDOT
 10
259.4464433667532
 20
-57.45242597140702
 30
0
 11
250.6076086019214
 21
-48.61359120657519
 31
0
  0
LINE
  8
1
 62
3
  6
DASHDOT
 10
215.9940173953462
 20
24.24871130596429
 30
0
 11
222.9940173953462
 21
36.37306695894642
 31
0
  0
LINE
  8
1
 62
3
  6
DASHDOT
 10
187.9940173953462
 20
24.24871130596426
 30
0
 11
180.9940173953462
 21
36.37306695894642
 31
0
  0
LINE
  8
1
 62
3
  6
DASHDOT
 10
173.9940173953462
 20
-2.786892262699329e-014
 30
0
 11
159.9940173953462
 21
-6.441618251727769e-015
 31
0
  0
LINE
  8
1
 62
3
  6
DASHDOT
 10
187.9940173953462
 20
-24.24871130596429
 30
0
 11
180.9940173953462
 21
-36.37306695894642
 31
0
  0
LINE
  8
1
 62
3
  6
DASHDOT
 10
215.9940173953462
 20
-24.24871130596426
 30
0
 11
222.9940173953461
 21
-36.37306695894642
 31
0
  0
ARC
  8
1
 62
7
 10
9.599999999999994
 20
-60.50000000000001
 30
0
 40
7
 50
180
 51
270
  0
ARC
  8
1
 62
7
 10
9.599999999999994
 20
60.5
 30
0
 40
7
 50
90
 51
180
  0
ARC
  8
1
 62
7
 10
9.599999999999994
 20
-40.5
 30
0
 40
7
 50
111.7867892982618
 51
180
  0
ARC
  8
1
 62
7
 10
9.599999999999994
 20
40.5
 30
0
 40
7
 50
180
 51
248.2132107017382
  0
ARC
  8
1
 62
7
 10
42.29999999999998
 20
35.25
 30
0
 40
1
 50
90
 51
180
  0
ARC
  8
1
 62
7
 10
42.29999999999998
 20
-36
 30
0
 40
1
 50
90
 51
180
  0
ARC
  8
1
 62
7
 10
47.49999999999999
 20
-34.49999999999998
 30
0
 40
0.5000000000000142
 50
270
 51
0
  0
ARC
  8
1
 62
7
 10
56.29999999999998
 20
-60.49999999999999
 30
0
 40
0.5
 50
90
 51
180
  0
ARC
  8
1
 62
7
 10
47.49999999999999
 20
-60.49999999999999
 30
0
 40
0.5
 50
0
 51
90
  0
ARC
  8
1
 62
7
 10
58.99999999999999
 20
-33.99999999999999
 30
0
 40
1
 50
180
 51
270
  0
ARC
  8
1
 62
7
 10
58.99999999999999
 20
-33.00003882417309
 30
0
 40
1
 50
90
 51
180
  0
ARC
  8
1
 62
7
 10
42.29999999999998
 20
-59.00000000000001
 30
0
 40
1
 50
180
 51
270
  0
ARC
  8
1
 62
7
 10
48.49999999999999
 20
-61.49999999999999
 30
0
 40
0.5
 50
180
 51
270
  0
ARC
  8
1
 62
7
 10
55.29999999999998
 20
-61.49999999999999
 30
0
 40
0.5
 50
270
 51
0
  0
ARC
  8
1
 62
7
 10
57.79999999999997
 20
-57.99999999999999
 30
0
 40
2
 50
270
 51
0
  0
ARC
  8
1
 62
7
 10
48.99999999999999
 20
42.00000000000001
 30
0
 40
1
 50
90
 51
180
  0
ARC
  8
1
 62
7
 10
57.99999999999999
 20
41
 30
0
 40
2
 50
0
 51
90
  0
ARC
  8
1
 62
7
 10
-73.40000000000001
 20
41
 30
0
 40
2
 50
0
 51
90
  0
ARC
  8
1
 62
7
 10
-82.40000000000001
 20
42.00000000000001
 30
0
 40
1
 50
90
 51
180
  0
ARC
  8
1
 62
7
 10
-73.60000000000002
 20
-57.99999999999999
 30
0
 40
2
 50
270
 51
0
  0
ARC
  8
1
 62
7
 10
-76.10000000000002
 20
-61.49999999999999
 30
0
 40
0.5
 50
270
 51
0
  0
ARC
  8
1
 62
7
 10
-82.90000000000001
 20
-61.49999999999999
 30
0
 40
0.5
 50
180
 51
270
  0
ARC
  8
1
 62
7
 10
-89.10000000000002
 20
-59.00000000000001
 30
0
 40
1
 50
180
 51
270
  0
ARC
  8
1
 62
7
 10
-83.90000000000001
 20
-60.49999999999999
 30
0
 40
0.5
 50
0
 51
90
  0
ARC
  8
1
 62
7
 10
-75.10000000000002
 20
-60.49999999999999
 30
0
 40
0.5
 50
90
 51
180
  0
ARC
  8
1
 62
7
 10
-83.90000000000001
 20
-34.49999999999998
 30
0
 40
0.5000000000000213
 50
270
 51
0
  0
ARC
  8
1
 62
7
 10
-89.10000000000002
 20
-36
 30
0
 40
1
 50
90
 51
180
  0
ARC
  8
1
 62
7
 10
-89.10000000000002
 20
35.25
 30
0
 40
1
 50
90
 51
180
  0
ARC
  8
1
 62
7
 10
-89.10000000000002
 20
12.25
 30
0
 40
1
 50
180
 51
270
  0
ARC
  8
1
 62
7
 10
-121.8
 20
60.5
 30
0
 40
7
 50
90
 51
180
  0
ARC
  8
1
 62
7
 10
-121.8
 20
-60.50000000000001
 30
0
 40
7.000000000000014
 50
180
 51
270
  0
ARC
  8
1
 62
7
 10
201.9940173953462
 20
3.552713678800501e-015
 30
0
 40
82.50000000000007
 50
40.74905437747033
 51
49.25094562252959
  0
ARC
  8
1
 62
7
 10
201.9940173953462
 20
3.552713678800501e-015
 30
0
 40
82.50000000000004
 50
310.7490543774704
 51
319.2509456225296
  0
ARC
  8
1
 62
7
 10
201.9940173953462
 20
3.552713678800501e-015
 30
0
 40
82.5
 50
220.7490543774704
 51
229.2509456225297
  0
ARC
  8
1
 62
7
 10
201.9940173953462
 20
3.552713678800501e-015
 30
0
 40
82.49999999999996
 50
130.7490543774703
 51
139.2509456225296
  0
ARC
  8
1
 62
7
 10
201.9940173953462
 20
3.552713678800501e-015
 30
0
 40
66.99999999999999
 50
59.99999999999999
 51
120
  0
ARC
  8
1
 62
7
 10
201.9940173953462
 20
3.552713678800501e-015
 30
0
 40
53.99999999999999
 50
64.99999999999996
 51
114.9999999999999
  0
ARC
  8
1
 62
7
 10
201.9940173953462
 20
3.552713678800501e-015
 30
0
 40
54.00000000000004
 50
185.0000000000001
 51
235
  0
ARC
  8
1
 62
7
 10
201.9940173953462
 20
3.552713678800501e-015
 30
0
 40
67
 50
180.0000000000001
 51
240
  0
ARC
  8
1
 62
7
 10
164.9940173953462
 20
-2.486899575160351e-014
 30
0
 40
29.99999999999999
 50
130.796778267372
 51
180.0000000000001
  0
ARC
  8
1
 62
7
 10
166.1310082640434
 20
-3.137606738915709
 30
0
 40
18.00000000000007
 50
137.8182200673899
 51
185.0000000000001
  0
ARC
  8
1
 62
7
 10
222.6427691039839
 20
-29.4894735944037
 30
0
 40
17.99999999999999
 50
257.8182200673898
 51
304.9999999999999
  0
ARC
  8
1
 62
7
 10
220.4940173953462
 20
-32.04293994002423
 30
0
 40
30.00000000000001
 50
250.796778267372
 51
300.0000000000002
  0
ARC
  8
1
 62
7
 10
201.9940173953462
 20
3.552713678800501e-015
 30
0
 40
67.00000000000004
 50
300.0000000000001
 51
359.9999999999999
  0
ARC
  8
1
 62
7
 10
201.9940173953462
 20
3.552713678800501e-015
 30
0
 40
54.00000000000001
 50
305
 51
354.9999999999999
  0
ARC
  8
1
 62
7
 10
217.2082748180114
 20
32.62708033331938
 30
0
 40
18.00000000000005
 50
17.81822006739006
 51
65
  0
ARC
  8
1
 62
7
 10
220.4940173953462
 20
32.04293994002422
 30
0
 40
30.00000000000004
 50
10.79677826737204
 51
59.99999999999999
  0
ARC
  8
1
 62
7
 10
238.9940173953462
 20
-4.973799150320701e-014
 30
0
 40
30.00000000000011
 50
359.9999999999999
 51
49.20322173262787
  0
ARC
  8
1
 62
7
 10
183.4940173953462
 20
-32.04293994002422
 30
0
 40
30
 50
240
 51
289.2032217326278
  0
ARC
  8
1
 62
7
 10
183.4940173953462
 20
32.04293994002424
 30
0
 40
30
 50
120
 51
169.203221732628
  0
ARC
  8
1
 62
7
 10
201.9940173953462
 20
3.552713678800501e-015
 30
0
 40
47.49999999999995
 50
178.209989132878
 51
241.790010867122
  0
ARC
  8
1
 62
7
 10
181.3452656867086
 20
-29.4894735944037
 30
0
 40
18.00000000000002
 50
234.9999999999999
 51
282.18177993261
  0
ARC
  8
1
 62
7
 10
201.9940173953462
 20
3.552713678800501e-015
 30
0
 40
47.50000000000001
 50
298.209989132878
 51
1.79001086712199
  0
ARC
  8
1
 62
7
 10
234.9194932970776
 20
53.12403445376214
 30
0
 40
15.00000000000004
 50
238.2099891328779
 51
285.6169228354682
  0
ARC
  8
1
 62
7
 10
243.1302240751063
 20
23.75000000000131
 30
0
 40
15.49999999999993
 50
53.77859599899271
 51
105.6169228354681
  0
ARC
  8
1
 62
7
 10
201.9940173953462
 20
3.552713678800501e-015
 30
0
 40
61.99999999999997
 50
24.21471020877737
 51
35.78528979122623
  0
ARC
  8
1
 62
7
 10
243.1302240751063
 20
23.75000000000131
 30
0
 40
15.5000000000029
 50
314.3830771645288
 51
6.221404001010851
  0
ARC
  8
1
 62
7
 10
264.4635187346897
 20
1.952281335710637
 30
0
 40
15
 50
134.3830771645321
 51
181.790010867122
  0
ARC
  8
1
 62
7
 10
257.9699533312812
 20
6.837506523178945
 30
0
 40
10.00000000000144
 50
131.2650685104631
 51
203.0683384616756
  0
ARC
  8
1
 62
7
 10
240.4892282606628
 20
-0.6072400141754599
 30
0
 40
8.999999999999968
 50
359.0962666837436
 51
83.81173439445684
  0
ARC
  8
1
 62
7
 10
243.1302240751063
 20
23.75000000000131
 30
0
 40
15.50000000000002
 50
156.1882656055433
 51
263.8117343944635
  0
ARC
  8
1
 62
7
 10
220.7157375495341
 20
33.64145054049064
 30
0
 40
9.000000000000055
 50
336.1882656055431
 51
60.90373331625655
  0
ARC
  8
1
 62
7
 10
235.9034397109285
 20
45.05782925954048
 30
0
 40
9.999999999999972
 50
216.9316615383244
 51
288.7349314895365
  0
ARC
  8
1
 62
7
 10
237.8570265266491
 20
-3.137606738915739
 30
0
 40
17.99999999999999
 50
354.9999999999999
 51
42.18177993261022
  0
ARC
  8
1
 62
7
 10
201.9940173953462
 20
3.552713678800501e-015
 30
0
 40
47.49999999999998
 50
58.20998913287802
 51
121.790010867122
  0
ARC
  8
1
 62
7
 10
186.7797599726811
 20
32.6270803333194
 30
0
 40
18
 50
115
 51
162.1817799326101
  0
ARC
  8
1
 62
7
 10
139.5245160560027
 20
1.952281335710694
 30
0
 40
15.00000000000006
 50
358.209989132878
 51
45.61692283546814
  0
ARC
  8
1
 62
7
 10
160.8578107155846
 20
23.74999999999872
 30
0
 40
15.49999999999996
 50
173.7785959989926
 51
225.6169228354682
  0
ARC
  8
1
 62
7
 10
201.9940173953462
 20
3.552713678800501e-015
 30
0
 40
62
 50
144.2147102087774
 51
155.7852897912262
  0
ARC
  8
1
 62
7
 10
160.8578107155846
 20
23.74999999999872
 30
0
 40
15.50000000000293
 50
74.38307716452916
 51
126.2214040010109
  0
ARC
  8
1
 62
7
 10
169.0685414936148
 20
53.12403445376219
 30
0
 40
14.99999999999995
 50
254.3830771645318
 51
301.7900108671222
  0
ARC
  8
1
 62
7
 10
168.0845950797639
 20
45.05782925954051
 30
0
 40
10.00000000000143
 50
251.2650685104637
 51
323.0683384616757
  0
ARC
  8
1
 62
7
 10
183.2722972411583
 20
33.64145054049067
 30
0
 40
8.99999999999997
 50
119.0962666837437
 51
203.8117343944567
  0
ARC
  8
1
 62
7
 10
160.8578107155846
 20
23.74999999999872
 30
0
 40
15.49999999999999
 50
276.1882656055432
 51
23.8117343944635
  0
ARC
  8
1
 62
7
 10
163.4988065300296
 20
-0.6072400141754031
 30
0
 40
9.000000000000032
 50
96.18826560554317
 51
180.9037333162564
  0
ARC
  8
1
 62
7
 10
146.0180814594112
 20
6.837506523179002
 30
0
 40
9.999999999999911
 50
336.9316615383245
 51
48.73493148953683
  0
ARC
  8
1
 62
7
 10
224.0605310156989
 20
-51.89533578271947
 30
0
 40
9.999999999999943
 50
96.93166153832462
 51
168.7349314895367
  0
ARC
  8
1
 62
7
 10
221.7675081064749
 20
-33.03421052631519
 30
0
 40
9.000000000000064
 50
216.188265605543
 51
300.9037333162561
  0
ARC
  8
1
 62
7
 10
201.9940173953477
 20
-47.5
 30
0
 40
15.50000000000002
 50
36.18826560554308
 51
143.8117343944634
  0
ARC
  8
1
 62
7
 10
182.2205266842175
 20
-33.03421052631519
 30
0
 40
8.999999999999979
 50
239.0962666837438
 51
323.8117343944571
  0
ARC
  8
1
 62
7
 10
179.9275037749935
 20
-51.89533578271947
 30
0
 40
10.00000000000146
 50
11.26506851046327
 51
83.06833846167537
  0
ARC
  8
1
 62
7
 10
172.4499919577341
 20
-55.07631578947281
 30
0
 40
14.9999999999999
 50
14.38307716453189
 51
61.79001086712211
  0
ARC
  8
1
 62
7
 10
201.9940173953477
 20
-47.5
 30
0
 40
15.50000000000295
 50
194.3830771645291
 51
246.221404001011
  0
ARC
  8
1
 62
7
 10
201.9940173953462
 20
3.552713678800501e-015
 30
0
 40
62
 50
264.2147102087774
 51
275.7852897912263
  0
ARC
  8
1
 62
7
 10
201.9940173953477
 20
-47.5
 30
0
 40
15.50000000000001
 50
293.7785959989927
 51
345.6169228354681
  0
ARC
  8
1
 62
7
 10
231.5380428329583
 20
-55.07631578947281
 30
0
 40
15.00000000000002
 50
118.209989132878
 51
165.6169228354681
  0
ARC
  8
1
 62
3
  6
DASHDOT
 10
201.9940173953462
 20
3.552713678800501e-015
 30
0
 40
35.00000000000003
 50
345
 51
15.00000000000001
  0
ARC
  8
1
 62
3
  6
DASHDOT
 10
201.9940173953462
 20
3.552713678800501e-015
 30
0
 40
75.0000000000001
 50
37.49999999999998
 51
52.49999999999998
  0
ARC
  8
1
 62
3
  6
DASHDOT
 10
201.9940173953462
 20
3.552713678800501e-015
 30
0
 40
75.00000000000004
 50
127.5
 51
142.5
  0
ARC
  8
1
 62
3
  6
DASHDOT
 10
201.9940173953462
 20
3.552713678800501e-015
 30
0
 40
75.00000000000007
 50
217.5
 51
232.5
  0
ARC
  8
1
 62
3
  6
DASHDOT
 10
201.9940173953462
 20
3.552713678800501e-015
 30
0
 40
75.00000000000007
 50
307.5
 51
322.5000000000001
  0
ARC
  8
1
 62
3
  6
DASHDOT
 10
201.9940173953462
 20
3.552713678800501e-015
 30
0
 40
35.00000000000006
 50
44.99999999999996
 51
74.99999999999989
  0
ARC
  8
1
 62
3
  6
DASHDOT
 10
201.9940173953462
 20
3.552713678800501e-015
 30
0
 40
35.00000000000008
 50
105.0000000000001
 51
135
  0
ARC
  8
1
 62
3
  6
DASHDOT
 10
201.9940173953462
 20
3.552713678800501e-015
 30
0
 40
35.00000000000009
 50
165.0000000000001
 51
195
  0
ARC
  8
1
 62
3
  6
DASHDOT
 10
201.9940173953462
 20
3.552713678800501e-015
 30
0
 40
35.00000000000004
 50
225
 51
255.0000000000001
  0
ARC
  8
1
 62
3
  6
DASHDOT
 10
201.9940173953462
 20
3.552713678800501e-015
 30
0
 40
35.00000000000002
 50
284.9999999999999
 51
315.0000000000001
  0
CIRCLE
  8
1
 62
7
 10
201.9940173953462
 20
3.552713678800501e-015
 30
0
 40
67.75
  0
CIRCLE
  8
1
 62
7
 10
201.9940173953462
 20
3.552713678800501e-015
 30
0
 40
12.5
  0
CIRCLE
  8
1
 62
7
 10
255.0270259843373
 20
53.03300858899107
 30
0
 40
3.249999999999972
  0
CIRCLE
  8
1
 62
7
 10
255.0270259843373
 20
-53.03300858899106
 30
0
 40
3.249999999999972
  0
CIRCLE
  8
1
 62
7
 10
148.9610088063552
 20
-53.03300858899106
 30
0
 40
3.25
  0
CIRCLE
  8
1
 62
7
 10
148.9610088063552
 20
53.03300858899107
 30
0
 40
3.25
  0
CIRCLE
  8
1
 62
7
 10
201.9940173953462
 20
3.552713678800501e-015
 30
0
 40
71
  0
CIRCLE
  8
1
 62
7
 10
201.9940173953462
 20
60.5
 30
0
 40
5
  0
CIRCLE
  8
1
 62
7
 10
149.5994804663877
 20
-30.24999999999999
 30
0
 40
5
  0
CIRCLE
  8
1
 62
7
 10
254.3885543243048
 20
-30.25000000000005
 30
0
 40
4.999999999999972
  0
CIRCLE
  8
1
 62
7
 10
243.1302240751071
 20
23.74999999999997
 30
0
 40
3
  0
CIRCLE
  8
1
 62
7
 10
243.1302240751071
 20
23.74999999999997
 30
0
 40
12.5
  0
CIRCLE
  8
1
 62
7
 10
243.1302240751071
 20
23.74999999999997
 30
0
 40
10
  0
CIRCLE
  8
1
 62
7
 10
243.1302240751071
 20
23.74999999999997
 30
0
 40
7
  0
CIRCLE
  8
1
 62
7
 10
160.8578107155854
 20
23.75
 30
0
 40
12.5
  0
CIRCLE
  8
1
 62
7
 10
160.8578107155854
 20
23.75
 30
0
 40
10
  0
CIRCLE
  8
1
 62
7
 10
160.8578107155854
 20
23.75
 30
0
 40
7
  0
CIRCLE
  8
1
 62
7
 10
160.8578107155854
 20
23.75
 30
0
 40
3
  0
CIRCLE
  8
1
 62
7
 10
201.9940173953462
 20
-47.50000000000001
 30
0
 40
12.5
  0
CIRCLE
  8
1
 62
7
 10
201.9940173953462
 20
-47.50000000000001
 30
0
 40
10.00000000000011
  0
CIRCLE
  8
1
 62
7
 10
201.9940173953462
 20
-47.50000000000001
 30
0
 40
7.000000000000114
  0
CIRCLE
  8
1
 62
7
 10
201.9940173953462
 20
-47.50000000000001
 30
0
 40
3.000000000000114
  0
CIRCLE
  8
1
 62
7
 10
201.9940173953462
 20
3.552713678800501e-015
 30
0
 40
26
  0
CIRCLE
  8
1
 62
7
 10
201.9940173953462
 20
3.552713678800501e-015
 30
0
 40
21.5
  0
CIRCLE
  8
1
 62
7
 10
219.4940173953462
 20
30.31088913245535
 30
0
 40
3.200000000000017
  0
CIRCLE
  8
1
 62
3
 10
219.4940173953462
 20
30.31088913245535
 30
0
 40
4
  0
CIRCLE
  8
1
 62
7
 10
184.4940173953462
 20
30.31088913245536
 30
0
 40
3.200000000000017
  0
CIRCLE
  8
1
 62
3
 10
184.4940173953462
 20
30.31088913245536
 30
0
 40
4
  0
CIRCLE
  8
1
 62
7
 10
166.9940173953462
 20
1.953992523340276e-014
 30
0
 40
3.200000000000017
  0
CIRCLE
  8
1
 62
3
 10
166.9940173953462
 20
1.953992523340276e-014
 30
0
 40
4
  0
CIRCLE
  8
1
 62
7
 10
184.4940173953462
 20
-30.31088913245534
 30
0
 40
3.200000000000017
  0
CIRCLE
  8
1
 62
3
 10
184.4940173953462
 20
-30.31088913245534
 30
0
 40
4
  0
CIRCLE
  8
1
 62
7
 10
219.4940173953462
 20
-30.31088913245536
 30
0
 40
3.200000000000017
  0
CIRCLE
  8
1
 62
3
 10
219.4940173953462
 20
-30.31088913245536
 30
0
 40
4
  0
CIRCLE
  8
1
 62
7
 10
236.9940173953462
 20
-1.243449787580175e-014
 30
0
 40
3.200000000000017
  0
CIRCLE
  8
1
 62
3
 10
236.9940173953462
 20
-1.243449787580175e-014
 30
0
 40
4
  0
CIRCLE
  8
1
 62
7
 10
201.9940173953462
 20
3.552713678800501e-015
 30
0
 40
16
  0
TEXT
  8
1
 62
7
 10
-128.5648065918972
 20
122.3430403833911
 30
0
 40
5
  1
TMAF 5
 41
0.9
  7
SIMPLEX
  0
TEXT
  8
1
 62
7
 10
-128.5648065918972
 20
114.3665010142591
 30
0
 40
5
  1
DC2204
 41
0.9
  7
SIMPLEX
  0
ENDSEC
  0
EOF
