  0
SECTION
  2
HEADER
  9
$ACADVER
  1
AC1009
  9
$INSBASE
 10
0
 20
0
  9
$EXTMIN
 10
-168.4440418880371
 20
-105
  9
$EXTMAX
 10
339.4976800351696
 20
176.1144259971563
  9
$LIMMIN
 10
-168.4440418880371
 20
-105
  9
$LIMMAX
 10
339.4976800351696
 20
176.1144259971563
  9
$VIEWCTR
 10
10
 20
10
  9
$VIEWSIZE
 40
10
  9
$SNAPMODE
 70
0
  9
$SNAPUNIT
 10
1
 20
1
  9
$SNAPBASE
 10
0
 20
0
  9
$SNAPANG
 50
0
  9
$SNAPSTYLE
 70
0
  9
$SNAPISOPAIR
 70
0
  9
$GRIDMODE
 70
0
  9
$GRIDUNIT
 10
0
 20
0
  9
$ORTHOMODE
 70
0
  9
$REGENMODE
 70
1
  9
$FILLMODE
 70
1
  9
$QTEXTMODE
 70
0
  9
$DRAGMODE
 70
2
  9
$LTSCALE
 40
1
  9
$OSMODE
 70
0
  9
$ATTMODE
 70
1
  9
$TEXTSIZE
 40
3.5
  9
$TRACEWID
 40
0.5
  9
$TEXTSTYLE
  7
STANDARD
  9
$CLAYER
  8
0
  9
$CELTYPE
  6
BYLAYER
  9
$CECOLOR
 62
256
  9
$DIMSCALE
 40
1
  9
$DIMASZ
 40
0.18
  9
$DIMEXO
 40
0.0625
  9
$DIMDLI
 40
0.38
  9
$DIMRND
 40
0
  9
$DIMDLE
 40
0
  9
$DIMEXE
 40
0.18
  9
$DIMTP
 40
0
  9
$DIMTM
 40
0
  9
$DIMTXT
 40
0.18
  9
$DIMCEN
 40
0.09
  9
$DIMTSZ
 40
0
  9
$DIMTOL
 70
0
  9
$DIMLIM
 70
0
  9
$DIMTIH
 70
1
  9
$DIMTOH
 70
1
  9
$DIMSE1
 70
0
  9
$DIMSE2
 70
0
  9
$DIMTAD
 70
0
  9
$DIMZIN
 70
0
  9
$DIMBLK
  1

  9
$DIMASO
 70
1
  9
$DIMSHO
 70
1
  9
$DIMPOST
  1

  9
$DIMAPOST
  1

  9
$DIMALT
 70
0
  9
$DIMALTD
 70
2
  9
$DIMALTF
 40
25.4
  9
$DIMLFAC
 40
1
  9
$DIMTOFL
 70
0
  9
$DIMTVP
 40
0
  9
$DIMTIX
 70
0
  9
$DIMSOXD
 70
0
  9
$DIMSAH
 70
0
  9
$DIMBLK1
  1

  9
$DIMBLK2
  1

  9
$DIMSTYLE
  2
*UNNAMED
  9
$DIMCLRD
 70
0
  9
$DIMCLRE
 70
0
  9
$DIMCLRT
 70
0
  9
$DIMTFAC
 40
1
  9
$DIMGAP
 40
0.09
  9
$LUNITS
 70
2
  9
$LUPREC
 70
4
  9
$AXISMODE
 70
0
  9
$AXISUNIT
 10
0
 20
0
  9
$SKETCHINC
 40
0.1
  9
$FILLETRAD
 40
2
  9
$AUNITS
 70
0
  9
$AUPREC
 70
0
  9
$MENU
  1
ACAD
  9
$ELEVATION
 40
0
  9
$THICKNESS
 40
0
  9
$VIEWDIR
 10
0
 20
0
 30
1
  9
$LIMCHECK
 70
0
  9
$BLIPMODE
 70
1
  9
$CHAMFERA
 40
0
  9
$CHAMFERB
 40
0
  9
$FASTZOOM
 70
1
  9
$SKPOLY
 70
0
  9
$ANGBASE
 50
0
  9
$ANGDIR
 70
0
  9
$PDMODE
 70
0
  9
$PDSIZE
 40
0
  9
$PLINEWID
 40
0
  9
$COORDS
 70
2
  0
ENDSEC
  0
SECTION
  2
TABLES
  0
TABLE
  2
DIMSTYLE
 70
0
  0
ENDTAB
  0
TABLE
  2
LTYPE
 70
9
  0
LTYPE
  2
CONTINUOUS
 70
64
  3
Solid line
 72
65
 73
0
 40
0
  0
LTYPE
  2
BORDER
 70
64
  3
__ __ . __ __ .
 72
65
 73
6
 40
23.39205298330557
 49
6.683443709515878
 49
-3.341721854757939
 49
6.683443709515878
 49
-3.341721854757939
 49
0
 49
-3.341721854757939
  0
LTYPE
  2
CENTER
 70
64
  3
____ _ ____ _
 72
65
 73
4
 40
26.73377483806351
 49
16.70860927378969
 49
-3.341721854757939
 49
3.341721854757939
 49
-3.341721854757939
  0
LTYPE
  2
DASHDOT
 70
64
  3
__ . __ . __ .
 72
65
 73
4
 40
13.36688741903176
 49
6.683443709515878
 49
-3.341721854757939
 49
0
 49
-3.341721854757939
  0
LTYPE
  2
DASHED
 70
64
  3
__ __ __ __ __
 72
65
 73
2
 40
10.02516556427382
 49
6.683443709515878
 49
-3.341721854757939
  0
LTYPE
  2
DIVIDE
 70
64
  3
__ . . __ . . 
 72
65
 73
6
 40
16.70860927378969
 49
6.683443709515878
 49
-3.341721854757939
 49
0
 49
-3.341721854757939
 49
0
 49
-3.341721854757939
  0
LTYPE
  2
DOT
 70
64
  3
..............
 72
65
 73
4
 40
6.683443709515878
 49
0
 49
-3.341721854757939
 49
0
 49
-3.341721854757939
  0
LTYPE
  2
HIDDEN
 70
64
  3
_ _ _ _ _ _ _
 72
65
 73
2
 40
5.012582782136908
 49
3.341721854757939
 49
-1.670860927378969
  0
LTYPE
  2
PHANTOM
 70
64
  3
_____ _ _ _____ _ _ 
 72
65
 73
6
 40
33.41721854757939
 49
16.70860927378969
 49
-3.341721854757939
 49
3.341721854757939
 49
-3.341721854757939
 49
3.341721854757939
 49
-3.341721854757939
  0
ENDTAB
  0
TABLE
  2
LAYER
 70
3
  0
LAYER
  2
1
 70
0
 62
7
  6
CONTINUOUS
  0
LAYER
  2
0
 70
0
 62
7
  6
CONTINUOUS
  0
ENDTAB
  0
TABLE
  2
STYLE
 70
4
  0
STYLE
  2
STANDARD
 70
0
 40
0
 41
1
 50
0
 71
0
 42
3.5
  3
txt
  4

  0
STYLE
  2
SIMPLEX
 70
0
 40
0
 41
1
 50
0
 71
0
 42
3.5
  3
simplex
  4

  0
STYLE
  2
COMPLEX
 70
0
 40
0
 41
1
 50
0
 71
0
 42
3.5
  3
complex
  4

  0
STYLE
  2
ITALIC
 70
0
 40
0
 41
1
 50
0
 71
0
 42
3.5
  3
italic
  4

  0
ENDTAB
  0
TABLE
  2
VIEW
 70
0
  0
ENDTAB
  0
ENDSEC
  0
SECTION
  2
BLOCKS
  0
ENDSEC
  0
SECTION
  2
ENTITIES
  0
LINE
  8
1
 62
7
 10
67.50000000000017
 20
-19.99999999999999
 30
0
 11
37.50000000000016
 21
-19.99999999999999
 31
0
  0
LINE
  8
1
 62
7
 10
19.20000000000016
 20
33.50000000000001
 30
0
 11
5.000000000000171
 21
33.50000000000001
 31
0
  0
LINE
  8
1
 62
7
 10
13.20000000000016
 20
134.6230738313751
 30
0
 11
13.20000000000016
 21
84.5
 31
0
  0
LINE
  8
1
 62
7
 10
15.60000000000019
 20
84.5
 30
0
 11
15.60000000000019
 21
134.6230738313751
 31
0
  0
LINE
  8
1
 62
7
 10
13.20000000000016
 20
134.6230738313751
 30
0
 11
15.60000000000019
 21
134.6230738313751
 31
0
  0
LINE
  8
1
 62
7
 10
35.2000000000001
 20
84.5
 30
0
 11
32.60192378864679
 21
89
 31
0
  0
LINE
  8
1
 62
7
 10
37.7000000000001
 20
42.00000000000001
 30
0
 11
35.2000000000001
 21
42.00000000000001
 31
0
  0
LINE
  8
1
 62
7
 10
35.2000000000001
 20
42.00000000000001
 30
0
 11
35.2000000000001
 21
37.00000000000001
 31
0
  0
LINE
  8
1
 62
7
 10
4.5
 20
-32.99999999999999
 30
0
 11
4.500000000000171
 21
33.00000000000001
 31
0
  0
LINE
  8
1
 62
7
 10
5
 20
-33.49999999999999
 30
0
 11
4.5
 21
-32.99999999999999
 31
0
  0
LINE
  8
1
 62
7
 10
5.000000000000171
 20
33.50000000000001
 30
0
 11
4.500000000000171
 21
33.00000000000001
 31
0
  0
LINE
  8
1
 62
7
 10
37.5
 20
18.00000000000001
 30
0
 11
4.5
 21
18.00000000000001
 31
0
  0
LINE
  8
1
 62
7
 10
1.70530256582424e-013
 20
-105
 30
0
 11
2.900000000000205
 21
-105
 31
0
  0
LINE
  8
1
 62
7
 10
1.70530256582424e-013
 20
-99.25000000000003
 30
0
 11
2.900000000000205
 21
-99.25000000000003
 31
0
  0
LINE
  8
1
 62
3
  6
DASHDOT
 10
-2.99999999999983
 20
-95.00000000000003
 30
0
 11
5.900000000000204
 21
-95.00000000000003
 31
0
  0
LINE
  8
1
 62
7
 10
1.70530256582424e-013
 20
-90.75000000000003
 30
0
 11
2.900000000000205
 21
-90.75000000000003
 31
0
  0
LINE
  8
1
 62
7
 10
1.70530256582424e-013
 20
-39.99999999999999
 30
0
 11
2.900000000000205
 21
-39.99999999999999
 31
0
  0
LINE
  8
1
 62
7
 10
1.70530256582424e-013
 20
40.00000000000001
 30
0
 11
2.900000000000205
 21
40.00000000000001
 31
0
  0
LINE
  8
1
 62
7
 10
1.70530256582424e-013
 20
78
 30
0
 11
2.900000000000205
 21
78
 31
0
  0
LINE
  8
1
 62
7
 10
14.9000000000002
 20
136.7873208451654
 30
0
 11
14.9000000000002
 21
134.6230738313751
 31
0
  0
LINE
  8
1
 62
7
 10
13.9000000000002
 20
136.7873208451654
 30
0
 11
13.9000000000002
 21
134.6230738313751
 31
0
  0
LINE
  8
1
 62
7
 10
16.4000000000002
 20
84.5
 30
0
 11
16.4000000000002
 21
84.24999999999992
 31
0
  0
LINE
  8
1
 62
7
 10
16.4000000000002
 20
84.24999999999992
 30
0
 11
27.9000000000002
 21
84.24999999999992
 31
0
  0
LINE
  8
1
 62
7
 10
27.9000000000002
 20
84.24999999999992
 30
0
 11
27.9000000000002
 21
42.50000000000001
 31
0
  0
LINE
  8
1
 62
7
 10
10.9000000000002
 20
-84.50000000000003
 30
0
 11
16.4000000000002
 21
-84.50000000000003
 31
0
  0
LINE
  8
1
 62
7
 10
27.9000000000002
 20
-84.24999999999994
 30
0
 11
16.4000000000002
 21
-84.24999999999994
 31
0
  0
LINE
  8
1
 62
7
 10
16.4000000000002
 20
-84.24999999999994
 30
0
 11
16.4000000000002
 21
-84.50000000000003
 31
0
  0
LINE
  8
1
 62
7
 10
37.50000000000017
 20
37.00000000000001
 30
0
 11
37.50000000000017
 21
-36.99999999999999
 31
0
  0
LINE
  8
1
 62
7
 10
67.50000000000017
 20
15.00000000000002
 30
0
 11
4.5
 21
15.00000000000001
 31
0
  0
LINE
  8
1
 62
7
 10
4.5
 20
-14.99999999999999
 30
0
 11
67.50000000000017
 21
-14.99999999999999
 31
0
  0
LINE
  8
1
 62
7
 10
1.70530256582424e-013
 20
-105
 30
0
 11
1.70530256582424e-013
 21
78
 31
0
  0
LINE
  8
1
 62
7
 10
2.900000000000205
 20
-105
 30
0
 11
2.900000000000205
 21
78
 31
0
  0
LINE
  8
1
 62
7
 10
27.9000000000002
 20
42.50000000000001
 30
0
 11
8.116117818585053
 21
42.50000000000001
 31
0
  0
LINE
  8
1
 62
7
 10
19.18930773256091
 20
41.50000000000003
 30
0
 11
19.18930773256091
 21
33.50000000000001
 31
0
  0
LINE
  8
1
 62
7
 10
19.18930773256091
 20
41.50000000000003
 30
0
 11
30.68930773256091
 21
41.50000000000003
 31
0
  0
LINE
  8
1
 62
7
 10
19.18930773256091
 20
85.25
 30
0
 11
30.68930773256091
 21
85.25
 31
0
  0
LINE
  8
1
 62
7
 10
19.18930773256091
 20
85.25
 30
0
 11
19.18930773256091
 21
89
 31
0
  0
LINE
  8
1
 62
7
 10
19.18930773256091
 20
89
 30
0
 11
32.60192378864679
 21
89
 31
0
  0
LINE
  8
1
 62
7
 10
35.2000000000001
 20
84.5
 30
0
 11
37.7000000000001
 21
84.5
 31
0
  0
LINE
  8
1
 62
7
 10
30.68930773256091
 20
85.25
 30
0
 11
30.68930773256091
 21
41.50000000000003
 31
0
  0
LINE
  8
1
 62
7
 10
30.68930773256091
 20
-41.4999999999999
 30
0
 11
30.68930773256091
 21
-85.24999999999983
 31
0
  0
LINE
  8
1
 62
7
 10
37.7000000000001
 20
-84.49999999999983
 30
0
 11
35.2000000000001
 21
-84.49999999999983
 31
0
  0
LINE
  8
1
 62
7
 10
32.60192378864679
 20
-88.99999999999983
 30
0
 11
19.18930773256091
 21
-88.99999999999983
 31
0
  0
LINE
  8
1
 62
7
 10
19.18930773256091
 20
-88.99999999999983
 30
0
 11
19.18930773256091
 21
-85.24999999999983
 31
0
  0
LINE
  8
1
 62
7
 10
30.68930773256091
 20
-85.24999999999983
 30
0
 11
19.18930773256091
 21
-85.24999999999983
 31
0
  0
LINE
  8
1
 62
7
 10
30.68930773256091
 20
-41.4999999999999
 30
0
 11
19.18930773256091
 21
-41.4999999999999
 31
0
  0
LINE
  8
1
 62
7
 10
19.18930773256091
 20
-33.49999999999988
 30
0
 11
19.18930773256091
 21
-41.4999999999999
 31
0
  0
LINE
  8
1
 62
7
 10
27.9000000000002
 20
-42.49999999999988
 30
0
 11
27.9000000000002
 21
-84.24999999999994
 31
0
  0
LINE
  8
1
 62
7
 10
35.2000000000001
 20
-36.99999999999988
 30
0
 11
35.2000000000001
 21
-41.99999999999988
 31
0
  0
LINE
  8
1
 62
7
 10
35.2000000000001
 20
-41.99999999999988
 30
0
 11
37.7000000000001
 21
-41.99999999999988
 31
0
  0
LINE
  8
1
 62
7
 10
32.60192378864679
 20
-88.99999999999983
 30
0
 11
35.2000000000001
 21
-84.49999999999983
 31
0
  0
LINE
  8
1
 62
7
 10
8.116117818585053
 20
-42.49999999999988
 30
0
 11
27.9000000000002
 21
-42.49999999999988
 31
0
  0
LINE
  8
1
 62
7
 10
27.9000000000002
 20
-42.49999999999988
 30
0
 11
27.9000000000002
 21
-84.24999999999994
 31
0
  0
LINE
  8
1
 62
7
 10
19.18930773256091
 20
-33.49999999999988
 30
0
 11
5
 21
-33.49999999999999
 31
0
  0
LINE
  8
1
 62
7
 10
35.2000000000001
 20
-36.99999999999988
 30
0
 11
37.50000000000017
 21
-36.99999999999999
 31
0
  0
LINE
  8
1
 62
7
 10
35.2000000000001
 20
37.00000000000001
 30
0
 11
37.50000000000017
 21
37.00000000000001
 31
0
  0
LINE
  8
1
 62
7
 10
10.9000000000002
 20
84.5
 30
0
 11
16.4000000000002
 21
84.5
 31
0
  0
LINE
  8
1
 62
7
 10
37.7000000000001
 20
84.5
 30
0
 11
37.7000000000001
 21
42.00000000000001
 31
0
  0
LINE
  8
1
 62
3
  6
DASHDOT
 10
0
 20
0
 30
0
 11
-4.99999999999983
 21
0
 31
0
  0
LINE
  8
1
 62
7
 10
14.4000000000002
 20
136.7873208451654
 30
0
 11
14.4000000000002
 21
134.6230738313751
 31
0
  0
LINE
  8
1
 62
7
 10
37.7000000000001
 20
-41.99999999999988
 30
0
 11
37.7000000000001
 21
-84.49999999999983
 31
0
  0
LINE
  8
1
 62
3
  6
DASHDOT
 10
74.50000000000017
 20
42.50000000000001
 30
0
 11
53.50000000000018
 21
42.50000000000001
 31
0
  0
LINE
  8
1
 62
7
 10
56.50000000000017
 20
46.50000000000001
 30
0
 11
71.50000000000017
 21
46.50000000000001
 31
0
  0
LINE
  8
1
 62
7
 10
71.50000000000017
 20
38.50000000000001
 30
0
 11
56.50000000000018
 21
38.50000000000001
 31
0
  0
LINE
  8
1
 62
3
 10
56.50000000000017
 20
47.50000000000001
 30
0
 11
71.50000000000017
 21
47.50000000000001
 31
0
  0
LINE
  8
1
 62
3
 10
71.50000000000017
 20
37.50000000000001
 30
0
 11
56.50000000000018
 21
37.50000000000001
 31
0
  0
LINE
  8
1
 62
7
 10
56.50000000000017
 20
-45.24999999999999
 30
0
 11
56.50000000000017
 21
-19.99999999999999
 31
0
  0
LINE
  8
1
 62
7
 10
56.50000000000017
 20
51.50000000000003
 30
0
 11
56.50000000000017
 21
20.00000000000002
 31
0
  0
LINE
  8
1
 62
7
 10
37.50000000000017
 20
20.00000000000002
 30
0
 11
67.50000000000017
 21
20.00000000000002
 31
0
  0
LINE
  8
1
 62
7
 10
67.50000000000017
 20
-26.49999999999999
 30
0
 11
56.50000000000017
 21
-26.49999999999999
 31
0
  0
LINE
  8
1
 62
7
 10
71.50000000000017
 20
-30.99999999999999
 30
0
 11
67.50000000000017
 21
-30.99999999999999
 31
0
  0
LINE
  8
1
 62
7
 10
67.50000000000017
 20
26.50000000000001
 30
0
 11
56.50000000000017
 21
26.50000000000001
 31
0
  0
LINE
  8
1
 62
7
 10
67.50000000000017
 20
31.00000000000001
 30
0
 11
67.50000000000017
 21
-30.99999999999999
 31
0
  0
LINE
  8
1
 62
7
 10
71.50000000000017
 20
31.00000000000001
 30
0
 11
67.50000000000017
 21
31.00000000000001
 31
0
  0
LINE
  8
1
 62
3
  6
DASHDOT
 10
71.50000000000017
 20
1.4210854715202e-014
 30
0
 11
76.50000000000017
 21
1.4210854715202e-014
 31
0
  0
LINE
  8
1
 62
7
 10
71.50000000000017
 20
-42.00006515592035
 30
0
 11
71.50000000000017
 21
50.50000000000001
 31
0
  0
LINE
  8
1
 62
7
 10
71.30000000000018
 20
-42.00006515592035
 30
0
 11
71.50000000000017
 21
-42.00006515592035
 31
0
  0
LINE
  8
1
 62
7
 10
71.30000000000018
 20
-72.75000000000003
 30
0
 11
71.30000000000018
 21
-42.00006515592035
 31
0
  0
LINE
  8
1
 62
7
 10
47.80000000000018
 20
22.00000000000001
 30
0
 11
46.80000000000018
 21
22.00000000000001
 31
0
  0
LINE
  8
1
 62
7
 10
47.80000000000018
 20
38.00000000000002
 30
0
 11
46.80000000000018
 21
38.00000000000002
 31
0
  0
LINE
  8
1
 62
7
 10
47.80000000000018
 20
43.75000000000002
 30
0
 11
47.80000000000018
 21
20.00000000000002
 31
0
  0
LINE
  8
1
 62
7
 10
56.50000000000017
 20
44.75000000000002
 30
0
 11
48.80000000000018
 21
44.75000000000002
 31
0
  0
LINE
  8
1
 62
7
 10
57.50000000000017
 20
52.50000000000001
 30
0
 11
69.50000000000017
 21
52.50000000000001
 31
0
  0
LINE
  8
1
 62
7
 10
48.80000000000018
 20
-45.24999999999999
 30
0
 11
56.50000000000017
 21
-45.24999999999999
 31
0
  0
LINE
  8
1
 62
7
 10
66.80000000000018
 20
-74.75000000000003
 30
0
 11
69.30000000000018
 21
-74.75000000000003
 31
0
  0
LINE
  8
1
 62
7
 10
66.30000000000018
 20
-76.00000000000003
 30
0
 11
66.30000000000018
 21
-75.25000000000003
 31
0
  0
LINE
  8
1
 62
7
 10
57.00000000000017
 20
-76.50000000000003
 30
0
 11
65.80000000000018
 21
-76.50000000000003
 31
0
  0
LINE
  8
1
 62
7
 10
56.50000000000017
 20
-75.25000000000003
 30
0
 11
56.50000000000017
 21
-76.00000000000003
 31
0
  0
LINE
  8
1
 62
7
 10
48.80000000000018
 20
-74.75000000000003
 30
0
 11
56.00000000000017
 21
-74.75000000000003
 31
0
  0
LINE
  8
1
 62
7
 10
47.80000000000018
 20
-68.00000000000003
 30
0
 11
46.80000000000018
 21
-68.00000000000003
 31
0
  0
LINE
  8
1
 62
7
 10
47.80000000000018
 20
-46.24999999999999
 30
0
 11
47.80000000000018
 21
-73.75000000000003
 31
0
  0
LINE
  8
1
 62
7
 10
46.80000000000018
 20
-51.99999999999998
 30
0
 11
47.80000000000018
 21
-51.99999999999998
 31
0
  0
LINE
  8
1
 62
7
 10
45.60000000000028
 20
-49.49999999999998
 30
0
 11
46.80000000000018
 21
-49.49999999999998
 31
0
  0
LINE
  8
1
 62
7
 10
45.60000000000028
 20
-73.32981656940063
 30
0
 11
46.80000000000018
 21
-73.32981656940063
 31
0
  0
LINE
  8
1
 62
7
 10
45.60000000000016
 20
-19.99999999999999
 30
0
 11
45.60000000000028
 21
-83.99999999999992
 31
0
  0
LINE
  8
1
 62
7
 10
46.80000000000018
 20
-19.99999999999999
 30
0
 11
46.80000000000018
 21
-83.99999999999992
 31
0
  0
LINE
  8
1
 62
7
 10
45.60000000000028
 20
-83.99999999999992
 30
0
 11
46.80000000000018
 21
-83.99999999999992
 31
0
  0
LINE
  8
1
 62
7
 10
45.60000000000016
 20
-41.49999999999998
 30
0
 11
38.20000000000016
 21
-41.49999999999998
 31
0
  0
LINE
  8
1
 62
7
 10
44.60000000000028
 20
67.00000000000001
 30
0
 11
45.80000000000018
 21
67.00000000000001
 31
0
  0
LINE
  8
1
 62
7
 10
49.60000000000028
 20
82.00000000000001
 30
0
 11
49.10000000000028
 21
82.50000000000001
 31
0
  0
LINE
  8
1
 62
7
 10
49.10000000000028
 20
68.50000000000001
 30
0
 11
49.60000000000028
 21
69.00000000000001
 31
0
  0
LINE
  8
1
 62
7
 10
46.80000000000018
 20
82.50000000000001
 30
0
 11
46.80000000000018
 21
68.50000000000001
 31
0
  0
LINE
  8
1
 62
7
 10
45.80000000000018
 20
68.50000000000001
 30
0
 11
49.10000000000028
 21
68.50000000000001
 31
0
  0
LINE
  8
1
 62
7
 10
49.60000000000028
 20
69.00000000000001
 30
0
 11
49.60000000000028
 21
82.00000000000001
 31
0
  0
LINE
  8
1
 62
7
 10
45.80000000000018
 20
82.50000000000001
 30
0
 11
49.10000000000028
 21
82.50000000000001
 31
0
  0
LINE
  8
1
 62
7
 10
44.60000000000028
 20
63.7320508075689
 30
0
 11
45.60000000000028
 21
60.00000000000001
 31
0
  0
LINE
  8
1
 62
7
 10
46.80000000000018
 20
60.15798299710499
 30
0
 11
46.80000000000018
 21
20.00000000000002
 31
0
  0
LINE
  8
1
 62
7
 10
45.80000000000018
 20
63.89003380467386
 30
0
 11
46.80000000000018
 21
60.15798299710499
 31
0
  0
LINE
  8
1
 62
7
 10
45.80000000000018
 20
84.00000000000001
 30
0
 11
45.80000000000018
 21
63.89003380467386
 31
0
  0
LINE
  8
1
 62
7
 10
44.60000000000028
 20
84.00000000000001
 30
0
 11
45.80000000000018
 21
84.00000000000001
 31
0
  0
LINE
  8
1
 62
7
 10
45.60000000000028
 20
60.00000000000001
 30
0
 11
45.60000000000016
 21
20.00000000000002
 31
0
  0
LINE
  8
1
 62
7
 10
44.60000000000028
 20
60.00000000000001
 30
0
 11
45.60000000000028
 21
60.00000000000001
 31
0
  0
LINE
  8
1
 62
7
 10
38.20000000000016
 20
41.50000000000002
 30
0
 11
45.60000000000016
 21
41.50000000000002
 31
0
  0
LINE
  8
1
 62
7
 10
38.20000000000016
 20
84.75000000000001
 30
0
 11
44.60000000000028
 21
84.75000000000001
 31
0
  0
LINE
  8
1
 62
7
 10
38.20000000000016
 20
84.75000000000001
 30
0
 11
38.20000000000016
 21
20.00000000000002
 31
0
  0
LINE
  8
1
 62
7
 10
44.60000000000028
 20
84.75000000000001
 30
0
 11
44.60000000000028
 21
60.00000000000001
 31
0
  0
LINE
  8
1
 62
7
 10
38.20000000000016
 20
-84.74999999999999
 30
0
 11
44.60000000000028
 21
-84.74999999999999
 31
0
  0
LINE
  8
1
 62
7
 10
38.20000000000016
 20
-84.74999999999999
 30
0
 11
38.20000000000016
 21
-19.99999999999999
 31
0
  0
LINE
  8
1
 62
7
 10
44.60000000000028
 20
-84.74999999999999
 30
0
 11
44.60000000000028
 21
-59.99999999999999
 31
0
  0
LINE
  8
1
 62
7
 10
44.60000000000028
 20
-59.99999999999999
 30
0
 11
45.60000000000028
 21
-59.99999999999999
 31
0
  0
LINE
  8
1
 62
7
 10
250.4976800351696
 20
131.4465220827081
 30
0
 11
250.4976800351696
 21
88.99999999999999
 31
0
  0
LINE
  8
1
 62
7
 10
251.77760617545
 20
131.4465220827081
 30
0
 11
251.7854470337009
 21
137.1627599397384
 31
0
  0
LINE
  8
1
 62
7
 10
249.2090251519692
 20
131.4465220827081
 30
0
 11
249.2148963225002
 21
137.2090804171348
 31
0
  0
LINE
  8
1
 62
7
 10
247.9976800351696
 20
131.4465220827081
 30
0
 11
252.9976800351696
 21
131.4465220827081
 31
0
  0
LINE
  8
1
 62
7
 10
252.9976800351696
 20
131.4465220827081
 30
0
 11
252.9976800351696
 21
88.96488071143583
 31
0
  0
LINE
  8
1
 62
7
 10
247.9976800351696
 20
131.4465220827081
 30
0
 11
247.9976800351696
 21
88.96488071143583
 31
0
  0
LINE
  8
1
 62
7
 10
252.2172064814098
 20
137.1289629314688
 30
0
 11
252.2172064814098
 21
131.4465220827081
 31
0
  0
LINE
  8
1
 62
7
 10
251.1940101682517
 20
137.1583455921776
 30
0
 11
251.1940101682517
 21
131.4465220827081
 31
0
  0
LINE
  8
1
 62
7
 10
249.7160599381344
 20
137.0861800131861
 30
0
 11
249.7160599381344
 21
131.4465220827081
 31
0
  0
LINE
  8
1
 62
7
 10
248.806552104216
 20
137.2350932376633
 30
0
 11
248.806552104216
 21
131.4465220827081
 31
0
  0
LINE
  8
1
 62
7
 10
308.514533056644
 20
35.22809651705214
 30
0
 11
304.9205124069022
 21
33.15308772745065
 31
0
  0
LINE
  8
1
 62
7
 10
298.4978961175697
 20
29.4449884839028
 30
0
 11
294.9038754678278
 21
27.3699796943013
 31
0
  0
LINE
  8
1
 62
7
 10
296.4038754678278
 20
24.77190348294793
 30
0
 11
299.9978961175697
 21
26.84691227254942
 31
0
  0
LINE
  8
1
 62
7
 10
310.014533056644
 20
32.63002030569877
 30
0
 11
306.4205124069022
 21
30.55501151609727
 31
0
  0
LINE
  8
1
 62
7
 10
190.9808270136952
 20
32.63002030569883
 30
0
 11
194.574847663437
 21
30.55501151609727
 31
0
  0
LINE
  8
1
 62
7
 10
200.9974639527696
 20
26.84691227254948
 30
0
 11
204.5914846025114
 21
24.77190348294799
 31
0
  0
LINE
  8
1
 62
7
 10
206.0914846025114
 20
27.3699796943013
 30
0
 11
202.4974639527696
 21
29.44498848390285
 31
0
  0
LINE
  8
1
 62
7
 10
192.4808270136953
 20
35.2280965170522
 30
0
 11
196.074847663437
 21
33.15308772745065
 31
0
  0
LINE
  8
1
 62
7
 10
251.9976800351696
 20
-67.85811682275082
 30
0
 11
251.9976800351697
 21
-63.70809924354783
 31
0
  0
LINE
  8
1
 62
7
 10
251.9976800351696
 20
-56.29190075645217
 30
0
 11
251.9976800351697
 21
-52.14188317724915
 31
0
  0
LINE
  8
1
 62
7
 10
248.9976800351696
 20
-52.14188317724915
 30
0
 11
248.9976800351696
 21
-56.29190075645217
 31
0
  0
LINE
  8
1
 62
7
 10
248.9976800351696
 20
-67.85811682275082
 30
0
 11
248.9976800351696
 21
-63.70809924354783
 31
0
  0
LINE
  8
1
 62
7
 10
293.3579180186433
 20
78.00000000000001
 30
0
 11
320.7899271183295
 21
78.00000000000001
 31
0
  0
LINE
  8
1
 62
7
 10
207.637442051696
 20
78.00000000000001
 30
0
 11
180.2054329520098
 21
78.00000000000001
 31
0
  0
LINE
  8
1
 62
7
 10
207.637442051696
 20
-78.00000000000003
 30
0
 11
180.2054329520098
 21
-78.00000000000003
 31
0
  0
LINE
  8
1
 62
7
 10
293.3579180186433
 20
-78.00000000000003
 30
0
 11
320.7899271183295
 21
-78.00000000000003
 31
0
  0
LINE
  8
1
 62
7
 10
328.4976800351697
 20
42.86023798347367
 30
0
 11
328.4976800351697
 21
70.29224708315991
 31
0
  0
LINE
  8
1
 62
7
 10
172.4976800351696
 20
42.86023798347367
 30
0
 11
172.4976800351697
 21
70.29224708315991
 31
0
  0
LINE
  8
1
 62
7
 10
172.4976800351696
 20
-42.86023798347363
 30
0
 11
172.4976800351696
 21
-70.29224708315982
 31
0
  0
LINE
  8
1
 62
7
 10
328.4976800351697
 20
-42.86023798347363
 30
0
 11
328.4976800351697
 21
-70.29224708315982
 31
0
  0
LINE
  8
1
 62
7
  6
DASHDOT
 10
253.9976800351696
 20
18.00000000000002
 30
0
 11
253.9976800351696
 21
14.58595214581484
 31
0
  0
LINE
  8
1
 62
7
  6
DASHDOT
 10
246.9976800351696
 20
18.00000000000002
 30
0
 11
246.9976800351696
 21
14.58595214581484
 31
0
  0
LINE
  8
1
 62
7
  6
DASHDOT
 10
246.9976800351696
 20
18.00000000000002
 30
0
 11
253.9976800351696
 21
18.00000000000002
 31
0
  0
LINE
  8
1
 62
3
  6
DASHDOT
 10
250.4976800351696
 20
5.000000000000014
 30
0
 11
250.4976800351696
 21
-4.999999999999986
 31
0
  0
LINE
  8
1
 62
3
  6
DASHDOT
 10
255.4976800351696
 20
1.4210854715202e-014
 30
0
 11
245.4976800351696
 21
1.4210854715202e-014
 31
0
  0
LINE
  8
1
 62
3
  6
DASHDOT
 10
284.9976800351695
 20
1.4210854715202e-014
 30
0
 11
300.9976800351694
 21
-2.131628207280301e-014
 31
0
  0
LINE
  8
1
 62
3
  6
DASHDOT
 10
312.5463000842891
 20
62.04862004911954
 30
0
 11
322.7993484114941
 21
72.30166837632449
 31
0
  0
LINE
  8
1
 62
3
  6
DASHDOT
 10
188.4490599860501
 20
62.04862004911951
 30
0
 11
178.1960116588451
 21
72.30166837632447
 31
0
  0
LINE
  8
1
 62
3
  6
DASHDOT
 10
188.4490599860501
 20
-62.04862004911953
 30
0
 11
178.1960116588451
 21
-72.30166837632447
 31
0
  0
LINE
  8
1
 62
3
  6
DASHDOT
 10
312.5463000842891
 20
-62.04862004911951
 30
0
 11
322.7993484114941
 21
-72.30166837632447
 31
0
  0
LINE
  8
1
 62
3
  6
DASHDOT
 10
267.7476800351696
 20
29.87787643056308
 30
0
 11
275.7476800351695
 21
43.73428289111402
 31
0
  0
LINE
  8
1
 62
3
  6
DASHDOT
 10
233.2476800351697
 20
29.87787643056311
 30
0
 11
225.2476800351697
 21
43.73428289111405
 31
0
  0
LINE
  8
1
 62
3
  6
DASHDOT
 10
215.9976800351697
 20
1.126786221251545e-014
 30
0
 11
199.9976800351698
 21
5.301224793842128e-014
 31
0
  0
LINE
  8
1
 62
3
  6
DASHDOT
 10
233.2476800351697
 20
-29.87787643056308
 30
0
 11
225.2476800351697
 21
-43.73428289111396
 31
0
  0
LINE
  8
1
 62
3
  6
DASHDOT
 10
267.7476800351695
 20
-29.87787643056311
 30
0
 11
275.7476800351695
 21
-43.73428289111402
 31
0
  0
LINE
  8
1
 62
7
 10
-123.0999999999998
 20
-84.75
 30
0
 11
-116.6999999999997
 21
-84.74999999999997
 31
0
  0
LINE
  8
1
 62
7
 10
-116.6999999999997
 20
84.75000000000003
 30
0
 11
-116.6999999999997
 21
-84.74999999999997
 31
0
  0
LINE
  8
1
 62
7
 10
-123.0999999999998
 20
84.75000000000001
 30
0
 11
-123.0999999999998
 21
-84.75
 31
0
  0
LINE
  8
1
 62
7
 10
-123.0999999999998
 20
84.75000000000001
 30
0
 11
-116.6999999999997
 21
84.75000000000003
 31
0
  0
LINE
  8
1
 62
7
 10
-116.6999999999997
 20
60.00000000000001
 30
0
 11
-115.6999999999997
 21
60.00000000000001
 31
0
  0
LINE
  8
1
 62
7
 10
-115.6999999999997
 20
60.00000000000001
 30
0
 11
-115.6999999999997
 21
-83.99999999999992
 31
0
  0
LINE
  8
1
 62
7
 10
-116.6999999999997
 20
84.00000000000001
 30
0
 11
-115.4999999999998
 21
84.00000000000001
 31
0
  0
LINE
  8
1
 62
7
 10
-115.4999999999998
 20
63.89003380467386
 30
0
 11
-114.4999999999998
 21
60.15798299710499
 31
0
  0
LINE
  8
1
 62
7
 10
-116.6999999999997
 20
63.7320508075689
 30
0
 11
-115.6999999999997
 21
60.00000000000001
 31
0
  0
LINE
  8
1
 62
7
 10
-115.4999999999998
 20
82.50000000000001
 30
0
 11
-112.1999999999997
 21
82.50000000000001
 31
0
  0
LINE
  8
1
 62
7
 10
-111.6999999999997
 20
69.00000000000001
 30
0
 11
-111.6999999999997
 21
82.00000000000001
 31
0
  0
LINE
  8
1
 62
7
 10
-115.4999999999998
 20
68.50000000000001
 30
0
 11
-112.1999999999997
 21
68.50000000000001
 31
0
  0
LINE
  8
1
 62
7
 10
-114.4999999999998
 20
82.50000000000001
 30
0
 11
-114.4999999999998
 21
68.50000000000001
 31
0
  0
LINE
  8
1
 62
7
 10
-112.1999999999997
 20
68.50000000000001
 30
0
 11
-111.6999999999997
 21
69.00000000000001
 31
0
  0
LINE
  8
1
 62
7
 10
-111.6999999999997
 20
82.00000000000001
 30
0
 11
-112.1999999999997
 21
82.50000000000001
 31
0
  0
LINE
  8
1
 62
7
 10
-115.6999999999997
 20
-83.99999999999992
 30
0
 11
-114.4999999999998
 21
-83.99999999999992
 31
0
  0
LINE
  8
1
 62
7
 10
-114.4999999999998
 20
60.15798299710499
 30
0
 11
-114.4999999999998
 21
-83.99999999999992
 31
0
  0
LINE
  8
1
 62
7
 10
-114.4999999999998
 20
-51.99999999999998
 30
0
 11
-113.4999999999998
 21
-51.99999999999998
 31
0
  0
LINE
  8
1
 62
7
 10
-113.4999999999998
 20
-46.24999999999999
 30
0
 11
-113.4999999999998
 21
-73.75000000000003
 31
0
  0
LINE
  8
1
 62
7
 10
-113.4999999999998
 20
-68.00000000000003
 30
0
 11
-114.4999999999998
 21
-68.00000000000003
 31
0
  0
LINE
  8
1
 62
7
 10
-112.4999999999998
 20
-74.75000000000003
 30
0
 11
-105.2999999999996
 21
-74.75000000000003
 31
0
  0
LINE
  8
1
 62
7
 10
-104.2999999999996
 20
-76.50000000000003
 30
0
 11
-95.49999999999983
 21
-76.50000000000003
 31
0
  0
LINE
  8
1
 62
7
 10
-94.99999999999983
 20
-76.00000000000003
 30
0
 11
-94.99999999999983
 21
-75.25000000000003
 31
0
  0
LINE
  8
1
 62
7
 10
-94.49999999999983
 20
-74.75000000000003
 30
0
 11
-91.99999999999983
 21
-74.75000000000003
 31
0
  0
LINE
  8
1
 62
7
 10
-112.4999999999998
 20
-45.24999999999999
 30
0
 11
-104.7999999999996
 21
-45.24999999999999
 31
0
  0
LINE
  8
1
 62
7
 10
-103.7999999999996
 20
52.50000000000001
 30
0
 11
-91.79999999999984
 21
52.50000000000001
 31
0
  0
LINE
  8
1
 62
7
 10
-104.7999999999996
 20
44.75000000000002
 30
0
 11
-112.4999999999998
 21
44.75000000000002
 31
0
  0
LINE
  8
1
 62
7
 10
-113.4999999999998
 20
43.75000000000002
 30
0
 11
-113.4999999999998
 21
16.25000000000002
 31
0
  0
LINE
  8
1
 62
7
 10
-113.4999999999998
 20
38.00000000000002
 30
0
 11
-114.4999999999998
 21
38.00000000000002
 31
0
  0
LINE
  8
1
 62
7
 10
-113.4999999999998
 20
22.00000000000001
 30
0
 11
-114.4999999999998
 21
22.00000000000001
 31
0
  0
LINE
  8
1
 62
7
 10
-89.99999999999983
 20
-72.75000000000003
 30
0
 11
-89.99999999999983
 21
-42.00006515592035
 31
0
  0
LINE
  8
1
 62
7
 10
-89.99999999999983
 20
-42.00006515592035
 30
0
 11
-89.79999999999984
 21
-42.00006515592035
 31
0
  0
LINE
  8
1
 62
7
 10
-89.79999999999984
 20
-42.00006515592035
 30
0
 11
-89.79999999999984
 21
50.50000000000001
 31
0
  0
LINE
  8
1
 62
3
  6
DASHDOT
 10
-89.79999999999984
 20
1.4210854715202e-014
 30
0
 11
-84.99999999999983
 21
1.4210854715202e-014
 31
0
  0
LINE
  8
1
 62
7
 10
-104.7999999999996
 20
51.50000000000003
 30
0
 11
-104.7999999999996
 21
-76.00000000000003
 31
0
  0
LINE
  8
1
 62
7
 10
-116.6999999999997
 20
-59.99999999999999
 30
0
 11
-115.6999999999997
 21
-59.99999999999999
 31
0
  0
LINE
  8
1
 62
7
 10
-104.7999999999996
 20
15.25000000000002
 30
0
 11
-112.4999999999998
 21
15.25000000000002
 31
0
  0
LINE
  8
1
 62
7
 10
-104.7999999999996
 20
-19.99999999999999
 30
0
 11
-114.4999999999998
 21
-19.99999999999999
 31
0
  0
LINE
  8
1
 62
3
  6
DASHDOT
 10
-166.2999999999998
 20
1.4210854715202e-014
 30
0
 11
-161.2999999999998
 21
1.4210854715202e-014
 31
0
  0
LINE
  8
1
 62
7
 10
-144.8999999999998
 20
-84.24999999999994
 30
0
 11
-142.1106922674391
 21
-84.24999999999994
 31
0
  0
LINE
  8
1
 62
7
 10
-144.8999999999998
 20
84.2499999999999
 30
0
 11
-142.1106922674391
 21
84.2499999999999
 31
0
  0
LINE
  8
1
 62
7
 10
-142.1106922674391
 20
89.00000000000001
 30
0
 11
-142.1106922674391
 21
-88.99999999999983
 31
0
  0
LINE
  8
1
 62
7
 10
-128.6980762113534
 20
-88.99999999999983
 30
0
 11
-128.6980762113534
 21
89.00000000000001
 31
0
  0
LINE
  8
1
 62
7
 10
-126.1
 20
84.50000000000001
 30
0
 11
-126.1
 21
-84.49999999999983
 31
0
  0
LINE
  8
1
 62
7
 10
-123.5999999999998
 20
84.50000000000001
 30
0
 11
-123.6
 21
-84.49999999999983
 31
0
  0
LINE
  8
1
 62
7
 10
-142.1106922674391
 20
-88.99999999999983
 30
0
 11
-128.6980762113534
 21
-88.99999999999983
 31
0
  0
LINE
  8
1
 62
7
 10
-146.8999999999998
 20
136.7873208451654
 30
0
 11
-146.8999999999998
 21
134.6230738313751
 31
0
  0
LINE
  8
1
 62
7
 10
-150.3999999999998
 20
84.50000000000001
 30
0
 11
-144.8999999999998
 21
84.50000000000001
 31
0
  0
LINE
  8
1
 62
7
 10
-128.6980762113534
 20
-88.99999999999983
 30
0
 11
-126.1
 21
-84.49999999999983
 31
0
  0
LINE
  8
1
 62
7
 10
-123.6
 20
-84.49999999999983
 30
0
 11
-126.1
 21
-84.49999999999983
 31
0
  0
LINE
  8
1
 62
7
 10
-126.1
 20
84.50000000000001
 30
0
 11
-123.5999999999998
 21
84.50000000000001
 31
0
  0
LINE
  8
1
 62
7
 10
-142.1106922674391
 20
89.00000000000001
 30
0
 11
-128.6980762113534
 21
89.00000000000001
 31
0
  0
LINE
  8
1
 62
7
 10
-158.3999999999998
 20
-105
 30
0
 11
-158.3999999999998
 21
78.00000000000001
 31
0
  0
LINE
  8
1
 62
7
 10
-161.2999999999998
 20
-105
 30
0
 11
-161.2999999999998
 21
78.00000000000001
 31
0
  0
LINE
  8
1
 62
7
 10
-150.3999999999998
 20
-84.50000000000003
 30
0
 11
-144.8999999999998
 21
-84.50000000000003
 31
0
  0
LINE
  8
1
 62
7
 10
-144.8999999999998
 20
84.50000000000001
 30
0
 11
-144.8999999999998
 21
84.2499999999999
 31
0
  0
LINE
  8
1
 62
7
 10
-147.3999999999998
 20
136.7873208451654
 30
0
 11
-147.3999999999998
 21
134.6230738313751
 31
0
  0
LINE
  8
1
 62
7
 10
-146.3999999999998
 20
136.7873208451654
 30
0
 11
-146.3999999999998
 21
134.6230738313751
 31
0
  0
LINE
  8
1
 62
7
 10
-161.2999999999998
 20
78.00000000000001
 30
0
 11
-158.3999999999998
 21
78.00000000000001
 31
0
  0
LINE
  8
1
 62
3
  6
DASHDOT
 10
-164.2999999999998
 20
-95.00000000000003
 30
0
 11
-155.3999999999998
 21
-95.00000000000003
 31
0
  0
LINE
  8
1
 62
7
 10
-161.2999999999998
 20
-105
 30
0
 11
-158.3999999999998
 21
-105
 31
0
  0
LINE
  8
1
 62
7
 10
-126.1
 20
84.50000000000001
 30
0
 11
-128.6980762113534
 21
89.00000000000001
 31
0
  0
LINE
  8
1
 62
7
 10
-148.0999999999998
 20
134.6230738313751
 30
0
 11
-145.6999999999998
 21
134.6230738313751
 31
0
  0
LINE
  8
1
 62
7
 10
-145.6999999999998
 20
84.50000000000001
 30
0
 11
-145.6999999999998
 21
134.6230738313751
 31
0
  0
LINE
  8
1
 62
7
 10
-148.0999999999998
 20
134.6230738313751
 30
0
 11
-148.0999999999998
 21
84.50000000000001
 31
0
  0
LINE
  8
1
 62
7
 10
-144.8999999999998
 20
-84.24999999999994
 30
0
 11
-144.8999999999998
 21
-84.50000000000003
 31
0
  0
LINE
  8
1
 62
7
 10
-115.4999999999998
 20
84.00000000000001
 30
0
 11
-115.4999999999998
 21
63.89003380467386
 31
0
  0
ARC
  8
1
 62
7
 10
10.9000000000002
 20
-49.99999999999999
 30
0
 40
8.000000000000153
 50
110.3641348063184
 51
180
  0
ARC
  8
1
 62
7
 10
10.9000000000002
 20
50.00000000000001
 30
0
 40
7.999999999999995
 50
180
 51
249.6358651936813
  0
ARC
  8
1
 62
7
 10
10.9000000000002
 20
76.5
 30
0
 40
8
 50
90
 51
180
  0
ARC
  8
1
 62
7
 10
10.9000000000002
 20
-76.50000000000003
 30
0
 40
7.999999999999995
 50
180
 51
270
  0
ARC
  8
1
 62
7
 10
69.50000000000017
 20
50.50000000000001
 30
0
 40
2
 50
0
 51
90
  0
ARC
  8
1
 62
7
 10
66.80000000000018
 20
-75.25000000000003
 30
0
 40
0.5
 50
90
 51
180
  0
ARC
  8
1
 62
7
 10
56.00000000000017
 20
-75.25000000000003
 30
0
 40
0.5
 50
0
 51
90
  0
ARC
  8
1
 62
7
 10
65.80000000000018
 20
-76.00000000000003
 30
0
 40
0.5
 50
270
 51
0
  0
ARC
  8
1
 62
7
 10
57.00000000000017
 20
-76.00000000000003
 30
0
 40
0.5
 50
180
 51
270
  0
ARC
  8
1
 62
7
 10
48.80000000000018
 20
-73.75000000000003
 30
0
 40
1
 50
180
 51
270
  0
ARC
  8
1
 62
7
 10
48.80000000000018
 20
-46.24999999999999
 30
0
 40
1
 50
90
 51
180
  0
ARC
  8
1
 62
7
 10
57.50000000000017
 20
51.50000000000003
 30
0
 40
0.9999999999999787
 50
90
 51
180
  0
ARC
  8
1
 62
7
 10
48.80000000000018
 20
43.75000000000002
 30
0
 40
1
 50
90
 51
180
  0
ARC
  8
1
 62
7
 10
69.30000000000018
 20
-72.75000000000003
 30
0
 40
2
 50
270
 51
0
  0
ARC
  8
1
 62
7
 10
284.997716368614
 20
61.48168420750218
 30
0
 40
18.00000000000002
 50
240.7013294009981
 51
299.0151802979364
  0
ARC
  8
1
 62
7
 10
320.9923985930412
 20
-0.8629342075021427
 30
0
 40
17.99999999999995
 50
120.9848197020633
 51
179.2986705990015
  0
ARC
  8
1
 62
7
 10
266.4639276485635
 20
30.58314792737659
 30
0
 40
17.99999999999993
 50
359.0718506550212
 51
62.43272568091746
  0
ARC
  8
1
 62
7
 10
284.966586874672
 20
-1.464397927376481
 30
0
 40
18.00000000000014
 50
357.5672743190825
 51
60.92814934497869
  0
ARC
  8
1
 62
7
 10
180.0029614772981
 20
-0.8629342075020858
 30
0
 40
17.99999999999999
 50
0.7013294009983343
 51
59.0151802979363
  0
ARC
  8
1
 62
7
 10
215.9976437017253
 20
61.48168420750225
 30
0
 40
18.00000000000001
 50
240.9848197020638
 51
299.2986705990016
  0
ARC
  8
1
 62
7
 10
216.0287731956672
 20
-1.464397927376481
 30
0
 40
18
 50
119.0718506550211
 51
182.4327256809172
  0
ARC
  8
1
 62
7
 10
234.5314324217758
 20
30.58314792737659
 30
0
 40
18.00000000000004
 50
117.5672743190826
 51
180.9281493449788
  0
ARC
  8
1
 62
7
 10
286.4923622595969
 20
-60.61875
 30
0
 40
18.00000000000003
 50
120.7013294009987
 51
179.0151802979362
  0
ARC
  8
1
 62
7
 10
214.5029978107423
 20
-60.61874999999997
 30
0
 40
18.00000000000006
 50
0.9848197020638168
 51
59.29867059900151
  0
ARC
  8
1
 62
7
 10
269.0003392612782
 20
-29.11875
 30
0
 40
18.00000000000004
 50
239.0718506550211
 51
302.4327256809172
  0
ARC
  8
1
 62
7
 10
231.9950208090611
 20
-29.11875
 30
0
 40
18.00000000000002
 50
237.5672743190828
 51
300.9281493449789
  0
ARC
  8
1
 62
7
 10
302.459204262236
 20
30.00000000000001
 30
0
 40
17.99999999999997
 50
300.9848197020641
 51
3.215572908593356
  0
ARC
  8
1
 62
7
 10
250.4976800351696
 20
1.4210854715202e-014
 30
0
 40
76.49999999999997
 50
23.91338689215997
 51
36.08661310783998
  0
ARC
  8
1
 62
7
 10
198.5361558081033
 20
30.00000000000002
 30
0
 40
18.00000000000003
 50
60.98481970206385
 51
123.2155729085943
  0
ARC
  8
1
 62
7
 10
250.4976800351696
 20
-59.99999999999999
 30
0
 40
17.99999999999997
 50
180.9848197020637
 51
243.2155729085941
  0
ARC
  8
1
 62
7
 10
250.4976800351696
 20
1.4210854715202e-014
 30
0
 40
76.49999999999994
 50
263.9133868921602
 51
276.0866131078398
  0
ARC
  8
1
 62
7
 10
250.4976800351696
 20
1.4210854715202e-014
 30
0
 40
76.49999999999993
 50
143.9133868921602
 51
156.0866131078397
  0
ARC
  8
1
 62
7
 10
338.8322712211824
 20
50.99999999999999
 30
0
 40
28.67018343059938
 50
230.074852048045
 51
232.6998381686427
  0
ARC
  8
1
 62
7
 10
297.4976800351696
 20
-2.131628207280301e-014
 30
0
 40
36.99999999999989
 50
359.9999999999997
 51
49.6400632437804
  0
ARC
  8
1
 62
7
 10
250.4976800351696
 20
1.4210854715202e-014
 30
0
 40
84.00000000000014
 50
300.0000000000001
 51
359.9999999999999
  0
ARC
  8
1
 62
7
 10
250.4976800351696
 20
1.4210854715202e-014
 30
0
 40
67.00000000000004
 50
305
 51
355
  0
ARC
  8
1
 62
7
 10
250.4976800351696
 20
1.4210854715202e-014
 30
0
 40
66.99999999999997
 50
65.00000000000007
 51
114.9999999999999
  0
ARC
  8
1
 62
7
 10
250.4976800351696
 20
1.4210854715202e-014
 30
0
 40
84.00000000000001
 50
59.99999999999992
 51
119.9999999999999
  0
ARC
  8
1
 62
7
 10
269.5155018135011
 20
40.78385041664927
 30
0
 40
21.99999999999994
 50
9.932990929466421
 51
65.00000000000023
  0
ARC
  8
1
 62
7
 10
273.9976800351697
 20
40.70319397786864
 30
0
 40
36.99999999999994
 50
10.35993675621949
 51
59.99999999999997
  0
ARC
  8
1
 62
7
 10
250.4976800351681
 20
-102.0000000000006
 30
0
 40
28.67018343059939
 50
110.0748520480415
 51
112.6998381686394
  0
ARC
  8
1
 62
7
 10
226.9976800351696
 20
-40.70319397786859
 30
0
 40
36.99999999999995
 50
240
 51
289.6400632437805
  0
ARC
  8
1
 62
7
 10
250.4976800351696
 20
1.4210854715202e-014
 30
0
 40
84
 50
180
 51
240
  0
ARC
  8
1
 62
7
 10
250.4976800351696
 20
1.4210854715202e-014
 30
0
 40
66.99999999999993
 50
185
 51
235
  0
ARC
  8
1
 62
7
 10
276.3086196709667
 20
-36.86184199300461
 30
0
 40
22.00000000000001
 50
249.9329909294664
 51
304.9999999999999
  0
ARC
  8
1
 62
7
 10
273.9976800351697
 20
-40.70319397786859
 30
0
 40
37.00000000000008
 50
250.3599367562192
 51
299.9999999999999
  0
ARC
  8
1
 62
7
 10
203.4976800351696
 20
0
 30
0
 40
36.99999999999997
 50
130.3599367562194
 51
180
  0
ARC
  8
1
 62
7
 10
205.6689186210411
 20
-3.922008423644613
 30
0
 40
22
 50
129.9329909294662
 51
184.9999999999999
  0
ARC
  8
1
 62
7
 10
226.9976800351696
 20
40.70319397786864
 30
0
 40
36.99999999999995
 50
119.9999999999998
 51
169.6400632437805
  0
ARC
  8
1
 62
7
 10
162.1630888491569
 20
51.00000000000001
 30
0
 40
28.67018343059939
 50
350.0748520480449
 51
352.6998381686426
  0
ARC
  8
1
 62
7
 10
250.4976800351696
 20
1.4210854715202e-014
 30
0
 40
60.00000000000001
 50
287.7943629479917
 51
12.20563705200836
  0
ARC
  8
1
 62
7
 10
302.459204262236
 20
30.00000000000001
 30
0
 40
18.00000000000005
 50
56.78442709140671
 51
119.0151802979361
  0
ARC
  8
1
 62
7
 10
302.459204262236
 20
30.00000000000001
 30
0
 40
18.0000000000001
 50
179.0718506550212
 51
240.9281493449784
  0
ARC
  8
1
 62
7
 10
198.5361558081033
 20
30.00000000000002
 30
0
 40
17.99999999999992
 50
176.7844270914056
 51
239.0151802979362
  0
ARC
  8
1
 62
7
 10
198.5361558081033
 20
30.00000000000002
 30
0
 40
17.99999999999997
 50
299.0718506550215
 51
0.9281493449788212
  0
ARC
  8
1
 62
7
 10
250.4976800351696
 20
-59.99999999999999
 30
0
 40
17.99999999999996
 50
296.7844270914059
 51
359.0151802979362
  0
ARC
  8
1
 62
7
 10
250.4976800351696
 20
-59.99999999999999
 30
0
 40
17.99999999999999
 50
59.07185065502124
 51
120.9281493449785
  0
ARC
  8
1
 62
7
 10
250.4976800351696
 20
1.4210854715202e-014
 30
0
 40
52.50000000000005
 50
302.4327256809173
 51
357.5672743190827
  0
ARC
  8
1
 62
7
 10
250.4976800351696
 20
1.4210854715202e-014
 30
0
 40
52.5
 50
180
 51
237.5672743190828
  0
ARC
  8
1
 62
7
 10
250.4976800351696
 20
1.4210854715202e-014
 30
0
 40
52.50000000000004
 50
62.43272568091727
 51
117.5672743190826
  0
ARC
  8
1
 62
7
 10
338.8322712211824
 20
50.99999999999999
 30
0
 40
28.67018343059938
 50
187.3001618313574
 51
189.9251479519549
  0
ARC
  8
1
 62
7
 10
295.3264414492982
 20
-3.922008423644627
 30
0
 40
22.00000000000001
 50
354.9999999999999
 51
50.06700907053382
  0
ARC
  8
1
 62
7
 10
250.4976800351696
 20
-102
 30
0
 40
28.67018343059937
 50
67.30016183135757
 51
69.92514795195518
  0
ARC
  8
1
 62
7
 10
250.4976800351696
 20
1.4210854715202e-014
 30
0
 40
59.99999999999992
 50
167.7943629479916
 51
252.2056370520083
  0
ARC
  8
1
 62
7
 10
224.6867403993726
 20
-36.8618419930046
 30
0
 40
22.00000000000006
 50
234.9999999999998
 51
290.0670090705335
  0
ARC
  8
1
 62
7
 10
231.4798582568382
 20
40.78385041664927
 30
0
 40
22.00000000000001
 50
115
 51
170.0670090705336
  0
ARC
  8
1
 62
7
 10
250.4976800351696
 20
1.4210854715202e-014
 30
0
 40
60.00000000000003
 50
47.79436294799164
 51
132.2056370520083
  0
ARC
  8
1
 62
7
 10
162.1630888491569
 20
51.00000000000001
 30
0
 40
28.67018343059938
 50
307.3001618313574
 51
309.9251479519554
  0
ARC
  8
1
 62
7
 10
250.4976800351696
 20
1.4210854715202e-014
 30
0
 40
104.9999999999999
 50
132.0246275793772
 51
137.9753724206227
  0
ARC
  8
1
 62
7
 10
250.4976800351696
 20
1.4210854715202e-014
 30
0
 40
105
 50
222.0246275793772
 51
227.9753724206229
  0
ARC
  8
1
 62
7
 10
250.4976800351696
 20
1.4210854715202e-014
 30
0
 40
105
 50
312.0246275793772
 51
317.9753724206229
  0
ARC
  8
1
 62
7
 10
250.4976800351696
 20
1.4210854715202e-014
 30
0
 40
105.0000000000001
 50
42.0246275793772
 51
47.97537242062276
  0
ARC
  8
1
 62
3
  6
DASHDOT
 10
250.4976800351696
 20
1.4210854715202e-014
 30
0
 40
42.49999999999991
 50
345
 51
15.00000000000001
  0
ARC
  8
1
 62
3
  6
DASHDOT
 10
250.4976800351696
 20
1.4210854715202e-014
 30
0
 40
95.00000000000007
 50
37.50000000000001
 51
52.49999999999999
  0
ARC
  8
1
 62
3
  6
DASHDOT
 10
250.4976800351696
 20
1.4210854715202e-014
 30
0
 40
95.00000000000006
 50
127.5
 51
142.5
  0
ARC
  8
1
 62
3
  6
DASHDOT
 10
250.4976800351696
 20
1.4210854715202e-014
 30
0
 40
95.00000000000007
 50
217.5
 51
232.5
  0
ARC
  8
1
 62
3
  6
DASHDOT
 10
250.4976800351696
 20
1.4210854715202e-014
 30
0
 40
95.00000000000009
 50
307.5
 51
322.5
  0
ARC
  8
1
 62
3
  6
DASHDOT
 10
250.4976800351696
 20
1.4210854715202e-014
 30
0
 40
42.49999999999991
 50
44.99999999999996
 51
75.00000000000001
  0
ARC
  8
1
 62
3
  6
DASHDOT
 10
250.4976800351696
 20
1.4210854715202e-014
 30
0
 40
42.49999999999995
 50
105
 51
135
  0
ARC
  8
1
 62
3
  6
DASHDOT
 10
250.4976800351696
 20
1.4210854715202e-014
 30
0
 40
42.49999999999989
 50
165
 51
195
  0
ARC
  8
1
 62
3
  6
DASHDOT
 10
250.4976800351696
 20
1.4210854715202e-014
 30
0
 40
42.49999999999991
 50
225
 51
255
  0
ARC
  8
1
 62
3
  6
DASHDOT
 10
250.4976800351696
 20
1.4210854715202e-014
 30
0
 40
42.49999999999989
 50
285
 51
315
  0
ARC
  8
1
 62
7
 10
-91.99999999999983
 20
-72.75000000000003
 30
0
 40
2
 50
270
 51
0
  0
ARC
  8
1
 62
7
 10
-112.4999999999998
 20
43.75000000000002
 30
0
 40
1
 50
90
 51
180
  0
ARC
  8
1
 62
7
 10
-103.7999999999996
 20
51.50000000000003
 30
0
 40
0.9999999999999787
 50
90
 51
180
  0
ARC
  8
1
 62
7
 10
-112.4999999999998
 20
-46.24999999999999
 30
0
 40
1
 50
90
 51
180
  0
ARC
  8
1
 62
7
 10
-112.4999999999998
 20
-73.75000000000003
 30
0
 40
1
 50
180
 51
270
  0
ARC
  8
1
 62
7
 10
-104.2999999999996
 20
-76.00000000000003
 30
0
 40
0.5
 50
180
 51
270
  0
ARC
  8
1
 62
7
 10
-95.49999999999983
 20
-76.00000000000003
 30
0
 40
0.5
 50
270
 51
0
  0
ARC
  8
1
 62
7
 10
-105.2999999999996
 20
-75.25000000000003
 30
0
 40
0.5
 50
0
 51
90
  0
ARC
  8
1
 62
7
 10
-94.49999999999983
 20
-75.25000000000003
 30
0
 40
0.5
 50
90
 51
180
  0
ARC
  8
1
 62
7
 10
-91.79999999999984
 20
50.50000000000001
 30
0
 40
2
 50
0
 51
90
  0
ARC
  8
1
 62
7
 10
-112.4999999999998
 20
16.25000000000002
 30
0
 40
1
 50
180
 51
270
  0
ARC
  8
1
 62
7
 10
-150.3999999999998
 20
-76.50000000000003
 30
0
 40
8
 50
180
 51
270
  0
ARC
  8
1
 62
7
 10
-150.3999999999998
 20
76.50000000000001
 30
0
 40
8
 50
90
 51
180
  0
CIRCLE
  8
1
 62
7
 10
250.4976800351696
 20
1.4210854715202e-014
 30
0
 40
84.75
  0
CIRCLE
  8
1
 62
7
 10
302.459204262236
 20
30.00000000000001
 30
0
 40
4
  0
CIRCLE
  8
1
 62
7
 10
250.4976800351696
 20
-59.99999999999999
 30
0
 40
4
  0
CIRCLE
  8
1
 62
7
 10
302.459204262236
 20
30.00000000000001
 30
0
 40
8
  0
CIRCLE
  8
1
 62
7
 10
315.8825980208948
 20
-37.75000000000002
 30
0
 40
6.649999999999864
  0
CIRCLE
  8
1
 62
7
 10
185.1127620494445
 20
-37.74999999999998
 30
0
 40
6.649999999999977
  0
CIRCLE
  8
1
 62
7
 10
250.4976800351696
 20
75.50000000000001
 30
0
 40
6.650000000000034
  0
CIRCLE
  8
1
 62
7
 10
250.4976800351696
 20
1.4210854715202e-014
 30
0
 40
89
  0
CIRCLE
  8
1
 62
7
 10
302.459204262236
 20
30.00000000000001
 30
0
 40
14.75
  0
CIRCLE
  8
1
 62
7
 10
302.459204262236
 20
30.00000000000001
 30
0
 40
11
  0
CIRCLE
  8
1
 62
7
 10
198.5361558081033
 20
30.00000000000002
 30
0
 40
14.75
  0
CIRCLE
  8
1
 62
7
 10
198.5361558081033
 20
30.00000000000002
 30
0
 40
11
  0
CIRCLE
  8
1
 62
7
 10
198.5361558081033
 20
30.00000000000002
 30
0
 40
8
  0
CIRCLE
  8
1
 62
7
 10
198.5361558081033
 20
30.00000000000002
 30
0
 40
4.000000000000085
  0
CIRCLE
  8
1
 62
7
 10
250.4976800351696
 20
-59.99999999999999
 30
0
 40
14.74999999999989
  0
CIRCLE
  8
1
 62
7
 10
250.4976800351696
 20
-59.99999999999999
 30
0
 40
11
  0
CIRCLE
  8
1
 62
7
 10
250.4976800351696
 20
-59.99999999999999
 30
0
 40
8
  0
CIRCLE
  8
1
 62
7
 10
250.4976800351696
 20
-59.99999999999999
 30
0
 40
4
  0
CIRCLE
  8
1
 62
7
 10
271.7476800351697
 20
36.80607966083867
 30
0
 40
4
  0
CIRCLE
  8
1
 62
3
 10
271.7476800351697
 20
36.80607966083867
 30
0
 40
5
  0
CIRCLE
  8
1
 62
7
 10
229.2476800351697
 20
36.80607966083867
 30
0
 40
4
  0
CIRCLE
  8
1
 62
3
 10
229.2476800351697
 20
36.80607966083867
 30
0
 40
5
  0
CIRCLE
  8
1
 62
7
 10
207.9976800351697
 20
9.947598300641403e-014
 30
0
 40
4
  0
CIRCLE
  8
1
 62
3
 10
207.9976800351697
 20
9.947598300641403e-014
 30
0
 40
5
  0
CIRCLE
  8
1
 62
7
 10
229.2476800351696
 20
-36.80607966083848
 30
0
 40
4
  0
CIRCLE
  8
1
 62
3
 10
229.2476800351696
 20
-36.80607966083848
 30
0
 40
5
  0
CIRCLE
  8
1
 62
7
 10
271.7476800351695
 20
-36.80607966083854
 30
0
 40
4
  0
CIRCLE
  8
1
 62
3
 10
271.7476800351695
 20
-36.80607966083854
 30
0
 40
5
  0
CIRCLE
  8
1
 62
7
 10
292.9976800351695
 20
-2.131628207280301e-014
 30
0
 40
4
  0
CIRCLE
  8
1
 62
3
 10
292.9976800351695
 20
-2.131628207280301e-014
 30
0
 40
4.999999999999943
  0
CIRCLE
  8
1
 62
7
 10
250.4976800351696
 20
1.4210854715202e-014
 30
0
 40
15
  0
CIRCLE
  8
1
 62
7
 10
250.4976800351696
 20
1.4210854715202e-014
 30
0
 40
20
  0
CIRCLE
  8
1
 62
7
 10
250.4976800351696
 20
1.4210854715202e-014
 30
0
 40
26.5
  0
CIRCLE
  8
1
 62
7
 10
250.4976800351696
 20
1.4210854715202e-014
 30
0
 40
31
  0
CIRCLE
  8
1
 62
7
 10
183.3225358224476
 20
67.17514421272203
 30
0
 40
4.25
  0
CIRCLE
  8
1
 62
7
 10
183.3225358224476
 20
-67.17514421272202
 30
0
 40
4.25
  0
CIRCLE
  8
1
 62
7
 10
317.6728242478916
 20
-67.17514421272202
 30
0
 40
4.25
  0
CIRCLE
  8
1
 62
7
 10
317.6728242478916
 20
67.17514421272203
 30
0
 40
4.25
  0
TEXT
  8
1
 62
7
 10
-168.4440418880371
 20
169.1144259971563
 30
0
 40
7
  1
TMAF 10
 41
0.9
  7
SIMPLEX
  0
TEXT
  8
1
 62
7
 10
-168.4440418880371
 20
158.6144259971563
 30
0
 40
7
  1
DC2205
 41
0.9
  7
SIMPLEX
  0
ENDSEC
  0
EOF
