  0
SECTION
  2
HEADER
  9
$ACADVER
  1
AC1009
  9
$INSBASE
 10
0
 20
0
  9
$EXTMIN
 10
-108.7
 20
-67.49999999999994
  9
$EXTMAX
 10
213.5494728413307
 20
147.2195117005332
  9
$LIMMIN
 10
-108.7
 20
-67.49999999999994
  9
$LIMMAX
 10
213.5494728413307
 20
147.2195117005332
  9
$VIEWCTR
 10
10
 20
10
  9
$VIEWSIZE
 40
10
  9
$SNAPMODE
 70
0
  9
$SNAPUNIT
 10
1
 20
1
  9
$SNAPBASE
 10
0
 20
0
  9
$SNAPANG
 50
0
  9
$SNAPSTYLE
 70
0
  9
$SNAPISOPAIR
 70
0
  9
$GRIDMODE
 70
0
  9
$GRIDUNIT
 10
0
 20
0
  9
$ORTHOMODE
 70
0
  9
$REGENMODE
 70
1
  9
$FILLMODE
 70
1
  9
$QTEXTMODE
 70
0
  9
$DRAGMODE
 70
2
  9
$LTSCALE
 40
1
  9
$OSMODE
 70
0
  9
$ATTMODE
 70
1
  9
$TEXTSIZE
 40
3.5
  9
$TRACEWID
 40
0.5
  9
$TEXTSTYLE
  7
STANDARD
  9
$CLAYER
  8
0
  9
$CELTYPE
  6
BYLAYER
  9
$CECOLOR
 62
256
  9
$DIMSCALE
 40
1
  9
$DIMASZ
 40
0.18
  9
$DIMEXO
 40
0.0625
  9
$DIMDLI
 40
0.38
  9
$DIMRND
 40
0
  9
$DIMDLE
 40
0
  9
$DIMEXE
 40
0.18
  9
$DIMTP
 40
0
  9
$DIMTM
 40
0
  9
$DIMTXT
 40
0.18
  9
$DIMCEN
 40
0.09
  9
$DIMTSZ
 40
0
  9
$DIMTOL
 70
0
  9
$DIMLIM
 70
0
  9
$DIMTIH
 70
1
  9
$DIMTOH
 70
1
  9
$DIMSE1
 70
0
  9
$DIMSE2
 70
0
  9
$DIMTAD
 70
0
  9
$DIMZIN
 70
0
  9
$DIMBLK
  1

  9
$DIMASO
 70
1
  9
$DIMSHO
 70
1
  9
$DIMPOST
  1

  9
$DIMAPOST
  1

  9
$DIMALT
 70
0
  9
$DIMALTD
 70
2
  9
$DIMALTF
 40
25.4
  9
$DIMLFAC
 40
1
  9
$DIMTOFL
 70
0
  9
$DIMTVP
 40
0
  9
$DIMTIX
 70
0
  9
$DIMSOXD
 70
0
  9
$DIMSAH
 70
0
  9
$DIMBLK1
  1

  9
$DIMBLK2
  1

  9
$DIMSTYLE
  2
*UNNAMED
  9
$DIMCLRD
 70
0
  9
$DIMCLRE
 70
0
  9
$DIMCLRT
 70
0
  9
$DIMTFAC
 40
1
  9
$DIMGAP
 40
0.09
  9
$LUNITS
 70
2
  9
$LUPREC
 70
4
  9
$AXISMODE
 70
0
  9
$AXISUNIT
 10
0
 20
0
  9
$SKETCHINC
 40
0.1
  9
$FILLETRAD
 40
2
  9
$AUNITS
 70
0
  9
$AUPREC
 70
0
  9
$MENU
  1
ACAD
  9
$ELEVATION
 40
0
  9
$THICKNESS
 40
0
  9
$VIEWDIR
 10
0
 20
0
 30
1
  9
$LIMCHECK
 70
0
  9
$BLIPMODE
 70
1
  9
$CHAMFERA
 40
0
  9
$CHAMFERB
 40
0
  9
$FASTZOOM
 70
1
  9
$SKPOLY
 70
0
  9
$ANGBASE
 50
0
  9
$ANGDIR
 70
0
  9
$PDMODE
 70
0
  9
$PDSIZE
 40
0
  9
$PLINEWID
 40
0
  9
$COORDS
 70
2
  0
ENDSEC
  0
SECTION
  2
TABLES
  0
TABLE
  2
DIMSTYLE
 70
0
  0
ENDTAB
  0
TABLE
  2
LTYPE
 70
9
  0
LTYPE
  2
CONTINUOUS
 70
64
  3
Solid line
 72
65
 73
0
 40
0
  0
LTYPE
  2
BORDER
 70
64
  3
__ __ . __ __ .
 72
65
 73
6
 40
14.84043624927181
 49
4.240124642649088
 49
-2.120062321324544
 49
4.240124642649088
 49
-2.120062321324544
 49
0
 49
-2.120062321324544
  0
LTYPE
  2
CENTER
 70
64
  3
____ _ ____ _
 72
65
 73
4
 40
16.96049857059635
 49
10.60031160662272
 49
-2.120062321324544
 49
2.120062321324544
 49
-2.120062321324544
  0
LTYPE
  2
DASHDOT
 70
64
  3
__ . __ . __ .
 72
65
 73
4
 40
8.480249285298177
 49
4.240124642649088
 49
-2.120062321324544
 49
0
 49
-2.120062321324544
  0
LTYPE
  2
DASHED
 70
64
  3
__ __ __ __ __
 72
65
 73
2
 40
6.360186963973632
 49
4.240124642649088
 49
-2.120062321324544
  0
LTYPE
  2
DIVIDE
 70
64
  3
__ . . __ . . 
 72
65
 73
6
 40
10.60031160662272
 49
4.240124642649088
 49
-2.120062321324544
 49
0
 49
-2.120062321324544
 49
0
 49
-2.120062321324544
  0
LTYPE
  2
DOT
 70
64
  3
..............
 72
65
 73
4
 40
4.240124642649088
 49
0
 49
-2.120062321324544
 49
0
 49
-2.120062321324544
  0
LTYPE
  2
HIDDEN
 70
64
  3
_ _ _ _ _ _ _
 72
65
 73
2
 40
3.180093481986816
 49
2.120062321324544
 49
-1.060031160662272
  0
LTYPE
  2
PHANTOM
 70
64
  3
_____ _ _ _____ _ _ 
 72
65
 73
6
 40
21.20062321324544
 49
10.60031160662272
 49
-2.120062321324544
 49
2.120062321324544
 49
-2.120062321324544
 49
2.120062321324544
 49
-2.120062321324544
  0
ENDTAB
  0
TABLE
  2
LAYER
 70
3
  0
LAYER
  2
1
 70
0
 62
7
  6
CONTINUOUS
  0
LAYER
  2
0
 70
0
 62
7
  6
CONTINUOUS
  0
ENDTAB
  0
TABLE
  2
STYLE
 70
4
  0
STYLE
  2
STANDARD
 70
0
 40
0
 41
1
 50
0
 71
0
 42
3.5
  3
txt
  4

  0
STYLE
  2
SIMPLEX
 70
0
 40
0
 41
1
 50
0
 71
0
 42
3.5
  3
simplex
  4

  0
STYLE
  2
COMPLEX
 70
0
 40
0
 41
1
 50
0
 71
0
 42
3.5
  3
complex
  4

  0
STYLE
  2
ITALIC
 70
0
 40
0
 41
1
 50
0
 71
0
 42
3.5
  3
italic
  4

  0
ENDTAB
  0
TABLE
  2
VIEW
 70
0
  0
ENDTAB
  0
ENDSEC
  0
SECTION
  2
BLOCKS
  0
ENDSEC
  0
SECTION
  2
ENTITIES
  0
LINE
  8
1
 62
7
 10
8.399999999999977
 20
53.5
 30
0
 11
23.39999999999989
 21
53.5
 31
0
  0
LINE
  8
1
 62
7
 10
28.39999999999989
 20
-44.74999999999993
 30
0
 11
29.09999999999988
 21
-44.74999999999993
 31
0
  0
LINE
  8
1
 62
7
 10
23.79999999999979
 20
53.75
 30
0
 11
23.79999999999987
 21
18.99999999999998
 31
0
  0
LINE
  8
1
 62
3
  6
DASHDOT
 10
51.49999999999999
 20
0
 30
0
 11
46.49999999999999
 21
0
 31
0
  0
LINE
  8
1
 62
7
 10
27.69999999999979
 20
-38.00000000000003
 30
0
 11
27.69999999999979
 21
-53.75
 31
0
  0
LINE
  8
1
 62
7
 10
28.39999999999989
 20
-37.99999999999993
 30
0
 11
27.69999999999979
 21
-38.00000000000003
 31
0
  0
LINE
  8
1
 62
7
 10
8.399999999999977
 20
-53.49999999999993
 30
0
 11
23.39999999999989
 21
-53.49999999999993
 31
0
  0
LINE
  8
1
 62
7
 10
8.399999999999977
 20
-26.99999999999994
 30
0
 11
23.39999999999998
 21
-26.99999999999994
 31
0
  0
LINE
  8
1
 62
7
 10
23.39999999999998
 20
26.99999999999999
 30
0
 11
8.399999999999977
 21
26.99999999999999
 31
0
  0
LINE
  8
1
 62
7
 10
23.39999999999989
 20
53.5
 30
0
 11
23.39999999999998
 21
18.99999999999998
 31
0
  0
LINE
  8
1
 62
7
 10
0
 20
50
 30
0
 11
2.399999999999977
 21
50
 31
0
  0
LINE
  8
1
 62
7
 10
0
 20
25.99999999999999
 30
0
 11
2.399999999999977
 21
25.99999999999999
 31
0
  0
LINE
  8
1
 62
7
 10
2.399999999999977
 20
-26
 30
0
 11
0
 21
-26
 31
0
  0
LINE
  8
1
 62
7
 10
0
 20
50
 30
0
 11
0
 21
-67.49999999999994
 31
0
  0
LINE
  8
1
 62
7
 10
2.399999999999977
 20
50
 30
0
 11
2.399999999999977
 21
-67.49999999999994
 31
0
  0
LINE
  8
1
 62
7
 10
0
 20
-57.74999999999994
 30
0
 11
2.399999999999977
 21
-57.74999999999994
 31
0
  0
LINE
  8
1
 62
7
 10
0
 20
-64.24999999999994
 30
0
 11
2.399999999999977
 21
-64.24999999999994
 31
0
  0
LINE
  8
1
 62
7
 10
0
 20
-67.49999999999994
 30
0
 11
2.399999999999977
 21
-67.49999999999994
 31
0
  0
LINE
  8
1
 62
3
  6
DASHDOT
 10
-3
 20
-60.99999999999994
 30
0
 11
5.399999999999976
 21
-60.99999999999994
 31
0
  0
LINE
  8
1
 62
7
 10
11.01379621403538
 20
80.55861913509676
 30
0
 11
11.01379621403538
 21
83.88000008950485
 31
0
  0
LINE
  8
1
 62
7
 10
11.01379621403538
 20
83.49452480109653
 30
0
 11
11.01379621403538
 21
85.55861913509676
 31
0
  0
LINE
  8
1
 62
7
 10
10.47413081026377
 20
80.55861913509676
 30
0
 11
10.47413081026377
 21
85.55861913509676
 31
0
  0
LINE
  8
1
 62
7
 10
12.32586918973618
 20
85.55861913509676
 30
0
 11
12.32586918973618
 21
80.55861913509676
 31
0
  0
LINE
  8
1
 62
7
 10
11.78620378596457
 20
85.55861913509676
 30
0
 11
11.78620378596457
 21
83.49452480109653
 31
0
  0
LINE
  8
1
 62
7
 10
11.78620378596457
 20
83.88000008950485
 30
0
 11
11.78620378596457
 21
80.55861913509676
 31
0
  0
LINE
  8
1
 62
7
 10
10.14999999999998
 20
80.55861913509676
 30
0
 11
12.64999999999998
 21
80.55861913509676
 31
0
  0
LINE
  8
1
 62
7
 10
23.79999999999979
 20
53.75
 30
0
 11
27.69999999999979
 21
53.75
 31
0
  0
LINE
  8
1
 62
7
 10
27.69999999999979
 20
37.99999999999999
 30
0
 11
28.39999999999989
 21
37.99999999999999
 31
0
  0
LINE
  8
1
 62
7
 10
23.79999999999987
 20
26.49999999999999
 30
0
 11
28.39999999999989
 21
26.49999999999999
 31
0
  0
LINE
  8
1
 62
7
 10
28.39999999999989
 20
37.99999999999999
 30
0
 11
28.39999999999989
 21
23.99999999999998
 31
0
  0
LINE
  8
1
 62
7
 10
27.69999999999979
 20
53
 30
0
 11
28.39999999999989
 21
53
 31
0
  0
LINE
  8
1
 62
7
 10
28.39999999999989
 20
40.54136836602158
 30
0
 11
29.09999999999988
 21
37.99999999999999
 31
0
  0
LINE
  8
1
 62
7
 10
27.69999999999979
 20
40.6124355652982
 30
0
 11
28.39999999999989
 21
37.99999999999999
 31
0
  0
LINE
  8
1
 62
7
 10
28.39999999999989
 20
53
 30
0
 11
28.39999999999989
 21
40.54136836602158
 31
0
  0
LINE
  8
1
 62
7
 10
29.09999999999988
 20
52
 30
0
 11
29.09999999999988
 21
43
 31
0
  0
LINE
  8
1
 62
7
 10
28.39999999999989
 20
52
 30
0
 11
30.19999999999979
 21
52
 31
0
  0
LINE
  8
1
 62
7
 10
30.69999999999979
 20
51.5
 30
0
 11
30.19999999999979
 21
52
 31
0
  0
LINE
  8
1
 62
7
 10
28.39999999999989
 20
43
 30
0
 11
30.19999999999979
 21
43
 31
0
  0
LINE
  8
1
 62
7
 10
30.69999999999979
 20
51.5
 30
0
 11
30.69999999999979
 21
43.5
 31
0
  0
LINE
  8
1
 62
7
 10
30.69999999999979
 20
43.5
 30
0
 11
30.19999999999979
 21
43
 31
0
  0
LINE
  8
1
 62
7
 10
29.09999999999988
 20
37.99999999999999
 30
0
 11
29.09999999999988
 21
23.99999999999998
 31
0
  0
LINE
  8
1
 62
7
 10
27.69999999999979
 20
42
 30
0
 11
28.39999999999989
 21
42
 31
0
  0
LINE
  8
1
 62
7
 10
28.39999999999989
 20
-26.5
 30
0
 11
23.79999999999987
 21
-26.5
 31
0
  0
LINE
  8
1
 62
7
 10
27.69999999999979
 20
-53.75
 30
0
 11
23.79999999999979
 21
-53.75
 31
0
  0
LINE
  8
1
 62
7
 10
28.39999999999989
 20
-52.99999999999993
 30
0
 11
29.09999999999988
 21
-52.99999999999993
 31
0
  0
LINE
  8
1
 62
7
 10
29.09999999999988
 20
-24.00000000000003
 30
0
 11
29.09999999999988
 21
-52.99999999999993
 31
0
  0
LINE
  8
1
 62
7
 10
29.09999999999988
 20
-32.49999999999993
 30
0
 11
29.79999999999998
 21
-32.49999999999993
 31
0
  0
LINE
  8
1
 62
7
 10
29.09999999999988
 20
-43.49999999999993
 30
0
 11
29.79999999999998
 21
-43.49999999999993
 31
0
  0
LINE
  8
1
 62
7
 10
28.39999999999989
 20
-30.00000000000003
 30
0
 11
29.09999999999988
 21
-30.00000000000003
 31
0
  0
LINE
  8
1
 62
7
 10
12.64999999999998
 20
80.55861913509676
 30
0
 11
12.64999999999998
 21
53.5
 31
0
  0
LINE
  8
1
 62
7
 10
10.14999999999998
 20
80.55861913509676
 30
0
 11
10.14999999999998
 21
53.5
 31
0
  0
LINE
  8
1
 62
7
 10
27.69999999999979
 20
53.75
 30
0
 11
27.69999999999979
 21
37.99999999999999
 31
0
  0
LINE
  8
1
 62
7
 10
11.39370215131819
 20
80.55861913509676
 30
0
 11
11.39370215131819
 21
85.53918548245093
 31
0
  0
LINE
  8
1
 62
3
  6
DASHDOT
 10
0
 20
0
 30
0
 11
-5
 21
0
 31
0
  0
LINE
  8
1
 62
7
 10
42.29999999999998
 20
23.99999999999998
 30
0
 11
45.99999999999999
 21
23.99999999999998
 31
0
  0
LINE
  8
1
 62
7
 10
41.79999999999998
 20
34.46197067551628
 30
0
 11
41.79999999999998
 21
24.49999999999998
 31
0
  0
LINE
  8
1
 62
7
 10
30.29999999999998
 20
34.96197067551628
 30
0
 11
41.29999999999998
 21
34.96197067551628
 31
0
  0
LINE
  8
1
 62
7
 10
29.79999999999998
 20
24.49999999999998
 30
0
 11
29.79999999999998
 21
34.46197067551628
 31
0
  0
LINE
  8
1
 62
7
 10
27
 20
23.99999999999998
 30
0
 11
29.29999999999998
 21
23.99999999999998
 31
0
  0
LINE
  8
1
 62
7
 10
26.5
 20
19.49999999999998
 30
0
 11
26.5
 21
23.49999999999998
 31
0
  0
LINE
  8
1
 62
7
 10
22
 20
18.99999999999998
 30
0
 11
26
 21
18.99999999999998
 31
0
  0
LINE
  8
1
 62
7
 10
21.5
 20
-18.50000000000003
 30
0
 11
21.5
 21
18.49999999999998
 31
0
  0
LINE
  8
1
 62
7
 10
46.49999999999999
 20
-19.00000000000003
 30
0
 11
46.49999999999999
 21
23.49999999999998
 31
0
  0
LINE
  8
1
 62
7
 10
46.29999999999998
 20
-19.00000000000003
 30
0
 11
46.49999999999999
 21
-19.00000000000003
 31
0
  0
LINE
  8
1
 62
7
 10
42.29999999999998
 20
-49.49696731187264
 30
0
 11
45.79999999999998
 21
-49.49696731187264
 31
0
  0
LINE
  8
1
 62
7
 10
41.79999999999998
 20
-50.99992802775823
 30
0
 11
41.79999999999998
 21
-49.99696731187264
 31
0
  0
LINE
  8
1
 62
7
 10
34.29999999999998
 20
-51.49992802775823
 30
0
 11
41.29999999999998
 21
-51.49992802775823
 31
0
  0
LINE
  8
1
 62
7
 10
33.79999999999998
 20
-49.99696731187264
 30
0
 11
33.79999999999998
 21
-50.99992802775823
 31
0
  0
LINE
  8
1
 62
7
 10
30.29999999999998
 20
-49.49696731187264
 30
0
 11
33.29999999999998
 21
-49.49696731187264
 31
0
  0
LINE
  8
1
 62
7
 10
29.79999999999998
 20
-24.50000000000003
 30
0
 11
29.79999999999998
 21
-48.99696731187264
 31
0
  0
LINE
  8
1
 62
7
 10
27
 20
-24.00000000000003
 30
0
 11
29.29999999999998
 21
-24.00000000000003
 31
0
  0
LINE
  8
1
 62
7
 10
26.5
 20
-19.50000000000003
 30
0
 11
26.5
 21
-23.50000000000003
 31
0
  0
LINE
  8
1
 62
7
 10
22
 20
-19.00000000000003
 30
0
 11
26
 21
-19.00000000000003
 31
0
  0
LINE
  8
1
 62
7
 10
21.5
 20
11.99999999999998
 30
0
 11
46.49999999999999
 21
11.99999999999998
 31
0
  0
LINE
  8
1
 62
7
 10
21.5
 20
10
 30
0
 11
46.49999999999999
 21
10
 31
0
  0
LINE
  8
1
 62
7
 10
46.49999999999999
 20
-9.990564758457253
 30
0
 11
21.5
 21
-9.990564758457253
 31
0
  0
LINE
  8
1
 62
7
 10
38.99999999999999
 20
19.96197067551628
 30
0
 11
38.99999999999999
 21
34.96197067551628
 31
0
  0
LINE
  8
1
 62
7
 10
31.99999999999999
 20
19.96197067551628
 30
0
 11
31.99999999999999
 21
34.96197067551628
 31
0
  0
LINE
  8
1
 62
7
 10
31.99999999999999
 20
19.96197067551628
 30
0
 11
38.99999999999999
 21
19.96197067551628
 31
0
  0
LINE
  8
1
 62
3
 10
32.99999999999999
 20
11.99999999999998
 30
0
 11
32.99999999999999
 21
19.96197067551628
 31
0
  0
LINE
  8
1
 62
3
 10
37.99999999999999
 20
19.96197067551628
 30
0
 11
37.99999999999999
 21
11.99999999999998
 31
0
  0
LINE
  8
1
 62
7
 10
33.59999999999988
 20
11.99999999999998
 30
0
 11
33.59999999999988
 21
19.96197067551628
 31
0
  0
LINE
  8
1
 62
7
 10
37.39999999999999
 20
19.96197067551628
 30
0
 11
37.39999999999999
 21
11.99999999999998
 31
0
  0
LINE
  8
1
 62
3
  6
DASHDOT
 10
35.49999999999999
 20
37.96197067551628
 30
0
 11
35.49999999999999
 21
8.999999999999979
 31
0
  0
LINE
  8
1
 62
7
 10
23.39999999999998
 20
-19.00000000000003
 30
0
 11
23.39999999999989
 21
-53.49999999999993
 31
0
  0
LINE
  8
1
 62
7
 10
23.79999999999987
 20
-19.00000000000003
 30
0
 11
23.79999999999979
 21
-53.75
 31
0
  0
LINE
  8
1
 62
7
 10
28.39999999999989
 20
-24.00000000000003
 30
0
 11
28.39999999999989
 21
-52.99999999999993
 31
0
  0
LINE
  8
1
 62
7
 10
45.79999999999998
 20
-23.99939214217977
 30
0
 11
42.29999999999998
 21
-23.99939214217977
 31
0
  0
LINE
  8
1
 62
7
 10
46.29999999999998
 20
-19.00000000000003
 30
0
 11
46.29999999999998
 21
-48.99696731187264
 31
0
  0
LINE
  8
1
 62
7
 10
42.29999999999998
 20
-26.49114752577989
 30
0
 11
45.79999999999998
 21
-26.49114752577989
 31
0
  0
LINE
  8
1
 62
7
 10
41.79999999999998
 20
-25.99114752577989
 30
0
 11
41.79999999999998
 21
-24.49939214217977
 31
0
  0
LINE
  8
1
 62
3
  6
DASHDOT
 10
207.3524038761261
 20
-47.55293103479548
 30
0
 11
198.5135691112943
 21
-38.71409626996368
 31
0
  0
LINE
  8
1
 62
3
  6
DASHDOT
 10
112.2465418065353
 20
-47.55293103479549
 30
0
 11
121.0853765713671
 21
-38.71409626996365
 31
0
  0
LINE
  8
1
 62
3
  6
DASHDOT
 10
112.2465418065353
 20
47.55293103479525
 30
0
 11
121.0853765713671
 21
38.71409626996345
 31
0
  0
LINE
  8
1
 62
3
  6
DASHDOT
 10
207.352403876126
 20
47.55293103479531
 30
0
 11
198.5135691112942
 21
38.71409626996347
 31
0
  0
LINE
  8
1
 62
3
  6
DASHDOT
 10
164.7994728413307
 20
-3.552713678800501e-014
 30
0
 11
154.7994728413307
 21
-1.295798321074293e-013
 31
0
  0
LINE
  8
1
 62
3
  6
DASHDOT
 10
159.7994728413307
 20
4.99999999999987
 30
0
 11
159.7994728413307
 21
-5.00000000000013
 31
0
  0
LINE
  8
1
 62
7
 10
-69.90000000000001
 20
-49.99696731187264
 30
0
 11
-69.90000000000001
 21
-50.99992802775823
 31
0
  0
LINE
  8
1
 62
7
 10
-73.90000000000001
 20
24.49999999999998
 30
0
 11
-73.90000000000001
 21
34.46197067551628
 31
0
  0
LINE
  8
1
 62
7
 10
-57.40000000000001
 20
-19.00000000000003
 30
0
 11
-57.20000000000002
 21
-19.00000000000003
 31
0
  0
LINE
  8
1
 62
7
 10
-57.40000000000001
 20
-23.20860602597335
 30
0
 11
-57.40000000000001
 21
-23.70860602597335
 31
0
  0
LINE
  8
1
 62
7
 10
-57.40000000000001
 20
-23.37206276789144
 30
0
 11
-57.40000000000001
 21
-19.00000000000003
 31
0
  0
LINE
  8
1
 62
7
 10
-61.90000000000001
 20
34.46197067551628
 30
0
 11
-61.90000000000001
 21
-50.99992802775823
 31
0
  0
LINE
  8
1
 62
7
 10
-61.40000000000001
 20
23.99999999999998
 30
0
 11
-57.70000000000002
 21
23.99999999999998
 31
0
  0
LINE
  8
1
 62
7
 10
-79.90000000000021
 20
53.75
 30
0
 11
-79.90000000000022
 21
-53.74999999999999
 31
0
  0
LINE
  8
1
 62
7
 10
-74.40000000000001
 20
-24.00000000000003
 30
0
 11
-74.60000000000011
 21
-24.00000000000003
 31
0
  0
LINE
  8
1
 62
7
 10
-74.40000000000001
 20
23.99999999999998
 30
0
 11
-74.60000000000011
 21
23.99999999999998
 31
0
  0
LINE
  8
1
 62
3
  6
DASHDOT
 10
-52.20000000000002
 20
0
 30
0
 11
-57.20000000000002
 21
0
 31
0
  0
LINE
  8
1
 62
3
  6
DASHDOT
 10
-103.7
 20
0
 30
0
 11
-108.7
 21
0
 31
0
  0
LINE
  8
1
 62
7
 10
-95.30000000000001
 20
-53.49999999999993
 30
0
 11
-80.30000000000013
 21
-53.49999999999993
 31
0
  0
LINE
  8
1
 62
7
 10
-80.30000000000011
 20
53.5
 30
0
 11
-91.05000000000001
 21
53.5
 31
0
  0
LINE
  8
1
 62
7
 10
-103.7
 20
50
 30
0
 11
-101.3
 21
50
 31
0
  0
LINE
  8
1
 62
7
 10
-103.7
 20
50
 30
0
 11
-103.7
 21
-67.49999999999994
 31
0
  0
LINE
  8
1
 62
7
 10
-101.3
 20
50
 30
0
 11
-101.3
 21
-67.49999999999994
 31
0
  0
LINE
  8
1
 62
7
 10
-103.7
 20
-67.49999999999994
 30
0
 11
-101.3
 21
-67.49999999999994
 31
0
  0
LINE
  8
1
 62
3
  6
DASHDOT
 10
-106.7
 20
-60.99999999999994
 30
0
 11
-98.3
 21
-60.99999999999994
 31
0
  0
LINE
  8
1
 62
7
 10
-92.68620378596461
 20
80.55861913509676
 30
0
 11
-92.68620378596461
 21
83.88000008950485
 31
0
  0
LINE
  8
1
 62
7
 10
-92.68620378596461
 20
83.49452480109653
 30
0
 11
-92.68620378596461
 21
85.55861913509676
 31
0
  0
LINE
  8
1
 62
7
 10
-93.22586918973622
 20
80.55861913509676
 30
0
 11
-93.22586918973622
 21
85.55861913509676
 31
0
  0
LINE
  8
1
 62
7
 10
-91.37413081026381
 20
85.55861913509676
 30
0
 11
-91.37413081026381
 21
80.55861913509676
 31
0
  0
LINE
  8
1
 62
7
 10
-91.91379621403542
 20
85.55861913509676
 30
0
 11
-91.91379621403542
 21
83.49452480109653
 31
0
  0
LINE
  8
1
 62
7
 10
-91.91379621403542
 20
83.88000008950485
 30
0
 11
-91.91379621403542
 21
80.55861913509676
 31
0
  0
LINE
  8
1
 62
7
 10
-93.55000000000001
 20
80.55861913509676
 30
0
 11
-91.05000000000001
 21
80.55861913509676
 31
0
  0
LINE
  8
1
 62
7
 10
-79.90000000000021
 20
53.75
 30
0
 11
-76.0000000000002
 21
53.75
 31
0
  0
LINE
  8
1
 62
7
 10
-75.30000000000013
 20
37.99999999999999
 30
0
 11
-75.30000000000013
 21
-52.99999999999993
 31
0
  0
LINE
  8
1
 62
7
 10
-76.0000000000002
 20
53
 30
0
 11
-75.30000000000013
 21
53
 31
0
  0
LINE
  8
1
 62
7
 10
-75.30000000000013
 20
40.54136836602158
 30
0
 11
-74.60000000000011
 21
37.99999999999999
 31
0
  0
LINE
  8
1
 62
7
 10
-76.0000000000002
 20
40.6124355652982
 30
0
 11
-75.30000000000013
 21
37.99999999999999
 31
0
  0
LINE
  8
1
 62
7
 10
-76.0000000000002
 20
53.75
 30
0
 11
-76.0000000000002
 21
-53.75
 31
0
  0
LINE
  8
1
 62
7
 10
-75.30000000000013
 20
53
 30
0
 11
-75.30000000000013
 21
40.54136836602158
 31
0
  0
LINE
  8
1
 62
7
 10
-74.60000000000011
 20
52
 30
0
 11
-74.60000000000011
 21
43
 31
0
  0
LINE
  8
1
 62
7
 10
-75.30000000000013
 20
52
 30
0
 11
-73.5000000000002
 21
52
 31
0
  0
LINE
  8
1
 62
7
 10
-73.0000000000002
 20
51.5
 30
0
 11
-73.5000000000002
 21
52
 31
0
  0
LINE
  8
1
 62
7
 10
-75.30000000000013
 20
43
 30
0
 11
-73.5000000000002
 21
43
 31
0
  0
LINE
  8
1
 62
7
 10
-73.0000000000002
 20
51.5
 30
0
 11
-73.0000000000002
 21
43.5
 31
0
  0
LINE
  8
1
 62
7
 10
-73.0000000000002
 20
43.5
 30
0
 11
-73.5000000000002
 21
43
 31
0
  0
LINE
  8
1
 62
7
 10
-76.0000000000002
 20
-53.75
 30
0
 11
-79.90000000000022
 21
-53.74999999999999
 31
0
  0
LINE
  8
1
 62
7
 10
-75.30000000000013
 20
-52.99999999999993
 30
0
 11
-74.60000000000011
 21
-52.99999999999993
 31
0
  0
LINE
  8
1
 62
7
 10
-74.60000000000011
 20
37.99999999999999
 30
0
 11
-74.60000000000011
 21
-52.99999999999993
 31
0
  0
LINE
  8
1
 62
7
 10
-74.60000000000011
 20
-32.49999999999993
 30
0
 11
-73.90000000000001
 21
-32.49999999999993
 31
0
  0
LINE
  8
1
 62
7
 10
-74.60000000000011
 20
-43.49999999999993
 30
0
 11
-73.90000000000001
 21
-43.49999999999993
 31
0
  0
LINE
  8
1
 62
7
 10
-91.05000000000001
 20
80.55861913509676
 30
0
 11
-91.05000000000001
 21
53.5
 31
0
  0
LINE
  8
1
 62
7
 10
-95.30000000000001
 20
53.5
 30
0
 11
-91.04037112270481
 21
53.5
 31
0
  0
LINE
  8
1
 62
7
 10
-93.55000000000001
 20
80.55861913509676
 30
0
 11
-93.55000000000001
 21
53.5
 31
0
  0
LINE
  8
1
 62
7
 10
-92.30629784868182
 20
80.55861913509676
 30
0
 11
-92.30629784868182
 21
85.53918548245093
 31
0
  0
LINE
  8
1
 62
7
 10
-62.40000000000001
 20
34.96197067551628
 30
0
 11
-73.40000000000001
 21
34.96197067551628
 31
0
  0
LINE
  8
1
 62
7
 10
-57.20000000000002
 20
-19.00000000000003
 30
0
 11
-57.20000000000002
 21
23.49999999999997
 31
0
  0
LINE
  8
1
 62
7
 10
-57.40000000000001
 20
-48.99696731187264
 30
0
 11
-57.40000000000001
 21
-26.99114752577989
 31
0
  0
LINE
  8
1
 62
7
 10
-61.40000000000001
 20
-49.49696731187264
 30
0
 11
-57.90000000000001
 21
-49.49696731187264
 31
0
  0
LINE
  8
1
 62
7
 10
-69.40000000000001
 20
-51.49992802775823
 30
0
 11
-62.40000000000001
 21
-51.49992802775823
 31
0
  0
LINE
  8
1
 62
7
 10
-73.40000000000001
 20
-49.49696731187264
 30
0
 11
-70.40000000000001
 21
-49.49696731187264
 31
0
  0
LINE
  8
1
 62
7
 10
-73.90000000000001
 20
-24.50000000000003
 30
0
 11
-73.90000000000001
 21
-48.99696731187264
 31
0
  0
LINE
  8
1
 62
7
 10
-80.30000000000013
 20
-53.49999999999993
 30
0
 11
-80.30000000000011
 21
53.5
 31
0
  0
LINE
  8
1
 62
7
 10
131.5139828805019
 20
15.17593470466574
 30
0
 11
128.3748209808205
 21
16.98833067247659
 31
0
  0
LINE
  8
1
 62
7
 10
129.3748209808205
 20
18.72038148004549
 30
0
 11
132.5139828805019
 21
16.90798551223464
 31
0
  0
LINE
  8
1
 62
7
 10
125.4061940142236
 20
21.01166932752341
 30
0
 11
122.2670321145422
 21
22.82406529533426
 31
0
  0
LINE
  8
1
 62
7
 10
121.2670321145422
 20
21.09201448776533
 30
0
 11
124.4061940142236
 21
19.2796185199545
 31
0
  0
LINE
  8
1
 62
7
 10
159.1310397463451
 20
80.55861913509676
 30
0
 11
159.1310397463451
 21
85.55861913509676
 31
0
  0
LINE
  8
1
 62
7
 10
158.5787873943805
 20
80.55861913509676
 30
0
 11
158.5787873943805
 21
85.55861913509676
 31
0
  0
LINE
  8
1
 62
7
 10
158.026535042416
 20
80.55861913509676
 30
0
 11
158.026535042416
 21
85.55861913509676
 31
0
  0
LINE
  8
1
 62
7
 10
161.5724106402455
 20
85.55861913509676
 30
0
 11
161.5724106402455
 21
80.55861913509676
 31
0
  0
LINE
  8
1
 62
7
 10
161.0201582882809
 20
85.55861913509676
 30
0
 11
161.0201582882809
 21
80.55861913509676
 31
0
  0
LINE
  8
1
 62
7
 10
160.4679059363163
 20
85.55861913509676
 30
0
 11
160.4679059363163
 21
80.55861913509676
 31
0
  0
LINE
  8
1
 62
7
 10
157.2994728413307
 20
80.55861913509676
 30
0
 11
162.2994728413307
 21
80.55861913509676
 31
0
  0
LINE
  8
1
 62
7
 10
157.2994728413307
 20
80.55861913509676
 30
0
 11
157.2994728413307
 21
53.69182898728632
 31
0
  0
LINE
  8
1
 62
7
 10
162.2994728413307
 20
80.55861913509676
 30
0
 11
162.2994728413307
 21
53.69182898728632
 31
0
  0
LINE
  8
1
 62
7
 10
159.8102385395383
 20
80.55861913509676
 30
0
 11
159.8102385395383
 21
53.74999892185806
 31
0
  0
LINE
  8
1
 62
7
 10
209.7994728413307
 20
45.34589286804265
 30
0
 11
209.7994728413307
 21
19.72466729757441
 31
0
  0
LINE
  8
1
 62
7
 10
114.4535799732881
 20
-49.99999999999993
 30
0
 11
140.074805543756
 21
-49.99999999999993
 31
0
  0
LINE
  8
1
 62
7
 10
114.4535799732881
 20
50
 30
0
 11
140.0748055437562
 21
50.00000000000001
 31
0
  0
LINE
  8
1
 62
7
 10
109.7994728413307
 20
45.34589286804265
 30
0
 11
109.7994728413307
 21
19.72466729757434
 31
0
  0
LINE
  8
1
 62
7
 10
179.5241401389051
 20
50
 30
0
 11
205.1453657093734
 21
50
 31
0
  0
LINE
  8
1
 62
7
 10
209.7994728413307
 20
-19.72466729757446
 30
0
 11
209.7994728413307
 21
-45.34589286804264
 31
0
  0
LINE
  8
1
 62
7
 10
179.5241401389052
 20
-49.99999999999993
 30
0
 11
205.1453657093733
 21
-49.99999999999993
 31
0
  0
LINE
  8
1
 62
7
 10
109.7994728413307
 20
-19.72466729757443
 30
0
 11
109.7994728413307
 21
-45.34589286804264
 31
0
  0
LINE
  8
1
 62
7
 10
160.7994728413307
 20
-32.08392021690044
 30
0
 11
160.7994728413307
 21
-35.70871215252214
 31
0
  0
LINE
  8
1
 62
7
 10
158.7994728413307
 20
-35.70871215252214
 30
0
 11
158.7994728413307
 21
-32.08392021690044
 31
0
  0
LINE
  8
1
 62
7
 10
158.7994728413307
 20
-40.29128784747793
 30
0
 11
158.7994728413307
 21
-43.91607978309973
 31
0
  0
LINE
  8
1
 62
7
 10
160.7994728413307
 20
-43.91607978309963
 30
0
 11
160.7994728413307
 21
-40.29128784747793
 31
0
  0
LINE
  8
1
 62
7
 10
187.0849628021596
 20
16.9079855122346
 30
0
 11
190.224124701841
 21
18.72038148004544
 31
0
  0
LINE
  8
1
 62
7
 10
191.224124701841
 20
16.98833067247654
 30
0
 11
188.0849628021596
 21
15.17593470466571
 31
0
  0
LINE
  8
1
 62
7
 10
195.1927516684379
 20
19.27961851995444
 30
0
 11
198.3319135681192
 21
21.09201448776533
 31
0
  0
LINE
  8
1
 62
7
 10
197.3319135681192
 20
22.82406529533421
 30
0
 11
194.1927516684378
 21
21.01166932752333
 31
0
  0
LINE
  8
1
 62
7
 10
157.2994728413307
 20
9.682458365518514
 30
0
 11
157.2994728413307
 21
11.99999999999998
 31
0
  0
LINE
  8
1
 62
7
 10
157.2994728413307
 20
11.99999999999998
 30
0
 11
162.2994728413307
 21
11.99999999999998
 31
0
  0
LINE
  8
1
 62
7
 10
162.2994728413307
 20
11.99999999999998
 30
0
 11
162.2994728413307
 21
9.682458365518514
 31
0
  0
LINE
  8
1
 62
7
  6
DASHED
 10
163.2994728413307
 20
19.96197067551628
 30
0
 11
163.2994728413307
 21
34.82456029873166
 31
0
  0
LINE
  8
1
 62
7
  6
DASHED
 10
156.2994728413307
 20
19.96197067551628
 30
0
 11
156.2994728413307
 21
34.82456029873166
 31
0
  0
LINE
  8
1
 62
7
  6
DASHED
 10
156.2994728413307
 20
19.96197067551628
 30
0
 11
163.2994728413307
 21
19.96197067551628
 31
0
  0
LINE
  8
1
 62
3
  6
DASHED
 10
157.2994728413307
 20
11.99999999999998
 30
0
 11
157.2994728413307
 21
19.96197067551628
 31
0
  0
LINE
  8
1
 62
3
  6
DASHED
 10
162.2994728413307
 20
19.96197067551628
 30
0
 11
162.2994728413307
 21
11.99999999999998
 31
0
  0
LINE
  8
1
 62
7
  6
DASHED
 10
157.8994728413307
 20
11.99999999999998
 30
0
 11
157.8994728413307
 21
19.96197067551628
 31
0
  0
LINE
  8
1
 62
7
  6
DASHED
 10
161.6994728413307
 20
19.96197067551628
 30
0
 11
161.6994728413307
 21
11.99999999999998
 31
0
  0
LINE
  8
1
 62
3
  6
DASHDOT
 10
159.7994728413307
 20
38.00000000000002
 30
0
 11
159.7994728413307
 21
8.999999999999981
 31
0
  0
LINE
  8
1
 62
7
  6
DASHED
 10
140.7618991267336
 20
-6.949896424512673
 30
0
 11
127.8905189470061
 21
-14.38119123612034
 31
0
  0
LINE
  8
1
 62
7
  6
DASHED
 10
144.2618991267336
 20
-13.01207425100374
 30
0
 11
131.3905189470061
 21
-20.4433690626114
 31
0
  0
LINE
  8
1
 62
7
  6
DASHED
 10
144.2618991267336
 20
-13.01207425100374
 30
0
 11
140.7618991267336
 21
-6.949896424512673
 31
0
  0
LINE
  8
1
 62
3
  6
DASHED
 10
143.7618991267336
 20
-12.1460488472193
 30
0
 11
152.6642179257065
 21
-7.006292692220399
 31
0
  0
LINE
  8
1
 62
3
  6
DASHED
 10
141.2618991267336
 20
-7.815921828297107
 30
0
 11
150.1642179257065
 21
-2.6761656732982
 31
0
  0
LINE
  8
1
 62
7
  6
DASHED
 10
143.4618991267336
 20
-11.62643360494864
 30
0
 11
152.2469732088697
 21
-6.554368718776558
 31
0
  0
LINE
  8
1
 62
7
  6
DASHED
 10
141.5618991267336
 20
-8.335537070567767
 30
0
 11
150.3469732088697
 21
-3.263472184395681
 31
0
  0
LINE
  8
1
 62
3
  6
DASHDOT
 10
153.7372950148396
 20
-3.500000000000028
 30
0
 11
126.8905074975221
 21
-19
 31
0
  0
LINE
  8
1
 62
7
 10
-57.40000000000001
 20
-19.00000000000003
 30
0
 11
-57.20000000000002
 21
-19.00000000000003
 31
0
  0
LINE
  8
1
 62
7
 10
-57.90000000000001
 20
-23.99939214217977
 30
0
 11
-61.40000000000001
 21
-23.99939214217977
 31
0
  0
LINE
  8
1
 62
7
 10
-61.40000000000001
 20
-26.49114752577989
 30
0
 11
-57.90000000000001
 21
-26.49114752577989
 31
0
  0
LINE
  8
1
 62
7
 10
-76.0000000000002
 20
37.99999999999999
 30
0
 11
-75.30000000000013
 21
37.99999999999999
 31
0
  0
LINE
  8
1
 62
7
 10
-76.0000000000002
 20
-38.00000000000003
 30
0
 11
-75.30000000000013
 21
-38.00000000000003
 31
0
  0
ARC
  8
1
 62
7
 10
45.79999999999998
 20
-48.99696731187264
 30
0
 40
0.5
 50
270
 51
0
  0
ARC
  8
1
 62
7
 10
42.29999999999998
 20
-49.99696731187264
 30
0
 40
0.5
 50
90
 51
180
  0
ARC
  8
1
 62
7
 10
41.29999999999998
 20
-50.99992802775823
 30
0
 40
0.5
 50
270
 51
0
  0
ARC
  8
1
 62
7
 10
34.29999999999998
 20
-50.99992802775823
 30
0
 40
0.5
 50
180
 51
270
  0
ARC
  8
1
 62
7
 10
33.29999999999998
 20
-49.99696731187264
 30
0
 40
0.5
 50
0
 51
90
  0
ARC
  8
1
 62
7
 10
30.29999999999998
 20
-48.99696731187264
 30
0
 40
0.5
 50
180
 51
270
  0
ARC
  8
1
 62
7
 10
29.29999999999998
 20
-24.50000000000003
 30
0
 40
0.5
 50
0
 51
90
  0
ARC
  8
1
 62
7
 10
27
 20
-23.50000000000003
 30
0
 40
0.5
 50
180
 51
270
  0
ARC
  8
1
 62
7
 10
26
 20
-19.50000000000003
 30
0
 40
0.5
 50
0
 51
90
  0
ARC
  8
1
 62
7
 10
22
 20
-18.50000000000003
 30
0
 40
0.5
 50
180
 51
270
  0
ARC
  8
1
 62
7
 10
45.99999999999999
 20
23.49999999999998
 30
0
 40
0.5
 50
0
 51
90
  0
ARC
  8
1
 62
7
 10
22
 20
18.49999999999998
 30
0
 40
0.5
 50
90
 51
180
  0
ARC
  8
1
 62
7
 10
26
 20
19.49999999999998
 30
0
 40
0.5
 50
270
 51
0
  0
ARC
  8
1
 62
7
 10
27
 20
23.49999999999998
 30
0
 40
0.5
 50
90
 51
180
  0
ARC
  8
1
 62
7
 10
29.29999999999998
 20
24.49999999999998
 30
0
 40
0.5
 50
270
 51
0
  0
ARC
  8
1
 62
7
 10
30.29999999999998
 20
34.46197067551628
 30
0
 40
0.5
 50
90
 51
180
  0
ARC
  8
1
 62
7
 10
42.29999999999998
 20
24.49999999999998
 30
0
 40
0.5
 50
180
 51
270
  0
ARC
  8
1
 62
7
 10
41.29999999999998
 20
34.46197067551628
 30
0
 40
0.5
 50
0
 51
90
  0
ARC
  8
1
 62
7
 10
8.399999999999977
 20
-47.49999999999993
 30
0
 40
6
 50
180
 51
270
  0
ARC
  8
1
 62
7
 10
8.399999999999977
 20
-32.99999999999993
 30
0
 40
5.999999999999989
 50
90
 51
180
  0
ARC
  8
1
 62
7
 10
8.399999999999977
 20
32.99999999999999
 30
0
 40
6
 50
180
 51
270
  0
ARC
  8
1
 62
7
 10
8.399999999999977
 20
47.5
 30
0
 40
6
 50
90
 51
180
  0
ARC
  8
1
 62
7
 10
42.29999999999998
 20
-24.49939214217977
 30
0
 40
0.5
 50
90
 51
180
  0
ARC
  8
1
 62
7
 10
42.29999999999998
 20
-25.99114752577989
 30
0
 40
0.5
 50
180
 51
270
  0
ARC
  8
1
 62
7
 10
45.79999999999998
 20
-26.99114752577989
 30
0
 40
0.5
 50
0
 51
90
  0
ARC
  8
1
 62
7
 10
45.79999999999998
 20
-23.49939214217977
 30
0
 40
0.5
 50
270
 51
0
  0
ARC
  8
1
 62
7
 10
159.7994728413307
 20
-2.842170943040401e-014
 30
0
 40
34.99999999999998
 50
302.7927123639788
 51
357.2072876360212
  0
ARC
  8
1
 62
3
  6
DASHDOT
 10
159.7994728413307
 20
-2.842170943040401e-014
 30
0
 40
61.00000000000023
 50
307.5
 51
322.4999999999999
  0
ARC
  8
1
 62
3
  6
DASHDOT
 10
159.7994728413307
 20
-2.842170943040401e-014
 30
0
 40
61.00000000000023
 50
217.5000000000001
 51
232.5
  0
ARC
  8
1
 62
3
  6
DASHDOT
 10
159.7994728413307
 20
-2.842170943040401e-014
 30
0
 40
61.00000000000009
 50
127.5000000000001
 51
142.5000000000001
  0
ARC
  8
1
 62
3
  6
DASHDOT
 10
159.7994728413307
 20
-2.842170943040401e-014
 30
0
 40
61.00000000000009
 50
37.50000000000002
 51
52.50000000000002
  0
ARC
  8
1
 62
7
 10
145.7994728413307
 20
24.2487113059643
 30
0
 40
25
 50
120
 51
163.0478329667679
  0
ARC
  8
1
 62
7
 10
147.5435432508504
 20
26.28292582406281
 30
0
 40
13.00000000000005
 50
115
 51
162.3607155091334
  0
ARC
  8
1
 62
7
 10
159.7994728413307
 20
-2.842170943040401e-014
 30
0
 40
38.00000000000004
 50
52.01584433361083
 51
127.984155666389
  0
ARC
  8
1
 62
7
 10
159.7994728413307
 20
-2.842170943040401e-014
 30
0
 40
38.00000000000003
 50
172.0158443336108
 51
247.9841556663892
  0
ARC
  8
1
 62
7
 10
143.1657561871504
 20
-23.75540928438082
 30
0
 40
13
 50
234.9999999999994
 51
282.3607155091333
  0
ARC
  8
1
 62
7
 10
145.7994728413306
 20
-24.24871130596426
 30
0
 40
25.00000000000006
 50
240.0000000000003
 51
283.0478329667681
  0
ARC
  8
1
 62
7
 10
188.6891190859913
 20
-2.527516539682125
 30
0
 40
13
 50
354.9999999999998
 51
42.36071550913334
  0
ARC
  8
1
 62
7
 10
187.7994728413307
 20
-5.684341886080801e-014
 30
0
 40
25
 50
359.9999999999999
 51
43.04783296676783
  0
ARC
  8
1
 62
7
 10
159.7994728413307
 20
-2.842170943040401e-014
 30
0
 40
34.99999999999996
 50
182.7927123639788
 51
237.2072876360211
  0
ARC
  8
1
 62
7
 10
159.7994728413307
 20
-2.842170943040401e-014
 30
0
 40
34.99999999999997
 50
62.79271236397886
 51
117.2072876360211
  0
ARC
  8
1
 62
7
 10
173.7994728413307
 20
24.24871130596426
 30
0
 40
24.99999999999997
 50
16.95216703323218
 51
60.00000000000002
  0
ARC
  8
1
 62
7
 10
172.055402431811
 20
26.28292582406283
 30
0
 40
13.00000000000004
 50
17.63928449086626
 51
64.99999999999993
  0
ARC
  8
1
 62
7
 10
159.7994728413307
 20
-2.842170943040401e-014
 30
0
 40
53.00000000000002
 50
60.00000000000001
 51
120
  0
ARC
  8
1
 62
7
 10
159.7994728413307
 20
-2.842170943040401e-014
 30
0
 40
42.00000000000004
 50
64.99999999999997
 51
115
  0
ARC
  8
1
 62
7
 10
130.9098265966701
 20
-2.527516539682125
 30
0
 40
13.00000000000008
 50
137.6392844908664
 51
184.9999999999999
  0
ARC
  8
1
 62
7
 10
131.7994728413307
 20
-4.263256414560601e-014
 30
0
 40
25.00000000000009
 50
136.9521670332319
 51
179.9999999999999
  0
ARC
  8
1
 62
7
 10
159.7994728413307
 20
-2.842170943040401e-014
 30
0
 40
53.0000000000001
 50
180
 51
240
  0
ARC
  8
1
 62
7
 10
159.7994728413307
 20
-2.842170943040401e-014
 30
0
 40
42.00000000000009
 50
184.9999999999999
 51
234.9999999999999
  0
ARC
  8
1
 62
7
 10
176.433189495511
 20
-23.75540928438076
 30
0
 40
12.99999999999993
 50
257.6392844908666
 51
305.0000000000003
  0
ARC
  8
1
 62
7
 10
159.7994728413307
 20
-2.842170943040401e-014
 30
0
 40
41.99999999999991
 50
305.0000000000001
 51
354.9999999999999
  0
ARC
  8
1
 62
7
 10
173.7994728413306
 20
-24.24871130596429
 30
0
 40
24.99999999999995
 50
256.9521670332324
 51
300.0000000000001
  0
ARC
  8
1
 62
7
 10
159.7994728413307
 20
-2.842170943040401e-014
 30
0
 40
52.9999999999999
 50
299.9999999999999
 51
359.9999999999999
  0
ARC
  8
1
 62
7
 10
159.7994728413307
 20
-2.842170943040401e-014
 30
0
 40
37.99999999999994
 50
292.0158443336109
 51
7.984155666389115
  0
ARC
  8
1
 62
7
 10
159.7994728413307
 20
-2.842170943040401e-014
 30
0
 40
67.50000000000003
 50
42.20544640373232
 51
47.79455359626768
  0
ARC
  8
1
 62
7
 10
159.7994728413307
 20
-2.842170943040401e-014
 30
0
 40
67.50000000000003
 50
42.20544640373232
 51
47.79455359626768
  0
ARC
  8
1
 62
7
 10
159.7994728413307
 20
-2.842170943040401e-014
 30
0
 40
67.4999999999999
 50
312.2054464037323
 51
317.7945535962678
  0
ARC
  8
1
 62
7
 10
159.7994728413307
 20
-2.842170943040401e-014
 30
0
 40
67.49999999999999
 50
222.2054464037323
 51
227.7945535962677
  0
ARC
  8
1
 62
7
 10
159.7994728413307
 20
-2.842170943040401e-014
 30
0
 40
67.5
 50
132.2054464037323
 51
137.7945535962677
  0
ARC
  8
1
 62
7
 10
126.890507497522
 20
18.99999999999996
 30
0
 40
13.50000000000005
 50
63.39449868891461
 51
236.6055013110856
  0
ARC
  8
1
 62
7
 10
159.7994728413307
 20
-38.00000000000003
 30
0
 40
13.50000000000005
 50
183.3944986889147
 51
356.6055013110849
  0
ARC
  8
1
 62
7
 10
192.7084381851394
 20
18.99999999999994
 30
0
 40
13.49999999999995
 50
303.394498688915
 51
116.6055013110854
  0
ARC
  8
1
 62
7
 10
159.7994728413307
 20
-2.842170943040401e-014
 30
0
 40
9.999999999999998
 50
104.4775121859299
 51
75.52248781407008
  0
ARC
  8
1
 62
7
 10
-57.70000000000002
 20
23.49999999999998
 30
0
 40
0.5
 50
0
 51
90
  0
ARC
  8
1
 62
7
 10
-61.40000000000001
 20
24.49999999999998
 30
0
 40
0.5
 50
180
 51
270
  0
ARC
  8
1
 62
7
 10
-57.90000000000001
 20
-48.99696731187264
 30
0
 40
0.5
 50
270
 51
0
  0
ARC
  8
1
 62
7
 10
-61.40000000000001
 20
-49.99696731187264
 30
0
 40
0.5
 50
90
 51
180
  0
ARC
  8
1
 62
7
 10
-62.40000000000001
 20
-50.99992802775823
 30
0
 40
0.5
 50
270
 51
0
  0
ARC
  8
1
 62
7
 10
-69.40000000000001
 20
-50.99992802775823
 30
0
 40
0.5
 50
180
 51
270
  0
ARC
  8
1
 62
7
 10
-70.40000000000001
 20
-49.99696731187264
 30
0
 40
0.5
 50
0
 51
90
  0
ARC
  8
1
 62
7
 10
-73.40000000000001
 20
-48.99696731187264
 30
0
 40
0.5
 50
180
 51
270
  0
ARC
  8
1
 62
7
 10
-74.40000000000001
 20
-24.50000000000003
 30
0
 40
0.5
 50
0
 51
90
  0
ARC
  8
1
 62
7
 10
-74.40000000000001
 20
24.49999999999998
 30
0
 40
0.5
 50
270
 51
0
  0
ARC
  8
1
 62
7
 10
-73.40000000000001
 20
34.46197067551628
 30
0
 40
0.5
 50
90
 51
180
  0
ARC
  8
1
 62
7
 10
-62.40000000000001
 20
34.46197067551628
 30
0
 40
0.5
 50
0
 51
90
  0
ARC
  8
1
 62
7
 10
-95.30000000000001
 20
-47.49999999999993
 30
0
 40
5.999999999999986
 50
180
 51
270
  0
ARC
  8
1
 62
7
 10
-95.30000000000001
 20
47.5
 30
0
 40
6
 50
90
 51
180
  0
ARC
  8
1
 62
7
 10
134.3442121404243
 20
-39.50986842105263
 30
0
 40
11.99999999999997
 50
3.394498688914945
 51
57.20728763602098
  0
ARC
  8
1
 62
7
 10
185.254733542237
 20
-39.50986842105273
 30
0
 40
12.00000000000005
 50
122.7927123639784
 51
176.6055013110851
  0
ARC
  8
1
 62
7
 10
138.3105534389717
 20
41.79983663746688
 30
0
 40
11.99999999999997
 50
243.3944986889152
 51
297.2072876360214
  0
ARC
  8
1
 62
7
 10
112.8552927380654
 20
-2.28996821641428
 30
0
 40
12.00000000000001
 50
2.792712363978856
 51
56.60550131108478
  0
ARC
  8
1
 62
7
 10
206.7436529445961
 20
-2.28996821641428
 30
0
 40
12.00000000000002
 50
123.3944986889151
 51
177.2072876360212
  0
ARC
  8
1
 62
7
 10
181.2883922436897
 20
41.79983663746688
 30
0
 40
12.00000000000006
 50
242.7927123639786
 51
296.6055013110847
  0
ARC
  8
1
 62
7
 10
134.3442121404243
 20
-39.50986842105263
 30
0
 40
11.99999999999997
 50
3.394498688914945
 51
57.20728763602098
  0
ARC
  8
1
 62
7
 10
-61.40000000000001
 20
-24.49939214217977
 30
0
 40
0.5
 50
90
 51
180
  0
ARC
  8
1
 62
7
 10
-61.40000000000001
 20
-25.99114752577989
 30
0
 40
0.5
 50
180
 51
270
  0
ARC
  8
1
 62
7
 10
-57.90000000000001
 20
-26.99114752577989
 30
0
 40
0.5
 50
0
 51
90
  0
ARC
  8
1
 62
7
 10
-57.90000000000001
 20
-23.49939214217977
 30
0
 40
0.5
 50
270
 51
0
  0
CIRCLE
  8
1
 62
7
 10
159.7994728413307
 20
-2.842170943040401e-014
 30
0
 40
53.75
  0
CIRCLE
  8
1
 62
7
 10
159.7994728413307
 20
-38.00000000000003
 30
0
 40
2.5
  0
CIRCLE
  8
1
 62
7
 10
159.7994728413307
 20
-38.00000000000003
 30
0
 40
6
  0
CIRCLE
  8
1
 62
7
 10
159.7994728413307
 20
-38.00000000000003
 30
0
 40
11.5
  0
CIRCLE
  8
1
 62
7
 10
192.7084381851394
 20
18.99999999999994
 30
0
 40
2.5
  0
CIRCLE
  8
1
 62
7
 10
192.7084381851394
 20
18.99999999999994
 30
0
 40
11.5
  0
CIRCLE
  8
1
 62
7
 10
192.7084381851394
 20
18.99999999999994
 30
0
 40
6
  0
CIRCLE
  8
1
 62
7
 10
126.890507497522
 20
18.99999999999996
 30
0
 40
6.000000000000014
  0
CIRCLE
  8
1
 62
7
 10
126.890507497522
 20
18.99999999999996
 30
0
 40
11.50000000000001
  0
CIRCLE
  8
1
 62
7
 10
159.7994728413307
 20
47.49999999999996
 30
0
 40
4.5
  0
CIRCLE
  8
1
 62
7
 10
118.6632661615699
 20
-23.75000000000006
 30
0
 40
4.5
  0
CIRCLE
  8
1
 62
7
 10
200.9356795210915
 20
-23.75000000000007
 30
0
 40
4.5
  0
CIRCLE
  8
1
 62
7
 10
126.890507497522
 20
18.99999999999996
 30
0
 40
2.500000000000014
  0
CIRCLE
  8
1
 62
7
 10
118.6632661615699
 20
-23.75000000000006
 30
0
 40
4.5
  0
CIRCLE
  8
1
 62
7
 10
202.9329864937101
 20
43.13351365237941
 30
0
 40
3.25
  0
CIRCLE
  8
1
 62
7
 10
202.9329864937101
 20
-43.13351365237934
 30
0
 40
3.25
  0
CIRCLE
  8
1
 62
7
 10
116.6659591889513
 20
-43.13351365237934
 30
0
 40
3.25
  0
CIRCLE
  8
1
 62
7
 10
116.6659591889513
 20
43.13351365237941
 30
0
 40
3.25
  0
CIRCLE
  8
1
 62
7
 10
126.890507497522
 20
18.99999999999996
 30
0
 40
8.500000000000014
  0
CIRCLE
  8
1
 62
7
 10
159.7994728413307
 20
-38.00000000000003
 30
0
 40
8.5
  0
CIRCLE
  8
1
 62
7
 10
192.7084381851394
 20
18.99999999999994
 30
0
 40
8.5
  0
CIRCLE
  8
1
 62
7
 10
159.7994728413307
 20
-2.842170943040401e-014
 30
0
 40
24
  0
TEXT
  8
1
 62
7
 10
-105.4421343604228
 20
143.2195117005332
 30
0
 40
4
  1
TMAB 2.5
 41
0.9
  7
SIMPLEX
  0
TEXT
  8
1
 62
7
 10
-105.7998280235161
 20
135.8233497219732
 30
0
 40
4
  1
DC2303
 41
0.9
  7
SIMPLEX
  0
ENDSEC
  0
EOF
