  0
SECTION
  2
HEADER
  9
$ACADVER
  1
AC1009
  9
$INSBASE
 10
0
 20
0
  9
$EXTMIN
 10
-190.112068413332
 20
-105.0000000000001
  9
$EXTMAX
 10
340.2083108454233
 20
207.0973015283753
  9
$LIMMIN
 10
-190.112068413332
 20
-105.0000000000001
  9
$LIMMAX
 10
340.2083108454233
 20
207.0973015283753
  9
$VIEWCTR
 10
10
 20
10
  9
$VIEWSIZE
 40
10
  9
$SNAPMODE
 70
0
  9
$SNAPUNIT
 10
1
 20
1
  9
$SNAPBASE
 10
0
 20
0
  9
$SNAPANG
 50
0
  9
$SNAPSTYLE
 70
0
  9
$SNAPISOPAIR
 70
0
  9
$GRIDMODE
 70
0
  9
$GRIDUNIT
 10
0
 20
0
  9
$ORTHOMODE
 70
0
  9
$REGENMODE
 70
1
  9
$FILLMODE
 70
1
  9
$QTEXTMODE
 70
0
  9
$DRAGMODE
 70
2
  9
$LTSCALE
 40
1
  9
$OSMODE
 70
0
  9
$ATTMODE
 70
1
  9
$TEXTSIZE
 40
3.5
  9
$TRACEWID
 40
0.5
  9
$TEXTSTYLE
  7
STANDARD
  9
$CLAYER
  8
0
  9
$CELTYPE
  6
BYLAYER
  9
$CECOLOR
 62
256
  9
$DIMSCALE
 40
1
  9
$DIMASZ
 40
0.18
  9
$DIMEXO
 40
0.0625
  9
$DIMDLI
 40
0.38
  9
$DIMRND
 40
0
  9
$DIMDLE
 40
0
  9
$DIMEXE
 40
0.18
  9
$DIMTP
 40
0
  9
$DIMTM
 40
0
  9
$DIMTXT
 40
0.18
  9
$DIMCEN
 40
0.09
  9
$DIMTSZ
 40
0
  9
$DIMTOL
 70
0
  9
$DIMLIM
 70
0
  9
$DIMTIH
 70
1
  9
$DIMTOH
 70
1
  9
$DIMSE1
 70
0
  9
$DIMSE2
 70
0
  9
$DIMTAD
 70
0
  9
$DIMZIN
 70
0
  9
$DIMBLK
  1

  9
$DIMASO
 70
1
  9
$DIMSHO
 70
1
  9
$DIMPOST
  1

  9
$DIMAPOST
  1

  9
$DIMALT
 70
0
  9
$DIMALTD
 70
2
  9
$DIMALTF
 40
25.4
  9
$DIMLFAC
 40
1
  9
$DIMTOFL
 70
0
  9
$DIMTVP
 40
0
  9
$DIMTIX
 70
0
  9
$DIMSOXD
 70
0
  9
$DIMSAH
 70
0
  9
$DIMBLK1
  1

  9
$DIMBLK2
  1

  9
$DIMSTYLE
  2
*UNNAMED
  9
$DIMCLRD
 70
0
  9
$DIMCLRE
 70
0
  9
$DIMCLRT
 70
0
  9
$DIMTFAC
 40
1
  9
$DIMGAP
 40
0.09
  9
$LUNITS
 70
2
  9
$LUPREC
 70
4
  9
$AXISMODE
 70
0
  9
$AXISUNIT
 10
0
 20
0
  9
$SKETCHINC
 40
0.1
  9
$FILLETRAD
 40
2
  9
$AUNITS
 70
0
  9
$AUPREC
 70
0
  9
$MENU
  1
ACAD
  9
$ELEVATION
 40
0
  9
$THICKNESS
 40
0
  9
$VIEWDIR
 10
0
 20
0
 30
1
  9
$LIMCHECK
 70
0
  9
$BLIPMODE
 70
1
  9
$CHAMFERA
 40
0
  9
$CHAMFERB
 40
0
  9
$FASTZOOM
 70
1
  9
$SKPOLY
 70
0
  9
$ANGBASE
 50
0
  9
$ANGDIR
 70
0
  9
$PDMODE
 70
0
  9
$PDSIZE
 40
0
  9
$PLINEWID
 40
0
  9
$COORDS
 70
2
  0
ENDSEC
  0
SECTION
  2
TABLES
  0
TABLE
  2
DIMSTYLE
 70
0
  0
ENDTAB
  0
TABLE
  2
LTYPE
 70
9
  0
LTYPE
  2
CONTINUOUS
 70
64
  3
Solid line
 72
65
 73
0
 40
0
  0
LTYPE
  2
BORDER
 70
64
  3
__ __ . __ __ .
 72
65
 73
6
 40
24.4226490448111
 49
6.977899727088886
 49
-3.488949863544443
 49
6.977899727088886
 49
-3.488949863544443
 49
0
 49
-3.488949863544443
  0
LTYPE
  2
CENTER
 70
64
  3
____ _ ____ _
 72
65
 73
4
 40
27.91159890835554
 49
17.44474931772221
 49
-3.488949863544443
 49
3.488949863544443
 49
-3.488949863544443
  0
LTYPE
  2
DASHDOT
 70
64
  3
__ . __ . __ .
 72
65
 73
4
 40
13.95579945417777
 49
6.977899727088886
 49
-3.488949863544443
 49
0
 49
-3.488949863544443
  0
LTYPE
  2
DASHED
 70
64
  3
__ __ __ __ __
 72
65
 73
2
 40
10.46684959063333
 49
6.977899727088886
 49
-3.488949863544443
  0
LTYPE
  2
DIVIDE
 70
64
  3
__ . . __ . . 
 72
65
 73
6
 40
17.44474931772221
 49
6.977899727088886
 49
-3.488949863544443
 49
0
 49
-3.488949863544443
 49
0
 49
-3.488949863544443
  0
LTYPE
  2
DOT
 70
64
  3
..............
 72
65
 73
4
 40
6.977899727088886
 49
0
 49
-3.488949863544443
 49
0
 49
-3.488949863544443
  0
LTYPE
  2
HIDDEN
 70
64
  3
_ _ _ _ _ _ _
 72
65
 73
2
 40
5.233424795316664
 49
3.488949863544443
 49
-1.744474931772222
  0
LTYPE
  2
PHANTOM
 70
64
  3
_____ _ _ _____ _ _ 
 72
65
 73
6
 40
34.88949863544443
 49
17.44474931772221
 49
-3.488949863544443
 49
3.488949863544443
 49
-3.488949863544443
 49
3.488949863544443
 49
-3.488949863544443
  0
ENDTAB
  0
TABLE
  2
LAYER
 70
3
  0
LAYER
  2
1
 70
0
 62
7
  6
CONTINUOUS
  0
LAYER
  2
0
 70
0
 62
7
  6
CONTINUOUS
  0
ENDTAB
  0
TABLE
  2
STYLE
 70
4
  0
STYLE
  2
STANDARD
 70
0
 40
0
 41
1
 50
0
 71
0
 42
3.5
  3
txt
  4

  0
STYLE
  2
SIMPLEX
 70
0
 40
0
 41
1
 50
0
 71
0
 42
3.5
  3
simplex
  4

  0
STYLE
  2
COMPLEX
 70
0
 40
0
 41
1
 50
0
 71
0
 42
3.5
  3
complex
  4

  0
STYLE
  2
ITALIC
 70
0
 40
0
 41
1
 50
0
 71
0
 42
3.5
  3
italic
  4

  0
ENDTAB
  0
TABLE
  2
VIEW
 70
0
  0
ENDTAB
  0
ENDSEC
  0
SECTION
  2
BLOCKS
  0
ENDSEC
  0
SECTION
  2
ENTITIES
  0
LINE
  8
1
 62
7
 10
27.59999999999999
 20
84.75
 30
0
 11
27.59999999999999
 21
30.00000000000011
 31
0
  0
LINE
  8
1
 62
7
 10
35.99999999999999
 20
-83.99999999999992
 30
0
 11
35.99999999999999
 21
-36
 31
0
  0
LINE
  8
1
 62
7
 10
34.8
 20
-49.5
 30
0
 11
35.99999999999999
 21
-49.5
 31
0
  0
LINE
  8
1
 62
7
 10
34.8
 20
-73.32981656940049
 30
0
 11
35.99999999999999
 21
-73.32981656940049
 31
0
  0
LINE
  8
1
 62
7
 10
34.8
 20
-83.99999999999992
 30
0
 11
35.99999999999999
 21
-83.99999999999992
 31
0
  0
LINE
  8
1
 62
7
 10
34.8
 20
-41.5
 30
0
 11
27.59999999999999
 21
-41.5
 31
0
  0
LINE
  8
1
 62
7
 10
33.8
 20
-84.75
 30
0
 11
27.59999999999999
 21
-84.75
 31
0
  0
LINE
  8
1
 62
7
 10
33.8
 20
67
 30
0
 11
34.99999999999999
 21
67
 31
0
  0
LINE
  8
1
 62
7
 10
38.8
 20
82
 30
0
 11
38.3
 21
82.5
 31
0
  0
LINE
  8
1
 62
7
 10
38.3
 20
68.5
 30
0
 11
38.8
 21
69
 31
0
  0
LINE
  8
1
 62
7
 10
35.99999999999999
 20
82.5
 30
0
 11
35.99999999999999
 21
68.5
 31
0
  0
LINE
  8
1
 62
7
 10
34.99999999999999
 20
68.5
 30
0
 11
38.3
 21
68.5
 31
0
  0
LINE
  8
1
 62
7
 10
38.8
 20
69
 30
0
 11
38.8
 21
82
 31
0
  0
LINE
  8
1
 62
7
 10
34.99999999999999
 20
82.5
 30
0
 11
38.3
 21
82.5
 31
0
  0
LINE
  8
1
 62
7
 10
33.8
 20
84.75
 30
0
 11
33.8
 21
60
 31
0
  0
LINE
  8
1
 62
7
 10
33.8
 20
63.7320508075689
 30
0
 11
34.8
 21
60
 31
0
  0
LINE
  8
1
 62
7
 10
35.99999999999999
 20
60.15798299710502
 30
0
 11
35.99999999999999
 21
37.00000000000011
 31
0
  0
LINE
  8
1
 62
7
 10
34.99999999999999
 20
63.89003380467392
 30
0
 11
35.99999999999999
 21
60.15798299710502
 31
0
  0
LINE
  8
1
 62
7
 10
34.99999999999999
 20
84
 30
0
 11
34.99999999999999
 21
63.89003380467392
 31
0
  0
LINE
  8
1
 62
7
 10
33.8
 20
84
 30
0
 11
34.99999999999999
 21
84
 31
0
  0
LINE
  8
1
 62
7
 10
34.8
 20
60
 30
0
 11
34.8
 21
37.00000000000011
 31
0
  0
LINE
  8
1
 62
7
 10
33.8
 20
60
 30
0
 11
34.8
 21
60
 31
0
  0
LINE
  8
1
 62
7
 10
27.59999999999999
 20
84.75
 30
0
 11
33.8
 21
84.75
 31
0
  0
LINE
  8
1
 62
7
 10
27.59999999999999
 20
41.50000000000011
 30
0
 11
34.8
 21
41.50000000000011
 31
0
  0
LINE
  8
1
 62
3
  6
DASHDOT
 10
-5
 20
0
 30
0
 11
0
 21
0
 31
0
  0
LINE
  8
1
 62
7
 10
27.10000000000001
 20
84.5
 30
0
 11
8.999999999999986
 21
84.5
 31
0
  0
LINE
  8
1
 62
7
 10
8.999999999999986
 20
-42
 30
0
 11
27.10000000000001
 21
-42
 31
0
  0
LINE
  8
1
 62
7
 10
8.999999999999986
 20
-84.50000000000011
 30
0
 11
27.10000000000001
 21
-84.50000000000011
 31
0
  0
LINE
  8
1
 62
7
 10
27.10000000000001
 20
42
 30
0
 11
8.999999999999986
 21
42
 31
0
  0
LINE
  8
1
 62
7
 10
27.10000000000001
 20
84.5
 30
0
 11
27.10000000000001
 21
30.00000000000011
 31
0
  0
LINE
  8
1
 62
7
 10
0
 20
78
 30
0
 11
2.699999999999889
 21
78
 31
0
  0
LINE
  8
1
 62
7
 10
0
 20
-105.0000000000001
 30
0
 11
2.699999999999889
 21
-105.0000000000001
 31
0
  0
LINE
  8
1
 62
7
 10
0
 20
-99.25000000000011
 30
0
 11
2.699999999999889
 21
-99.25000000000011
 31
0
  0
LINE
  8
1
 62
3
  6
DASHDOT
 10
-3
 20
-95.00000000000011
 30
0
 11
5.699999999999889
 21
-95.00000000000011
 31
0
  0
LINE
  8
1
 62
7
 10
0
 20
-90.75000000000011
 30
0
 11
2.699999999999889
 21
-90.75000000000011
 31
0
  0
LINE
  8
1
 62
7
 10
11.7590369380806
 20
144.3346622894047
 30
0
 11
11.7590369380806
 21
140.4999999999999
 31
0
  0
LINE
  8
1
 62
7
 10
12.89557497239291
 20
144.3774941346941
 30
0
 11
12.89557497239291
 21
140.4999999999999
 31
0
  0
LINE
  8
1
 62
7
 10
11.12429819099781
 20
140.4999999999999
 30
0
 11
13.52429819099778
 21
140.4999999999999
 31
0
  0
LINE
  8
1
 62
7
 10
13.52429819099778
 20
140.4999999999999
 30
0
 11
13.52429819099778
 21
84.5
 31
0
  0
LINE
  8
1
 62
7
 10
11.12429819099781
 20
140.4999999999999
 30
0
 11
11.12429819099781
 21
84.5
 31
0
  0
LINE
  8
1
 62
7
 10
34.8
 20
-83.99999999999992
 30
0
 11
34.8
 21
-36
 31
0
  0
LINE
  8
1
 62
7
 10
0
 20
78
 30
0
 11
0
 21
-105.0000000000001
 31
0
  0
LINE
  8
1
 62
7
 10
2.699999999999889
 20
-105.0000000000001
 30
0
 11
2.699999999999889
 21
81.43051721424837
 31
0
  0
LINE
  8
1
 62
7
 10
0
 20
40
 30
0
 11
2.699999999999889
 21
40
 31
0
  0
LINE
  8
1
 62
7
 10
0
 20
-40
 30
0
 11
2.699999999999889
 21
-40
 31
0
  0
LINE
  8
1
 62
7
 10
20.99999999999999
 20
-14.99999999999991
 30
0
 11
60.99999999999999
 21
-14.99999999999991
 31
0
  0
LINE
  8
1
 62
7
 10
60.99999999999999
 20
14.99999999999989
 30
0
 11
20.99999999999999
 21
14.99999999999989
 31
0
  0
LINE
  8
1
 62
7
 10
20.99999999999999
 20
18.00000000000011
 30
0
 11
60.99999999999999
 21
18.00000000000011
 31
0
  0
LINE
  8
1
 62
7
 10
20.99999999999999
 20
-30
 30
0
 11
20.99999999999999
 21
30.00000000000011
 31
0
  0
LINE
  8
1
 62
7
 10
20.99999999999999
 20
30.00000000000011
 30
0
 11
28.99999999999999
 21
30.00000000000011
 31
0
  0
LINE
  8
1
 62
7
 10
20.99999999999999
 20
-30
 30
0
 11
28.99999999999999
 21
-30
 31
0
  0
LINE
  8
1
 62
7
 10
29.99999999999999
 20
31.00000000000011
 30
0
 11
29.99999999999999
 21
35.00000000000011
 31
0
  0
LINE
  8
1
 62
7
 10
29.99999999999999
 20
-31
 30
0
 11
29.99999999999999
 21
-35
 31
0
  0
LINE
  8
1
 62
7
 10
30.99999999999999
 20
36.00000000000011
 30
0
 11
35.3
 21
36.00000000000011
 31
0
  0
LINE
  8
1
 62
7
 10
30.99999999999999
 20
-36
 30
0
 11
36.3
 21
-36
 31
0
  0
LINE
  8
1
 62
7
 10
53.8
 20
-45.24999999999991
 30
0
 11
59.8
 21
-45.24999999999991
 31
0
  0
LINE
  8
1
 62
7
 10
60.8
 20
-46.24999999999991
 30
0
 11
60.8
 21
-73.74999999999992
 31
0
  0
LINE
  8
1
 62
7
 10
59.8
 20
-74.74999999999992
 30
0
 11
53.8
 21
-74.74999999999992
 31
0
  0
LINE
  8
1
 62
7
 10
52.8
 20
-75.74999999999992
 30
0
 11
52.8
 21
-76.99999999999992
 31
0
  0
LINE
  8
1
 62
7
 10
51.8
 20
-77.99999999999992
 30
0
 11
43.3
 21
-77.99999999999992
 31
0
  0
LINE
  8
1
 62
7
 10
42.3
 20
-76.99999999999992
 30
0
 11
42.3
 21
-75.74999999999992
 31
0
  0
LINE
  8
1
 62
7
 10
41.3
 20
-74.74999999999992
 30
0
 11
38.3
 21
-74.74999999999992
 31
0
  0
LINE
  8
1
 62
7
 10
37.3
 20
-73.74999999999992
 30
0
 11
37.3
 21
-37
 31
0
  0
LINE
  8
1
 62
7
 10
35.99999999999999
 20
-52
 30
0
 11
37.3
 21
-52
 31
0
  0
LINE
  8
1
 62
7
 10
35.99999999999999
 20
-67.99999999999992
 30
0
 11
37.3
 21
-67.99999999999992
 31
0
  0
LINE
  8
1
 62
7
 10
27.10000000000001
 20
-30
 30
0
 11
27.10000000000001
 21
-84.50000000000011
 31
0
  0
LINE
  8
1
 62
7
 10
27.59999999999999
 20
-84.75
 30
0
 11
27.59999999999999
 21
-30
 31
0
  0
LINE
  8
1
 62
7
 10
59.99999999999999
 20
-36
 30
0
 11
53.8
 21
-36
 31
0
  0
LINE
  8
1
 62
7
 10
52.8
 20
-37
 30
0
 11
52.8
 21
-44.24999999999991
 31
0
  0
LINE
  8
1
 62
7
 10
60.99999999999999
 20
-35
 30
0
 11
60.99999999999999
 21
35.00000000000011
 31
0
  0
LINE
  8
1
 62
7
 10
59.99999999999999
 20
36.00000000000011
 30
0
 11
53.8
 21
36.00000000000011
 31
0
  0
LINE
  8
1
 62
7
 10
52.8
 20
37.00000000000011
 30
0
 11
52.8
 21
51.50000000000011
 31
0
  0
LINE
  8
1
 62
7
 10
51.8
 20
52.50000000000011
 30
0
 11
37.3
 21
52.50000000000011
 31
0
  0
LINE
  8
1
 62
7
 10
36.3
 20
51.50000000000011
 30
0
 11
36.3
 21
37.00000000000011
 31
0
  0
LINE
  8
1
 62
3
 10
48.49999999999999
 20
31.00000000000011
 30
0
 11
48.49999999999999
 21
18.00000000000011
 31
0
  0
LINE
  8
1
 62
3
 10
40.49999999999999
 20
18.00000000000011
 30
0
 11
40.49999999999999
 21
31.00000000000011
 31
0
  0
LINE
  8
1
 62
7
 10
47.7
 20
31.00000000000011
 30
0
 11
47.7
 21
18.00000000000011
 31
0
  0
LINE
  8
1
 62
7
 10
41.3
 20
18.00000000000011
 30
0
 11
41.3
 21
31.00000000000011
 31
0
  0
LINE
  8
1
 62
7
 10
49.49999999999999
 20
52.50000000000011
 30
0
 11
49.49999999999999
 21
31.00000000000011
 31
0
  0
LINE
  8
1
 62
7
 10
39.49999999999999
 20
31.00000000000011
 30
0
 11
39.49999999999999
 21
52.50000000000011
 31
0
  0
LINE
  8
1
 62
7
 10
39.49999999999999
 20
31.00000000000011
 30
0
 11
49.49999999999999
 21
31.00000000000011
 31
0
  0
LINE
  8
1
 62
3
  6
DASHDOT
 10
44.49999999999999
 20
15.00000000000011
 30
0
 11
44.49999999999999
 21
55.01485431333401
 31
0
  0
LINE
  8
1
 62
3
  6
DASHDOT
 10
60.99999999999999
 20
0
 30
0
 11
66
 21
0
 31
0
  0
LINE
  8
1
 62
7
 10
33.8
 20
-60
 30
0
 11
33.8
 21
-84.75
 31
0
  0
LINE
  8
1
 62
7
 10
34.8
 20
-60
 30
0
 11
33.8
 21
-60
 31
0
  0
LINE
  8
1
 62
7
  6
DASHED
 10
241.1669752183114
 20
-4.556064748578706
 30
0
 11
227.0115233281058
 21
-12.72871870788981
 31
0
  0
LINE
  8
1
 62
3
  6
DASHED
 10
226.6115233281057
 20
-12.03589838486221
 30
0
 11
240.9383268198744
 21
-3.764314532262716
 31
0
  0
LINE
  8
1
 62
7
  6
DASHED
 10
226.1115233281057
 20
-11.16987298107782
 30
0
 11
231.1115233281057
 21
-19.83012701892221
 31
0
  0
LINE
  8
1
 62
3
  6
DASHED
 10
230.6115233281057
 20
-18.96410161513771
 30
0
 11
244.9383268198744
 21
-10.69251776253822
 31
0
  0
LINE
  8
1
 62
7
  6
DASHED
 10
230.2115233281057
 20
-18.27128129211022
 30
0
 11
244.3669752183115
 21
-10.09862733279911
 31
0
  0
LINE
  8
1
 62
3
  6
DASHDOT
 10
207.393900935387
 20
-27.74999999999982
 30
0
 11
245.06600600001
 21
-5.999999999999995
 31
0
  0
LINE
  8
1
 62
7
  6
DASHED
 10
207.6986433698441
 20
-21.8005541815364
 30
0
 11
226.1115233281057
 21
-11.16987298107782
 31
0
  0
LINE
  8
1
 62
7
  6
DASHED
 10
231.1115233281057
 20
-19.83012701892221
 30
0
 11
212.6986433698441
 21
-30.46080821938079
 31
0
  0
LINE
  8
1
 62
3
  6
DASHED
 10
251.9583108454234
 20
17.13397459621558
 30
0
 11
251.4583108454233
 21
18.00000000000011
 31
0
  0
LINE
  8
1
 62
3
  6
DASHED
 10
251.4583108454233
 20
18.00000000000011
 30
0
 11
251.9583108454233
 21
18.00000000000011
 31
0
  0
LINE
  8
1
 62
3
  6
DASHED
 10
251.9583108454234
 20
17.13397459621558
 30
0
 11
251.4583108454233
 21
18.00000000000011
 31
0
  0
LINE
  8
1
 62
3
  6
DASHED
 10
251.9583108454234
 20
17.13397459621558
 30
0
 11
251.4583108454233
 21
18.00000000000011
 31
0
  0
LINE
  8
1
 62
3
  6
DASHED
 10
251.4583108454233
 20
18.00000000000011
 30
0
 11
251.9583108454233
 21
18.00000000000011
 31
0
  0
LINE
  8
1
 62
3
  6
DASHED
 10
251.4583108454233
 20
18.00000000000011
 30
0
 11
251.4583108454233
 21
31.00000000000011
 31
0
  0
LINE
  8
1
 62
3
  6
DASHED
 10
259.4583108454233
 20
18.00000000000011
 30
0
 11
258.9583108454233
 21
17.13397459621558
 31
0
  0
LINE
  8
1
 62
7
  6
DASHED
 10
260.4583108454233
 20
52.26136240091728
 30
0
 11
260.4583108454233
 21
31.00000000000011
 31
0
  0
LINE
  8
1
 62
7
 10
258.9583108454233
 20
18.00000000000011
 30
0
 11
251.4583108454233
 21
18.00000000000011
 31
0
  0
LINE
  8
1
 62
3
  6
DASHED
 10
258.9583108454233
 20
18.00000000000011
 30
0
 11
259.4583108454233
 21
18.00000000000011
 31
0
  0
LINE
  8
1
 62
7
  6
DASHED
 10
250.4583108454233
 20
31.00000000000011
 30
0
 11
260.4583108454233
 21
31.00000000000011
 31
0
  0
LINE
  8
1
 62
3
  6
DASHDOT
 10
255.4583108454233
 20
15.00000000000011
 30
0
 11
255.4583108454233
 21
55.50000000000012
 31
0
  0
LINE
  8
1
 62
7
  6
DASHED
 10
250.4583108454233
 20
31.00000000000011
 30
0
 11
250.4583108454233
 21
52.26136240091728
 31
0
  0
LINE
  8
1
 62
3
  6
DASHED
 10
259.4583108454233
 20
31.00000000000011
 30
0
 11
259.4583108454233
 21
18.00000000000011
 31
0
  0
LINE
  8
1
 62
7
  6
DASHED
 10
258.6583108454233
 20
31.00000000000011
 30
0
 11
258.6583108454233
 21
18.00000000000011
 31
0
  0
LINE
  8
1
 62
7
  6
DASHED
 10
252.2583108454233
 20
18.00000000000011
 30
0
 11
252.2583108454233
 21
31.00000000000011
 31
0
  0
LINE
  8
1
 62
7
 10
253.9583108454233
 20
-56.29190075645209
 30
0
 11
253.9583108454233
 21
-52.1418831772491
 31
0
  0
LINE
  8
1
 62
7
 10
185.1660637622634
 20
78.00000000000011
 30
0
 11
222.3137411544469
 21
78.00000000000011
 31
0
  0
LINE
  8
1
 62
7
 10
288.6028805363998
 20
78.00000000000011
 30
0
 11
325.7505579285832
 21
78.00000000000011
 31
0
  0
LINE
  8
1
 62
7
 10
333.4583108454233
 20
70.29224708316002
 30
0
 11
333.4583108454233
 21
33.14456969097669
 31
0
  0
LINE
  8
1
 62
7
 10
333.4583108454233
 20
-33.14456969097651
 30
0
 11
333.4583108454233
 21
-70.29224708315971
 31
0
  0
LINE
  8
1
 62
7
 10
288.6028805363998
 20
-77.99999999999992
 30
0
 11
325.7505579285832
 21
-77.99999999999992
 31
0
  0
LINE
  8
1
 62
7
 10
185.1660637622634
 20
-77.99999999999992
 30
0
 11
222.3137411544468
 21
-77.99999999999992
 31
0
  0
LINE
  8
1
 62
7
 10
177.4583108454233
 20
-33.14456969097645
 30
0
 11
177.4583108454233
 21
-70.29224708315971
 31
0
  0
LINE
  8
1
 62
7
 10
177.4583108454233
 20
70.29224708316002
 30
0
 11
177.4583108454233
 21
33.14456969097661
 31
0
  0
LINE
  8
1
 62
7
 10
252.9583108454233
 20
137.4465220827083
 30
0
 11
257.9583108454233
 21
137.4465220827083
 31
0
  0
LINE
  8
1
 62
7
 10
257.9583108454233
 20
137.4465220827083
 30
0
 11
257.9583108454233
 21
84.71311881875212
 31
0
  0
LINE
  8
1
 62
7
 10
252.9583108454233
 20
137.4465220827083
 30
0
 11
252.9583108454233
 21
84.71311881875212
 31
0
  0
LINE
  8
1
 62
7
 10
255.4583108454233
 20
137.4465220827083
 30
0
 11
255.4583108454233
 21
84.75000000000007
 31
0
  0
LINE
  8
1
 62
7
 10
256.9583108454232
 20
-52.1418831772491
 30
0
 11
256.9583108454232
 21
-56.29190075645209
 31
0
  0
LINE
  8
1
 62
7
 10
256.9583108454232
 20
-63.70809924354779
 30
0
 11
256.9583108454232
 21
-67.85811682275082
 31
0
  0
LINE
  8
1
 62
7
 10
253.9583108454232
 20
-63.70809924354779
 30
0
 11
253.9583108454232
 21
-67.85811682275082
 31
0
  0
LINE
  8
1
 62
7
 10
199.5354784736907
 20
30.55501151609741
 30
0
 11
195.9414578239489
 21
32.63002030569891
 31
0
  0
LINE
  8
1
 62
7
 10
201.0354784736907
 20
33.15308772745067
 30
0
 11
197.4414578239489
 21
35.22809651705222
 31
0
  0
LINE
  8
1
 62
7
 10
211.0521154127651
 20
27.36997969430132
 30
0
 11
207.4580947630232
 21
29.44498848390282
 31
0
  0
LINE
  8
1
 62
7
 10
209.5521154127651
 20
24.77190348294801
 30
0
 11
205.9580947630232
 21
26.84691227254962
 31
0
  0
LINE
  8
1
 62
7
 10
311.3811432171559
 20
30.5550115160973
 30
0
 11
314.9751638668977
 21
32.63002030569879
 31
0
  0
LINE
  8
1
 62
7
 10
301.3645062780815
 20
24.77190348294801
 30
0
 11
304.9585269278233
 21
26.8469122725495
 31
0
  0
LINE
  8
1
 62
7
 10
309.8811432171559
 20
33.15308772745061
 30
0
 11
313.4751638668977
 21
35.22809651705222
 31
0
  0
LINE
  8
1
 62
7
 10
299.8645062780815
 20
27.36997969430132
 30
0
 11
303.4585269278233
 21
29.44498848390282
 31
0
  0
LINE
  8
1
 62
7
 10
258.9583108454233
 20
18.00000000000011
 30
0
 11
258.9583108454233
 21
14.58595214581487
 31
0
  0
LINE
  8
1
 62
7
 10
251.9583108454233
 20
14.58595214581487
 30
0
 11
251.9583108454233
 21
18.00000000000011
 31
0
  0
LINE
  8
1
 62
7
 10
253.7497350995338
 20
141.4465220827083
 30
0
 11
253.7497350995338
 21
137.4465220827083
 31
0
  0
LINE
  8
1
 62
7
 10
254.6641451919954
 20
141.4465220827083
 30
0
 11
254.6641451919954
 21
137.4465220827083
 31
0
  0
LINE
  8
1
 62
7
 10
256.3913642555339
 20
141.4465220827083
 30
0
 11
256.3913642555339
 21
137.4465220827083
 31
0
  0
LINE
  8
1
 62
7
 10
257.2041732266108
 20
141.4465220827083
 30
0
 11
257.2041732266108
 21
137.4465220827083
 31
0
  0
LINE
  8
1
 62
3
  6
DASHDOT
 10
260.4583108454233
 20
0.006677190475983252
 30
0
 11
250.4583108454233
 21
0.006677190475983252
 31
0
  0
LINE
  8
1
 62
3
  6
DASHDOT
 10
255.4583108454233
 20
-4.993322809524017
 30
0
 11
255.4583108454233
 21
5.006677190475983
 31
0
  0
LINE
  8
1
 62
3
  6
DASHDOT
 10
327.756640543546
 20
72.30500688859866
 30
0
 11
317.503592216341
 21
62.0519585613937
 31
0
  0
LINE
  8
1
 62
3
  6
DASHDOT
 10
183.1599811473006
 20
72.30500688859871
 30
0
 11
193.4130294745056
 21
62.05195856139369
 31
0
  0
LINE
  8
1
 62
3
  6
DASHDOT
 10
183.1599811473006
 20
-72.2916525076467
 30
0
 11
193.4130294745056
 21
-62.03860418044176
 31
0
  0
LINE
  8
1
 62
3
  6
DASHDOT
 10
327.756640543546
 20
-72.29165250764675
 30
0
 11
317.503592216341
 21
-62.03860418044172
 31
0
  0
LINE
  8
1
 62
7
 10
-148.812068413332
 20
-36
 30
0
 11
-149.112068413332
 21
-36
 31
0
  0
LINE
  8
1
 62
7
 10
-148.812068413332
 20
52.00000000000011
 30
0
 11
-148.812068413332
 21
37.00000000000011
 31
0
  0
LINE
  8
1
 62
7
 10
-150.312068413332
 20
-83.99999999999992
 30
0
 11
-149.112068413332
 21
-83.99999999999992
 31
0
  0
LINE
  8
1
 62
7
 10
-151.312068413332
 20
-84.74999999999999
 30
0
 11
-157.512068413332
 21
-84.74999999999999
 31
0
  0
LINE
  8
1
 62
7
 10
-146.312068413332
 20
82
 30
0
 11
-146.812068413332
 21
82.5
 31
0
  0
LINE
  8
1
 62
7
 10
-146.812068413332
 20
68.5
 30
0
 11
-146.312068413332
 21
69
 31
0
  0
LINE
  8
1
 62
7
 10
-149.112068413332
 20
82.5
 30
0
 11
-149.112068413332
 21
68.5
 31
0
  0
LINE
  8
1
 62
7
 10
-150.112068413332
 20
68.5
 30
0
 11
-146.812068413332
 21
68.5
 31
0
  0
LINE
  8
1
 62
7
 10
-146.312068413332
 20
69
 30
0
 11
-146.312068413332
 21
82
 31
0
  0
LINE
  8
1
 62
7
 10
-150.112068413332
 20
82.5
 30
0
 11
-146.812068413332
 21
82.5
 31
0
  0
LINE
  8
1
 62
7
 10
-151.312068413332
 20
63.7320508075689
 30
0
 11
-150.312068413332
 21
60
 31
0
  0
LINE
  8
1
 62
7
 10
-149.112068413332
 20
60.15798299710502
 30
0
 11
-149.112068413332
 21
-83.99999999999992
 31
0
  0
LINE
  8
1
 62
7
 10
-150.112068413332
 20
63.89003380467392
 30
0
 11
-149.112068413332
 21
60.15798299710502
 31
0
  0
LINE
  8
1
 62
7
 10
-150.112068413332
 20
84
 30
0
 11
-150.112068413332
 21
63.89003380467392
 31
0
  0
LINE
  8
1
 62
7
 10
-151.312068413332
 20
84
 30
0
 11
-150.112068413332
 21
84
 31
0
  0
LINE
  8
1
 62
7
 10
-151.312068413332
 20
84.75
 30
0
 11
-151.312068413332
 21
-84.74999999999999
 31
0
  0
LINE
  8
1
 62
7
 10
-157.512068413332
 20
84.75
 30
0
 11
-151.312068413332
 21
84.75
 31
0
  0
LINE
  8
1
 62
7
 10
-157.512068413332
 20
84.75
 30
0
 11
-157.512068413332
 21
-84.74999999999999
 31
0
  0
LINE
  8
1
 62
3
  6
DASHDOT
 10
-190.112068413332
 20
0
 30
0
 11
-185.112068413332
 21
0
 31
0
  0
LINE
  8
1
 62
7
 10
-176.112068413332
 20
-84.50000000000011
 30
0
 11
-158.012068413332
 21
-84.50000000000011
 31
0
  0
LINE
  8
1
 62
7
 10
-158.012068413332
 20
84.5
 30
0
 11
-176.112068413332
 21
84.5
 31
0
  0
LINE
  8
1
 62
7
 10
-158.012068413332
 20
84.5
 30
0
 11
-158.012068413332
 21
-84.50000000000011
 31
0
  0
LINE
  8
1
 62
7
 10
-185.112068413332
 20
78
 30
0
 11
-182.4120684133321
 21
78
 31
0
  0
LINE
  8
1
 62
7
 10
-185.112068413332
 20
-105.0000000000001
 30
0
 11
-182.4120684133321
 21
-105.0000000000001
 31
0
  0
LINE
  8
1
 62
3
  6
DASHDOT
 10
-188.112068413332
 20
-95.00000000000011
 30
0
 11
-179.4120684133321
 21
-95.00000000000011
 31
0
  0
LINE
  8
1
 62
7
 10
-173.3530314752514
 20
144.3346622894047
 30
0
 11
-173.3530314752514
 21
140.4999999999999
 31
0
  0
LINE
  8
1
 62
7
 10
-172.2164934409391
 20
144.3774941346941
 30
0
 11
-172.2164934409391
 21
140.4999999999999
 31
0
  0
LINE
  8
1
 62
7
 10
-173.9877702223342
 20
140.4999999999999
 30
0
 11
-171.5877702223342
 21
140.4999999999999
 31
0
  0
LINE
  8
1
 62
7
 10
-171.5877702223342
 20
140.4999999999999
 30
0
 11
-171.5877702223342
 21
84.5
 31
0
  0
LINE
  8
1
 62
7
 10
-173.9877702223342
 20
140.4999999999999
 30
0
 11
-173.9877702223342
 21
84.5
 31
0
  0
LINE
  8
1
 62
7
 10
-150.312068413332
 20
60
 30
0
 11
-150.312068413332
 21
-83.99999999999992
 31
0
  0
LINE
  8
1
 62
7
 10
-185.112068413332
 20
78
 30
0
 11
-185.112068413332
 21
-105.0000000000001
 31
0
  0
LINE
  8
1
 62
7
 10
-182.4120684133321
 20
-105.0000000000001
 30
0
 11
-182.4120684133321
 21
81.43051721424837
 31
0
  0
LINE
  8
1
 62
7
 10
-150.312068413332
 20
-49.5
 30
0
 11
-149.112068413332
 21
-49.5
 31
0
  0
LINE
  8
1
 62
7
 10
-150.312068413332
 20
-73.32981656940049
 30
0
 11
-149.112068413332
 21
-73.32981656940049
 31
0
  0
LINE
  8
1
 62
7
 10
-131.312068413332
 20
-45.24999999999991
 30
0
 11
-125.312068413332
 21
-45.24999999999991
 31
0
  0
LINE
  8
1
 62
7
 10
-124.312068413332
 20
-46.24999999999991
 30
0
 11
-124.312068413332
 21
-73.74999999999992
 31
0
  0
LINE
  8
1
 62
7
 10
-125.312068413332
 20
-74.74999999999992
 30
0
 11
-131.312068413332
 21
-74.74999999999992
 31
0
  0
LINE
  8
1
 62
7
 10
-133.312068413332
 20
-77.99999999999992
 30
0
 11
-141.812068413332
 21
-77.99999999999992
 31
0
  0
LINE
  8
1
 62
7
 10
-143.812068413332
 20
-74.74999999999992
 30
0
 11
-146.812068413332
 21
-74.74999999999992
 31
0
  0
LINE
  8
1
 62
7
 10
-147.812068413332
 20
-73.74999999999992
 30
0
 11
-147.812068413332
 21
-37
 31
0
  0
LINE
  8
1
 62
7
 10
-149.112068413332
 20
-52
 30
0
 11
-147.812068413332
 21
-52
 31
0
  0
LINE
  8
1
 62
7
 10
-149.112068413332
 20
-67.99999999999992
 30
0
 11
-147.812068413332
 21
-67.99999999999992
 31
0
  0
LINE
  8
1
 62
7
 10
-125.112068413332
 20
-36
 30
0
 11
-131.312068413332
 21
-36
 31
0
  0
LINE
  8
1
 62
7
 10
-124.112068413332
 20
-35
 30
0
 11
-124.112068413332
 21
35.00000000000011
 31
0
  0
LINE
  8
1
 62
7
 10
-125.112068413332
 20
36.00000000000011
 30
0
 11
-131.312068413332
 21
36.00000000000011
 31
0
  0
LINE
  8
1
 62
7
 10
-133.312068413332
 20
52.50000000000011
 30
0
 11
-148.312068413332
 21
52.50000000000011
 31
0
  0
LINE
  8
1
 62
3
  6
DASHDOT
 10
-124.112068413332
 20
0
 30
0
 11
-119.112068413332
 21
0
 31
0
  0
LINE
  8
1
 62
7
 10
-150.312068413332
 20
-60
 30
0
 11
-151.312068413332
 21
-60
 31
0
  0
LINE
  8
1
 62
7
 10
-132.312068413332
 20
51.50000000000011
 30
0
 11
-132.312068413332
 21
-76.99999999999992
 31
0
  0
LINE
  8
1
 62
7
 10
-142.812068413332
 20
-76.99999999999992
 30
0
 11
-142.812068413332
 21
-75.74999999999992
 31
0
  0
LINE
  8
1
 62
7
 10
-150.312068413332
 20
60
 30
0
 11
-151.312068413332
 21
60
 31
0
  0
ARC
  8
1
 62
7
 10
8.999999999999986
 20
-50
 30
0
 40
8
 50
90
 51
141.9524925463808
  0
ARC
  8
1
 62
7
 10
8.999999999999986
 20
-76.50000000000011
 30
0
 40
7.99999999999999
 50
218.0475074536187
 51
270
  0
ARC
  8
1
 62
7
 10
8.999999999999986
 20
76.5
 30
0
 40
8
 50
90
 51
141.9524925463809
  0
ARC
  8
1
 62
7
 10
8.999999999999986
 20
50
 30
0
 40
8.000000000000076
 50
218.0475074536194
 51
270
  0
ARC
  8
1
 62
7
 10
59.99999999999999
 20
35.00000000000011
 30
0
 40
1
 50
0
 51
90
  0
ARC
  8
1
 62
7
 10
51.8
 20
51.50000000000011
 30
0
 40
1
 50
0
 51
90
  0
ARC
  8
1
 62
7
 10
37.3
 20
51.50000000000011
 30
0
 40
1
 50
90
 51
180
  0
ARC
  8
1
 62
7
 10
30.99999999999999
 20
35.00000000000011
 30
0
 40
1
 50
90
 51
180
  0
ARC
  8
1
 62
7
 10
59.99999999999999
 20
-35
 30
0
 40
1
 50
270
 51
0
  0
ARC
  8
1
 62
7
 10
59.8
 20
-46.24999999999991
 30
0
 40
1
 50
0
 51
90
  0
ARC
  8
1
 62
7
 10
59.8
 20
-73.74999999999992
 30
0
 40
1
 50
270
 51
0
  0
ARC
  8
1
 62
7
 10
51.8
 20
-76.99999999999992
 30
0
 40
1
 50
270
 51
0
  0
ARC
  8
1
 62
7
 10
43.3
 20
-76.99999999999992
 30
0
 40
1
 50
180
 51
270
  0
ARC
  8
1
 62
7
 10
38.3
 20
-73.74999999999992
 30
0
 40
1
 50
180
 51
270
  0
ARC
  8
1
 62
7
 10
30.99999999999999
 20
-35
 30
0
 40
1
 50
180
 51
270
  0
ARC
  8
1
 62
7
 10
53.8
 20
-37
 30
0
 40
1
 50
90
 51
180
  0
ARC
  8
1
 62
7
 10
53.8
 20
-44.24999999999991
 30
0
 40
1
 50
180
 51
270
  0
ARC
  8
1
 62
7
 10
53.8
 20
-75.74999999999992
 30
0
 40
1
 50
90
 51
180
  0
ARC
  8
1
 62
7
 10
41.3
 20
-75.74999999999992
 30
0
 40
1
 50
0
 51
90
  0
ARC
  8
1
 62
7
 10
36.3
 20
-37
 30
0
 40
1
 50
0
 51
90
  0
ARC
  8
1
 62
7
 10
35.3
 20
37.00000000000011
 30
0
 40
1
 50
270
 51
0
  0
ARC
  8
1
 62
7
 10
53.8
 20
37.00000000000011
 30
0
 40
1
 50
180
 51
270
  0
ARC
  8
1
 62
7
 10
28.99999999999999
 20
-31
 30
0
 40
1
 50
0
 51
90
  0
ARC
  8
1
 62
7
 10
28.99999999999999
 20
31.00000000000011
 30
0
 40
1
 50
270
 51
0
  0
ARC
  8
1
 62
7
 10
255.4583108454233
 20
8.526512829121202e-014
 30
0
 40
14.99999999999996
 50
103.4933988215517
 51
76.50660117844839
  0
ARC
  8
1
 62
7
 10
229.6473712096262
 20
-36.8618419930045
 30
0
 40
22.00000000000002
 50
234.9999999999998
 51
290.0670090705336
  0
ARC
  8
1
 62
7
 10
255.4583108454233
 20
8.526512829121202e-014
 30
0
 40
60.00000000000003
 50
167.7943629479916
 51
252.2056370520083
  0
ARC
  8
1
 62
7
 10
255.4583108454232
 20
-101.9999999999999
 30
0
 40
28.67018343059946
 50
67.30016183135736
 51
69.92514795195508
  0
ARC
  8
1
 62
7
 10
236.4404890670919
 20
40.78385041664927
 30
0
 40
22.0000000000001
 50
114.9999999999997
 51
170.0670090705337
  0
ARC
  8
1
 62
7
 10
255.4583108454233
 20
8.526512829121202e-014
 30
0
 40
60.00000000000011
 50
47.79436294799162
 51
132.2056370520084
  0
ARC
  8
1
 62
7
 10
167.1237196594106
 20
51.00000000000011
 30
0
 40
28.67018343059935
 50
307.3001618313575
 51
309.9251479519551
  0
ARC
  8
1
 62
7
 10
300.2870722595518
 20
-3.922008423644513
 30
0
 40
22.00000000000012
 50
355
 51
50.06700907053342
  0
ARC
  8
1
 62
7
 10
255.4583108454233
 20
8.526512829121202e-014
 30
0
 40
60
 50
287.7943629479918
 51
12.20563705200835
  0
ARC
  8
1
 62
7
 10
343.7929020314362
 20
51.00000000000011
 30
0
 40
28.6701834305995
 50
187.3001618313575
 51
189.9251479519551
  0
ARC
  8
1
 62
7
 10
255.4583108454233
 20
8.526512829121202e-014
 30
0
 40
105
 50
312.0246275793772
 51
317.9753724206228
  0
ARC
  8
1
 62
7
 10
255.4583108454233
 20
8.526512829121202e-014
 30
0
 40
104.9999999999999
 50
222.0246275793772
 51
227.9753724206228
  0
ARC
  8
1
 62
7
 10
255.4583108454233
 20
8.526512829121202e-014
 30
0
 40
105
 50
132.0246275793772
 51
137.9753724206228
  0
ARC
  8
1
 62
7
 10
255.4583108454233
 20
8.526512829121202e-014
 30
0
 40
105
 50
42.02462757937726
 51
47.97537242062278
  0
ARC
  8
1
 62
7
 10
343.7929020314352
 20
51.00000000000097
 30
0
 40
28.67018343059956
 50
230.0748520480477
 51
232.6998381686449
  0
ARC
  8
1
 62
7
 10
302.4583108454233
 20
8.526512829121202e-014
 30
0
 40
37
 50
359.9999999999997
 51
49.6400632437806
  0
ARC
  8
1
 62
7
 10
255.4583108454233
 20
8.526512829121202e-014
 30
0
 40
83.99999999999994
 50
300.0000000000001
 51
359.9999999999999
  0
ARC
  8
1
 62
7
 10
255.4583108454233
 20
8.526512829121202e-014
 30
0
 40
66.99999999999997
 50
305
 51
355
  0
ARC
  8
1
 62
7
 10
255.4583108454233
 20
8.526512829121202e-014
 30
0
 40
67.00000000000003
 50
65.00000000000007
 51
114.9999999999999
  0
ARC
  8
1
 62
7
 10
255.4583108454233
 20
8.526512829121202e-014
 30
0
 40
84.00000000000003
 50
60.00000000000003
 51
119.9999999999999
  0
ARC
  8
1
 62
7
 10
274.4761326237548
 20
40.78385041664927
 30
0
 40
22.00000000000006
 50
9.932990929466589
 51
65.00000000000023
  0
ARC
  8
1
 62
7
 10
278.9583108454233
 20
40.70319397786869
 30
0
 40
37.00000000000005
 50
10.35993675621947
 51
60.00000000000006
  0
ARC
  8
1
 62
7
 10
255.4583108454216
 20
-102.0000000000005
 30
0
 40
28.67018343059934
 50
110.0748520480411
 51
112.699838168639
  0
ARC
  8
1
 62
7
 10
231.9583108454232
 20
-40.70319397786849
 30
0
 40
36.99999999999994
 50
239.9999999999999
 51
289.6400632437807
  0
ARC
  8
1
 62
7
 10
255.4583108454233
 20
8.526512829121202e-014
 30
0
 40
84
 50
180
 51
239.9999999999999
  0
ARC
  8
1
 62
7
 10
255.4583108454233
 20
8.526512829121202e-014
 30
0
 40
67.00000000000007
 50
185
 51
234.9999999999999
  0
ARC
  8
1
 62
7
 10
281.2692504812204
 20
-36.8618419930045
 30
0
 40
22.00000000000002
 50
249.9329909294664
 51
304.9999999999999
  0
ARC
  8
1
 62
7
 10
278.9583108454233
 20
-40.70319397786849
 30
0
 40
36.99999999999998
 50
250.3599367562194
 51
300.0000000000001
  0
ARC
  8
1
 62
7
 10
208.4583108454233
 20
8.526512829121202e-014
 30
0
 40
37.00000000000002
 50
130.3599367562194
 51
180
  0
ARC
  8
1
 62
7
 10
210.6295494312947
 20
-3.922008423644513
 30
0
 40
21.99999999999994
 50
129.9329909294663
 51
185
  0
ARC
  8
1
 62
7
 10
231.9583108454233
 20
40.70319397786881
 30
0
 40
36.99999999999994
 50
119.9999999999999
 51
169.6400632437807
  0
ARC
  8
1
 62
7
 10
167.1237196594106
 20
51.00000000000011
 30
0
 40
28.67018343059942
 50
350.0748520480449
 51
352.6998381686425
  0
ARC
  8
1
 62
7
 10
255.4583108454233
 20
8.526512829121202e-014
 30
0
 40
52.49999999999996
 50
60.70132940099848
 51
119.2986705990016
  0
ARC
  8
1
 62
7
 10
184.9635922875517
 20
-0.8629342075020929
 30
0
 40
17.99999999999997
 50
0.7013294009985965
 51
59.01518029793596
  0
ARC
  8
1
 62
7
 10
220.958274511979
 20
61.48168420750227
 30
0
 40
17.99999999999997
 50
240.9848197020638
 51
299.2986705990014
  0
ARC
  8
1
 62
7
 10
289.9583471788676
 20
61.48168420750227
 30
0
 40
18.00000000000004
 50
240.7013294009984
 51
299.0151802979362
  0
ARC
  8
1
 62
7
 10
325.9530294032949
 20
-0.8629342075020929
 30
0
 40
18.00000000000006
 50
120.9848197020641
 51
179.2986705990018
  0
ARC
  8
1
 62
7
 10
291.4529930698506
 20
-60.61874999999989
 30
0
 40
17.99999999999993
 50
120.7013294009986
 51
179.0151802979363
  0
ARC
  8
1
 62
7
 10
255.4583108454233
 20
8.526512829121202e-014
 30
0
 40
52.50000000000006
 50
180.7013294009984
 51
239.2986705990016
  0
ARC
  8
1
 62
7
 10
219.463628620996
 20
-60.61874999999989
 30
0
 40
18.00000000000009
 50
0.9848197020637474
 51
59.29867059900118
  0
ARC
  8
1
 62
7
 10
255.4583108454233
 20
-59.99999999999991
 30
0
 40
17.99999999999997
 50
180.9848197020638
 51
359.0151802979362
  0
ARC
  8
1
 62
7
 10
255.4583108454233
 20
8.526512829121202e-014
 30
0
 40
52.50000000000006
 50
300.7013294009984
 51
359.2986705990015
  0
ARC
  8
1
 62
7
 10
307.4198350724897
 20
30.00000000000011
 30
0
 40
17.99999999999993
 50
300.9848197020633
 51
119.0151802979366
  0
ARC
  8
1
 62
7
 10
203.496786618357
 20
30.00000000000011
 30
0
 40
18.00000000000001
 50
60.98481970206382
 51
239.0151802979364
  0
ARC
  8
1
 62
3
  6
DASHDOT
 10
255.4583108454233
 20
8.526512829121202e-014
 30
0
 40
95.00000000000003
 50
40.00308494026576
 51
50.00258857223882
  0
ARC
  8
1
 62
3
  6
DASHDOT
 10
255.4649880358992
 20
0.006677190475983252
 30
0
 40
95.00000000000004
 50
130.0030849402658
 51
140.0025885722389
  0
ARC
  8
1
 62
3
  6
DASHDOT
 10
255.4583108454233
 20
0.01335438095185568
 30
0
 40
95.00000000000001
 50
220.0030849402658
 51
230.0025885722388
  0
ARC
  8
1
 62
3
  6
DASHDOT
 10
255.4516336549474
 20
0.006677190475983252
 30
0
 40
95.00000000000007
 50
310.0030849402658
 51
320.0025885722388
  0
ARC
  8
1
 62
7
 10
-148.312068413332
 20
52.00000000000011
 30
0
 40
0.5
 50
90
 51
180
  0
ARC
  8
1
 62
7
 10
-176.112068413332
 20
-76.50000000000011
 30
0
 40
7.999999999999992
 50
218.0475074536187
 51
270
  0
ARC
  8
1
 62
7
 10
-176.112068413332
 20
76.5
 30
0
 40
8
 50
90
 51
141.9524925463809
  0
ARC
  8
1
 62
7
 10
-125.112068413332
 20
35.00000000000011
 30
0
 40
1
 50
0
 51
90
  0
ARC
  8
1
 62
7
 10
-133.312068413332
 20
51.50000000000011
 30
0
 40
1
 50
0
 51
90
  0
ARC
  8
1
 62
7
 10
-125.112068413332
 20
-35
 30
0
 40
1
 50
270
 51
0
  0
ARC
  8
1
 62
7
 10
-125.312068413332
 20
-46.24999999999991
 30
0
 40
1
 50
0
 51
90
  0
ARC
  8
1
 62
7
 10
-125.312068413332
 20
-73.74999999999992
 30
0
 40
1
 50
270
 51
0
  0
ARC
  8
1
 62
7
 10
-133.312068413332
 20
-76.99999999999992
 30
0
 40
1
 50
270
 51
0
  0
ARC
  8
1
 62
7
 10
-141.812068413332
 20
-76.99999999999992
 30
0
 40
1
 50
180
 51
270
  0
ARC
  8
1
 62
7
 10
-146.812068413332
 20
-73.74999999999992
 30
0
 40
1
 50
180
 51
270
  0
ARC
  8
1
 62
7
 10
-131.312068413332
 20
-37
 30
0
 40
1
 50
90
 51
180
  0
ARC
  8
1
 62
7
 10
-131.312068413332
 20
-44.24999999999991
 30
0
 40
1
 50
180
 51
270
  0
ARC
  8
1
 62
7
 10
-131.312068413332
 20
-75.74999999999992
 30
0
 40
1
 50
90
 51
180
  0
ARC
  8
1
 62
7
 10
-143.812068413332
 20
-75.74999999999992
 30
0
 40
1
 50
0
 51
90
  0
ARC
  8
1
 62
7
 10
-148.812068413332
 20
-37
 30
0
 40
1
 50
0
 51
90
  0
ARC
  8
1
 62
7
 10
-149.812068413332
 20
37.00000000000011
 30
0
 40
1.000000000000018
 50
314.4270040008061
 51
0
  0
ARC
  8
1
 62
7
 10
-131.312068413332
 20
37.00000000000011
 30
0
 40
1
 50
180
 51
270
  0
CIRCLE
  8
1
 62
7
 10
320.8432288311484
 20
-37.74999999999991
 30
0
 40
6.649999999999977
  0
CIRCLE
  8
1
 62
7
 10
190.0733928596981
 20
-37.74999999999991
 30
0
 40
6.650000000000006
  0
CIRCLE
  8
1
 62
7
 10
255.4583108454233
 20
75.50000000000011
 30
0
 40
6.650000000000006
  0
CIRCLE
  8
1
 62
7
 10
255.4583108454233
 20
-59.99999999999991
 30
0
 40
4.000000000000085
  0
CIRCLE
  8
1
 62
7
 10
203.496786618357
 20
30.00000000000011
 30
0
 40
4
  0
CIRCLE
  8
1
 62
7
 10
307.4198350724897
 20
30.00000000000011
 30
0
 40
3.999999999999886
  0
CIRCLE
  8
1
 62
7
 10
203.496786618357
 20
30.00000000000011
 30
0
 40
14.75
  0
CIRCLE
  8
1
 62
7
 10
203.496786618357
 20
30.00000000000011
 30
0
 40
11
  0
CIRCLE
  8
1
 62
7
 10
203.496786618357
 20
30.00000000000011
 30
0
 40
8
  0
CIRCLE
  8
1
 62
7
 10
307.4198350724897
 20
30.00000000000011
 30
0
 40
14.75000000000006
  0
CIRCLE
  8
1
 62
7
 10
307.4198350724897
 20
30.00000000000011
 30
0
 40
11.00000000000006
  0
CIRCLE
  8
1
 62
7
 10
307.4198350724897
 20
30.00000000000011
 30
0
 40
8.000000000000057
  0
CIRCLE
  8
1
 62
7
 10
255.4583108454233
 20
-59.99999999999991
 30
0
 40
14.74999999999997
  0
CIRCLE
  8
1
 62
7
 10
255.4583108454233
 20
-59.99999999999991
 30
0
 40
10.99999999999997
  0
CIRCLE
  8
1
 62
7
 10
255.4583108454233
 20
-59.99999999999991
 30
0
 40
7.999999999999972
  0
CIRCLE
  8
1
 62
7
 10
255.4583108454233
 20
8.526512829121202e-014
 30
0
 40
35.99999999999997
  0
CIRCLE
  8
1
 62
7
 10
255.4583108454233
 20
8.526512829121202e-014
 30
0
 40
84.74999999999997
  0
CIRCLE
  8
1
 62
7
 10
322.6301163799435
 20
67.17848272499619
 30
0
 40
4.25
  0
CIRCLE
  8
1
 62
7
 10
188.2865053109031
 20
67.17848272499617
 30
0
 40
4.25
  0
CIRCLE
  8
1
 62
7
 10
188.2865053109031
 20
-67.16512834404423
 30
0
 40
4.25
  0
CIRCLE
  8
1
 62
7
 10
322.6301163799435
 20
-67.16512834404421
 30
0
 40
4.25
  0
TEXT
  8
1
 62
7
 10
-174.7923121703516
 20
200.0973015283753
 30
0
 40
7
  1
TMAB 10
 41
0.9
  7
SIMPLEX
  0
TEXT
  8
1
 62
7
 10
-174.7923121703516
 20
189.5973015283753
 30
0
 40
7
  1
DC2305
 41
0.9
  7
SIMPLEX
  0
ENDSEC
  0
EOF
