  0
SECTION
  2
HEADER
  9
$ACADVER
  1
AC1009
  9
$INSBASE
 10
0
 20
0
  9
$EXTMIN
 10
-294.672316852731
 20
-58
  9
$EXTMAX
 10
3.212415560188528
 20
165
  9
$LIMMIN
 10
-294.672316852731
 20
-58
  9
$LIMMAX
 10
3.212415560188528
 20
165
  9
$VIEWCTR
 10
10
 20
10
  9
$VIEWSIZE
 40
10
  9
$SNAPMODE
 70
0
  9
$SNAPUNIT
 10
1
 20
1
  9
$SNAPBASE
 10
0
 20
0
  9
$SNAPANG
 50
0
  9
$SNAPSTYLE
 70
0
  9
$SNAPISOPAIR
 70
0
  9
$GRIDMODE
 70
0
  9
$GRIDUNIT
 10
0
 20
0
  9
$ORTHOMODE
 70
0
  9
$REGENMODE
 70
1
  9
$FILLMODE
 70
1
  9
$QTEXTMODE
 70
0
  9
$DRAGMODE
 70
2
  9
$LTSCALE
 40
1
  9
$OSMODE
 70
0
  9
$ATTMODE
 70
1
  9
$TEXTSIZE
 40
3.5
  9
$TRACEWID
 40
0.5
  9
$TEXTSTYLE
  7
STANDARD
  9
$CLAYER
  8
0
  9
$CELTYPE
  6
BYLAYER
  9
$CECOLOR
 62
256
  9
$DIMSCALE
 40
1
  9
$DIMASZ
 40
0.18
  9
$DIMEXO
 40
0.0625
  9
$DIMDLI
 40
0.38
  9
$DIMRND
 40
0
  9
$DIMDLE
 40
0
  9
$DIMEXE
 40
0.18
  9
$DIMTP
 40
0
  9
$DIMTM
 40
0
  9
$DIMTXT
 40
0.18
  9
$DIMCEN
 40
0.09
  9
$DIMTSZ
 40
0
  9
$DIMTOL
 70
0
  9
$DIMLIM
 70
0
  9
$DIMTIH
 70
1
  9
$DIMTOH
 70
1
  9
$DIMSE1
 70
0
  9
$DIMSE2
 70
0
  9
$DIMTAD
 70
0
  9
$DIMZIN
 70
0
  9
$DIMBLK
  1

  9
$DIMASO
 70
1
  9
$DIMSHO
 70
1
  9
$DIMPOST
  1

  9
$DIMAPOST
  1

  9
$DIMALT
 70
0
  9
$DIMALTD
 70
2
  9
$DIMALTF
 40
25.4
  9
$DIMLFAC
 40
1
  9
$DIMTOFL
 70
0
  9
$DIMTVP
 40
0
  9
$DIMTIX
 70
0
  9
$DIMSOXD
 70
0
  9
$DIMSAH
 70
0
  9
$DIMBLK1
  1

  9
$DIMBLK2
  1

  9
$DIMSTYLE
  2
*UNNAMED
  9
$DIMCLRD
 70
0
  9
$DIMCLRE
 70
0
  9
$DIMCLRT
 70
0
  9
$DIMTFAC
 40
1
  9
$DIMGAP
 40
0.09
  9
$LUNITS
 70
2
  9
$LUPREC
 70
4
  9
$AXISMODE
 70
0
  9
$AXISUNIT
 10
0
 20
0
  9
$SKETCHINC
 40
0.1
  9
$FILLETRAD
 40
2
  9
$AUNITS
 70
0
  9
$AUPREC
 70
0
  9
$MENU
  1
ACAD
  9
$ELEVATION
 40
0
  9
$THICKNESS
 40
0
  9
$VIEWDIR
 10
0
 20
0
 30
1
  9
$LIMCHECK
 70
0
  9
$BLIPMODE
 70
1
  9
$CHAMFERA
 40
0
  9
$CHAMFERB
 40
0
  9
$FASTZOOM
 70
1
  9
$SKPOLY
 70
0
  9
$ANGBASE
 50
0
  9
$ANGDIR
 70
0
  9
$PDMODE
 70
0
  9
$PDSIZE
 40
0
  9
$PLINEWID
 40
0
  9
$COORDS
 70
2
  0
ENDSEC
  0
SECTION
  2
TABLES
  0
TABLE
  2
DIMSTYLE
 70
0
  0
ENDTAB
  0
TABLE
  2
LTYPE
 70
9
  0
LTYPE
  2
CONTINUOUS
 70
64
  3
Solid line
 72
65
 73
0
 40
0
  0
LTYPE
  2
BORDER
 70
64
  3
__ __ . __ __ .
 72
65
 73
6
 40
13.7183758348055
 49
3.919535952801573
 49
-1.959767976400786
 49
3.919535952801573
 49
-1.959767976400786
 49
0
 49
-1.959767976400786
  0
LTYPE
  2
CENTER
 70
64
  3
____ _ ____ _
 72
65
 73
4
 40
15.67814381120629
 49
9.798839882003932
 49
-1.959767976400786
 49
1.959767976400786
 49
-1.959767976400786
  0
LTYPE
  2
DASHDOT
 70
64
  3
__ . __ . __ .
 72
65
 73
4
 40
7.839071905603145
 49
3.919535952801573
 49
-1.959767976400786
 49
0
 49
-1.959767976400786
  0
LTYPE
  2
DASHED
 70
64
  3
__ __ __ __ __
 72
65
 73
2
 40
5.879303929202359
 49
3.919535952801573
 49
-1.959767976400786
  0
LTYPE
  2
DIVIDE
 70
64
  3
__ . . __ . . 
 72
65
 73
6
 40
9.798839882003932
 49
3.919535952801573
 49
-1.959767976400786
 49
0
 49
-1.959767976400786
 49
0
 49
-1.959767976400786
  0
LTYPE
  2
DOT
 70
64
  3
..............
 72
65
 73
4
 40
3.919535952801573
 49
0
 49
-1.959767976400786
 49
0
 49
-1.959767976400786
  0
LTYPE
  2
HIDDEN
 70
64
  3
_ _ _ _ _ _ _
 72
65
 73
2
 40
2.939651964601179
 49
1.959767976400786
 49
-0.9798839882003931
  0
LTYPE
  2
PHANTOM
 70
64
  3
_____ _ _ _____ _ _ 
 72
65
 73
6
 40
19.59767976400786
 49
9.798839882003932
 49
-1.959767976400786
 49
1.959767976400786
 49
-1.959767976400786
 49
1.959767976400786
 49
-1.959767976400786
  0
ENDTAB
  0
TABLE
  2
LAYER
 70
3
  0
LAYER
  2
1
 70
0
 62
7
  6
CONTINUOUS
  0
LAYER
  2
0
 70
0
 62
7
  6
CONTINUOUS
  0
ENDTAB
  0
TABLE
  2
STYLE
 70
4
  0
STYLE
  2
STANDARD
 70
0
 40
0
 41
1
 50
0
 71
0
 42
3.5
  3
txt
  4

  0
STYLE
  2
SIMPLEX
 70
0
 40
0
 41
1
 50
0
 71
0
 42
3.5
  3
simplex
  4

  0
STYLE
  2
COMPLEX
 70
0
 40
0
 41
1
 50
0
 71
0
 42
3.5
  3
complex
  4

  0
STYLE
  2
ITALIC
 70
0
 40
0
 41
1
 50
0
 71
0
 42
3.5
  3
italic
  4

  0
ENDTAB
  0
TABLE
  2
VIEW
 70
0
  0
ENDTAB
  0
ENDSEC
  0
SECTION
  2
BLOCKS
  0
ENDSEC
  0
SECTION
  2
ENTITIES
  0
LINE
  8
1
 62
3
  6
DASHDOT
 10
-65.28758443981147
 20
94.99999999999996
 30
0
 11
-54.28758443981153
 21
94.99999999999999
 31
0
  0
LINE
  8
1
 62
3
  6
DASHDOT
 10
-59.7875844398115
 20
100.5
 30
0
 11
-59.78758443981147
 21
89.49999999999999
 31
0
  0
LINE
  8
1
 62
3
  6
DASHDOT
 10
-59.7875844398115
 20
160.5
 30
0
 11
-59.78758443981147
 21
149.5
 31
0
  0
LINE
  8
1
 62
3
  6
DASHDOT
 10
-65.28758443981147
 20
155
 30
0
 11
-54.28758443981153
 21
155
 31
0
  0
LINE
  8
1
 62
3
  6
DASHDOT
 10
-129.7875844398115
 20
100.5
 30
0
 11
-129.7875844398114
 21
89.49999999999999
 31
0
  0
LINE
  8
1
 62
3
  6
DASHDOT
 10
-135.2875844398114
 20
94.99999999999996
 30
0
 11
-124.2875844398115
 21
94.99999999999999
 31
0
  0
LINE
  8
1
 62
3
  6
DASHDOT
 10
-135.2875844398114
 20
155
 30
0
 11
-124.2875844398115
 21
155
 31
0
  0
LINE
  8
1
 62
3
  6
DASHDOT
 10
-129.7875844398115
 20
160.5
 30
0
 11
-129.7875844398114
 21
149.5
 31
0
  0
LINE
  8
1
 62
7
 10
-147.5875844398115
 20
91.49999999999999
 30
0
 11
-147.5875844398115
 21
157.75
 31
0
  0
LINE
  8
1
 62
3
 10
-172.2875844398115
 20
119.5415
 30
0
 11
-173.7875844398115
 21
119.5415
 31
0
  0
LINE
  8
1
 62
3
 10
-173.7875844398115
 20
130.4585
 30
0
 11
-172.2875844398115
 21
130.4585
 31
0
  0
LINE
  8
1
 62
7
 10
-1.787584439811472
 20
119
 30
0
 11
-26.78758443981147
 21
119
 31
0
  0
LINE
  8
1
 62
7
 10
-26.78758443981147
 20
131
 30
0
 11
-1.787584439811472
 21
131
 31
0
  0
LINE
  8
1
 62
7
 10
-26.78758443981147
 20
132.5
 30
0
 11
-26.78758443981147
 21
117.5
 31
0
  0
LINE
  8
1
 62
7
 10
-167.7875844398115
 20
114.8581233428302
 30
0
 11
-169.6013865867841
 21
111.7165258693962
 31
0
  0
LINE
  8
1
 62
7
 10
-19.78758443981147
 20
123
 30
0
 11
-1.787584439811472
 21
123
 31
0
  0
LINE
  8
1
 62
7
 10
-19.78758443981147
 20
127
 30
0
 11
-1.787584439811472
 21
127
 31
0
  0
LINE
  8
1
 62
7
 10
-71.78758443981147
 20
91.99999999999999
 30
0
 11
-117.7875844398115
 21
91.99999999999999
 31
0
  0
LINE
  8
1
 62
7
 10
-71.78758443981147
 20
91.99999999999999
 30
0
 11
-117.7875844398115
 21
91.99999999999999
 31
0
  0
LINE
  8
1
 62
7
 10
-71.78758443981147
 20
91.99999999999999
 30
0
 11
-117.7875844398115
 21
91.99999999999999
 31
0
  0
LINE
  8
1
 62
7
 10
-118.7875844398115
 20
163
 30
0
 11
-118.7875844398115
 21
86.99999999999999
 31
0
  0
LINE
  8
1
 62
7
 10
-117.7875844398115
 20
158
 30
0
 11
-71.78758443981147
 21
158
 31
0
  0
LINE
  8
1
 62
7
 10
-1.787584439811472
 20
131
 30
0
 11
-1.787584439811472
 21
119
 31
0
  0
LINE
  8
1
 62
7
 10
-66.98758443981134
 20
93.99999999999999
 30
0
 11
-66.98758443981134
 21
156
 31
0
  0
LINE
  8
1
 62
7
 10
-69.78758443981147
 20
93.99999999999999
 30
0
 11
-66.98758443981134
 21
93.99999999999999
 31
0
  0
LINE
  8
1
 62
7
 10
-66.98758443981134
 20
156
 30
0
 11
-69.78758443981147
 21
156
 31
0
  0
LINE
  8
1
 62
7
 10
-49.58873890581488
 20
158
 30
0
 11
-60.48873890581476
 21
158
 31
0
  0
LINE
  8
1
 62
7
 10
-49.58873890581488
 20
158
 30
0
 11
-49.58873890581488
 21
91.99999999999999
 31
0
  0
LINE
  8
1
 62
7
 10
-60.48873890581476
 20
91.9999999999999
 30
0
 11
-49.58873890581488
 21
91.99999999999999
 31
0
  0
LINE
  8
1
 62
3
  6
DASHDOT
 10
3.212415560188528
 20
125
 30
0
 11
-1.787584439811472
 21
125
 31
0
  0
LINE
  8
1
 62
7
 10
-122.8875844398115
 20
93.99999999999999
 30
0
 11
-119.7875844398115
 21
93.99999999999999
 31
0
  0
LINE
  8
1
 62
7
 10
-68.78758443981147
 20
93.99999999999999
 30
0
 11
-68.78758443981147
 21
156
 31
0
  0
LINE
  8
1
 62
7
 10
-49.78758443981147
 20
163
 30
0
 11
-49.78758443981147
 21
158
 31
0
  0
LINE
  8
1
 62
7
 10
-70.78758443981147
 20
163
 30
0
 11
-70.78758443981147
 21
86.99999999999999
 31
0
  0
LINE
  8
1
 62
7
 10
-137.7875844398115
 20
84.99999999999999
 30
0
 11
-51.78758443981147
 21
84.99999999999999
 31
0
  0
LINE
  8
1
 62
7
 10
-49.78758443981147
 20
86.99999999999999
 30
0
 11
-49.78758443981147
 21
91.99999999999999
 31
0
  0
LINE
  8
1
 62
7
 10
-139.7875844398115
 20
89.99999999999999
 30
0
 11
-139.7875844398115
 21
86.99999999999999
 31
0
  0
LINE
  8
1
 62
7
 10
-139.7875844398115
 20
163
 30
0
 11
-139.7875844398115
 21
160
 31
0
  0
LINE
  8
1
 62
7
 10
-122.8875844398115
 20
156
 30
0
 11
-119.7875844398115
 21
156
 31
0
  0
LINE
  8
1
 62
7
 10
-120.7875844398115
 20
156
 30
0
 11
-120.7875844398115
 21
93.99999999999999
 31
0
  0
LINE
  8
1
 62
7
 10
-170.0343992886763
 20
138.0334741306037
 30
0
 11
-170.0343992886763
 21
111.9665258693962
 31
0
  0
LINE
  8
1
 62
7
 10
-170.0343992886763
 20
111.9665258693962
 30
0
 11
-169.6013865867841
 21
111.7165258693962
 31
0
  0
LINE
  8
1
 62
7
 10
-172.2875844398115
 20
135.8678424721745
 30
0
 11
-170.0343992886763
 21
135.8678424721745
 31
0
  0
LINE
  8
1
 62
7
 10
-169.6013865867841
 20
138.2834741306037
 30
0
 11
-170.0343992886763
 21
138.0334741306037
 31
0
  0
LINE
  8
1
 62
7
 10
-169.6013865867841
 20
138.2834741306037
 30
0
 11
-167.7875844398115
 21
135.1418766571697
 31
0
  0
LINE
  8
1
 62
3
  6
DASHDOT
 10
-178.7875844398115
 20
125
 30
0
 11
-173.7875844398115
 21
125
 31
0
  0
LINE
  8
1
 62
7
 10
-173.7875844398115
 20
119
 30
0
 11
-172.2875844398115
 21
119
 31
0
  0
LINE
  8
1
 62
7
 10
-173.7875844398115
 20
131
 30
0
 11
-172.2875844398115
 21
131
 31
0
  0
LINE
  8
1
 62
7
 10
-172.2875844398115
 20
114.1321575278255
 30
0
 11
-169.9387718060959
 21
114.1321575278255
 31
0
  0
LINE
  8
1
 62
7
 10
-172.2875844398115
 20
135.8678424721745
 30
0
 11
-172.2875844398115
 21
114.1321575278255
 31
0
  0
LINE
  8
1
 62
7
 10
-173.7875844398115
 20
131
 30
0
 11
-173.7875844398115
 21
119
 31
0
  0
LINE
  8
1
 62
7
 10
-167.7875844398115
 20
142.5
 30
0
 11
-167.7875844398115
 21
107.5
 31
0
  0
LINE
  8
1
 62
7
 10
-147.9875844398115
 20
99.25
 30
0
 11
-147.5875844398115
 21
99.25
 31
0
  0
LINE
  8
1
 62
7
 10
-148.3875844398115
 20
92.24999999999999
 30
0
 11
-147.9875844398115
 21
92.24999999999999
 31
0
  0
LINE
  8
1
 62
7
 10
-142.3328839014323
 20
89.99999999999999
 30
0
 11
-134.4875844398115
 21
89.99999999999999
 31
0
  0
LINE
  8
1
 62
7
 10
-143.4875844398115
 20
91.99999999999999
 30
0
 11
-144.2875844398115
 21
91.99999999999999
 31
0
  0
LINE
  8
1
 62
7
 10
-142.3328839014323
 20
89.99999999999999
 30
0
 11
-143.4875844398115
 21
91.99999999999999
 31
0
  0
LINE
  8
1
 62
7
 10
-129.3875844398115
 20
91.99999999999999
 30
0
 11
-133.9875844398115
 21
91.99999999999999
 31
0
  0
LINE
  8
1
 62
7
 10
-133.9875844398115
 20
90.49999999999999
 30
0
 11
-134.4875844398115
 21
89.99999999999999
 31
0
  0
LINE
  8
1
 62
7
 10
-144.5875844398115
 20
91.49999999999999
 30
0
 11
-147.5875844398115
 21
91.49999999999999
 31
0
  0
LINE
  8
1
 62
7
 10
-144.5875844398115
 20
158.5
 30
0
 11
-144.5875844398115
 21
91.49999999999999
 31
0
  0
LINE
  8
1
 62
7
 10
-122.8875844398115
 20
93.99999999999999
 30
0
 11
-122.8875844398115
 21
156
 31
0
  0
LINE
  8
1
 62
7
 10
-133.9875844398115
 20
90.49999999999999
 30
0
 11
-133.9875844398115
 21
159.5
 31
0
  0
LINE
  8
1
 62
7
 10
-142.3328839014323
 20
89.99999999999999
 30
0
 11
-142.3328839014323
 21
160
 31
0
  0
LINE
  8
1
 62
7
 10
-143.4875844398115
 20
91.99999999999999
 30
0
 11
-143.4875844398115
 21
158
 31
0
  0
LINE
  8
1
 62
7
 10
-144.2875844398115
 20
91.99999999999999
 30
0
 11
-144.2875844398115
 21
158
 31
0
  0
LINE
  8
1
 62
7
 10
-134.4875844398115
 20
160
 30
0
 11
-142.3328839014323
 21
160
 31
0
  0
LINE
  8
1
 62
7
 10
-144.2875844398115
 20
158
 30
0
 11
-143.4875844398115
 21
158
 31
0
  0
LINE
  8
1
 62
7
 10
-143.4875844398115
 20
158
 30
0
 11
-142.3328839014323
 21
160
 31
0
  0
LINE
  8
1
 62
7
 10
-133.9875844398115
 20
158
 30
0
 11
-129.3875844398115
 21
158
 31
0
  0
LINE
  8
1
 62
7
 10
-134.4875844398115
 20
160
 30
0
 11
-133.9875844398115
 21
159.5
 31
0
  0
LINE
  8
1
 62
7
 10
-149.7875844398115
 20
105.5
 30
0
 11
-148.3875844398115
 21
105.5
 31
0
  0
LINE
  8
1
 62
7
 10
-149.7875844398115
 20
98.5
 30
0
 11
-148.3875844398115
 21
98.5
 31
0
  0
LINE
  8
1
 62
7
 10
-147.9875844398115
 20
150.25
 30
0
 11
-147.5875844398115
 21
150.25
 31
0
  0
LINE
  8
1
 62
7
 10
-147.5875844398115
 20
149.4928203230275
 30
0
 11
-147.9875844398115
 21
148
 31
0
  0
LINE
  8
1
 62
7
 10
-147.9875844398115
 20
143
 30
0
 11
-148.3875844398115
 21
143
 31
0
  0
LINE
  8
1
 62
7
 10
-148.3875844398115
 20
148.103527618041
 30
0
 11
-148.3875844398115
 21
92.24999999999999
 31
0
  0
LINE
  8
1
 62
7
 10
-148.3875844398115
 20
148.103527618041
 30
0
 11
-147.9875844398115
 21
149.5454813220625
 31
0
  0
LINE
  8
1
 62
7
 10
-148.3875844398115
 20
148.103527618041
 30
0
 11
-147.9875844398115
 21
149.5454813220625
 31
0
  0
LINE
  8
1
 62
7
 10
-147.9875844398115
 20
149.5454813220625
 30
0
 11
-147.9875844398115
 21
157.75
 31
0
  0
LINE
  8
1
 62
7
 10
-147.9875844398115
 20
157.75
 30
0
 11
-147.5875844398115
 21
157.75
 31
0
  0
LINE
  8
1
 62
7
 10
-147.5875844398115
 20
158.5
 30
0
 11
-144.5875844398115
 21
158.5
 31
0
  0
LINE
  8
1
 62
7
 10
-147.9875844398115
 20
148
 30
0
 11
-147.5875844398115
 21
148
 31
0
  0
LINE
  8
1
 62
7
 10
-147.9875844398115
 20
92.24999999999999
 30
0
 11
-147.9875844398115
 21
148
 31
0
  0
LINE
  8
1
 62
7
 10
-149.5875844398115
 20
151.3
 30
0
 11
-149.5875844398115
 21
156.7
 31
0
  0
LINE
  8
1
 62
7
 10
-149.2875844398115
 20
151
 30
0
 11
-147.9875844398115
 21
151
 31
0
  0
LINE
  8
1
 62
7
 10
-148.4875844398115
 20
157
 30
0
 11
-148.4875844398115
 21
151
 31
0
  0
LINE
  8
1
 62
7
 10
-149.2875844398115
 20
157
 30
0
 11
-147.9875844398115
 21
157
 31
0
  0
LINE
  8
1
 62
7
 10
-149.5875844398115
 20
156.7
 30
0
 11
-149.2875844398115
 21
157
 31
0
  0
LINE
  8
1
 62
7
 10
-149.5875844398115
 20
151.3
 30
0
 11
-149.2875844398115
 21
151
 31
0
  0
LINE
  8
1
 62
7
 10
-149.7875844398115
 20
93.99999999999999
 30
0
 11
-149.7875844398115
 21
156
 31
0
  0
LINE
  8
1
 62
7
 10
-137.7875844398115
 20
165
 30
0
 11
-51.78758443981147
 21
165
 31
0
  0
LINE
  8
1
 62
7
 10
-167.7875844398115
 20
142.5
 30
0
 11
-160.7875844398115
 21
142.5
 31
0
  0
LINE
  8
1
 62
7
 10
-160.7875844398115
 20
156
 30
0
 11
-160.7875844398115
 21
93.99999999999999
 31
0
  0
LINE
  8
1
 62
7
 10
-160.7875844398115
 20
156
 30
0
 11
-149.7875844398115
 21
156
 31
0
  0
LINE
  8
1
 62
7
 10
-167.7875844398115
 20
107.5
 30
0
 11
-160.7875844398115
 21
107.5
 31
0
  0
LINE
  8
1
 62
7
 10
-160.7875844398115
 20
93.99999999999999
 30
0
 11
-149.7875844398115
 21
93.99999999999999
 31
0
  0
LINE
  8
1
 62
7
 10
-160.7875844398115
 20
93.99999999999999
 30
0
 11
-149.7875844398115
 21
93.99999999999999
 31
0
  0
LINE
  8
1
 62
7
 10
-160.7875844398115
 20
93.99999999999999
 30
0
 11
-149.7875844398115
 21
93.99999999999999
 31
0
  0
LINE
  8
1
 62
7
 10
-160.7875844398115
 20
156
 30
0
 11
-149.7875844398115
 21
156
 31
0
  0
LINE
  8
1
 62
7
 10
-160.7875844398115
 20
93.99999999999999
 30
0
 11
-149.7875844398115
 21
93.99999999999999
 31
0
  0
LINE
  8
1
 62
7
 10
-35.98758443981149
 20
147.4976629144106
 30
0
 11
-35.98758443981149
 21
92.50216683111439
 31
0
  0
LINE
  8
1
 62
7
 10
-43.98758443981149
 20
94.00154384029609
 30
0
 11
-43.98758443981149
 21
108.5
 31
0
  0
LINE
  8
1
 62
7
 10
-43.98758443981149
 20
147.4976629144106
 30
0
 11
-43.98758443981149
 21
141.5
 31
0
  0
LINE
  8
1
 62
7
 10
-41.98758443981149
 20
92.50216683111439
 30
0
 11
-41.98758443981149
 21
93.00154384029609
 31
0
  0
LINE
  8
1
 62
7
 10
-36.48758443981149
 20
147.9976629144106
 30
0
 11
-43.48758443981149
 21
147.9976629144106
 31
0
  0
LINE
  8
1
 62
7
 10
-44.48758443981149
 20
141
 30
0
 11
-45.58758443981139
 21
141
 31
0
  0
LINE
  8
1
 62
7
 10
-46.38758443981151
 20
158.25
 30
0
 11
-46.38758443981151
 21
91.75000000000001
 31
0
  0
LINE
  8
1
 62
7
 10
-45.98758443981149
 20
148
 30
0
 11
-45.98758443981149
 21
92.24999999999999
 31
0
  0
LINE
  8
1
 62
7
 10
-45.98758443981149
 20
92.24999999999999
 30
0
 11
-45.58758443981139
 21
92.24999999999999
 31
0
  0
LINE
  8
1
 62
7
 10
-45.98758443981149
 20
148
 30
0
 11
-46.38758443981151
 21
149.4928203230275
 31
0
  0
LINE
  8
1
 62
7
 10
-45.58758443981139
 20
92.24999999999999
 30
0
 11
-45.58758443981139
 21
148.103527618041
 31
0
  0
LINE
  8
1
 62
7
 10
-45.98758443981149
 20
149.5454813220626
 30
0
 11
-45.58758443981139
 21
148.103527618041
 31
0
  0
LINE
  8
1
 62
7
 10
-45.98758443981149
 20
149.5454813220626
 30
0
 11
-45.58758443981139
 21
148.103527618041
 31
0
  0
LINE
  8
1
 62
7
 10
-45.98758443981149
 20
157.75
 30
0
 11
-45.98758443981149
 21
149.5454813220626
 31
0
  0
LINE
  8
1
 62
7
 10
-46.38758443981151
 20
157.75
 30
0
 11
-45.98758443981149
 21
157.75
 31
0
  0
LINE
  8
1
 62
7
 10
-44.38758443981151
 20
156.7
 30
0
 11
-44.38758443981151
 21
151.3
 31
0
  0
LINE
  8
1
 62
7
 10
-45.98758443981149
 20
151
 30
0
 11
-44.68758443981147
 21
151
 31
0
  0
LINE
  8
1
 62
7
 10
-45.48758443981149
 20
151
 30
0
 11
-45.48758443981149
 21
157
 31
0
  0
LINE
  8
1
 62
7
 10
-45.98758443981149
 20
157
 30
0
 11
-44.68758443981159
 21
157
 31
0
  0
LINE
  8
1
 62
7
 10
-44.68758443981159
 20
157
 30
0
 11
-44.38758443981151
 21
156.7
 31
0
  0
LINE
  8
1
 62
7
 10
-44.68758443981147
 20
151
 30
0
 11
-44.38758443981151
 21
151.3
 31
0
  0
LINE
  8
1
 62
7
 10
-41.48758443981149
 20
92.00216683111439
 30
0
 11
-36.48758443981149
 21
92.00216683111439
 31
0
  0
LINE
  8
1
 62
7
 10
-43.48758443981149
 20
93.50154384029609
 30
0
 11
-42.48758443981149
 21
93.50154384029609
 31
0
  0
LINE
  8
1
 62
7
 10
-44.48758443981149
 20
109
 30
0
 11
-45.58758443981139
 21
109
 31
0
  0
LINE
  8
1
 62
7
 10
-43.98758443981149
 20
106.5
 30
0
 11
-45.58758443981139
 21
106.5
 31
0
  0
LINE
  8
1
 62
7
 10
-43.98758443981149
 20
97.49999999999999
 30
0
 11
-45.58758443981139
 21
97.49999999999999
 31
0
  0
LINE
  8
1
 62
7
 10
-49.23773890581488
 20
158.25
 30
0
 11
-46.38758443981151
 21
158.25
 31
0
  0
LINE
  8
1
 62
7
 10
-49.23773890581488
 20
91.75
 30
0
 11
-46.38758443981151
 21
91.75000000000001
 31
0
  0
LINE
  8
1
 62
7
 10
-49.23773890581488
 20
91.75
 30
0
 11
-49.23773890581488
 21
158.25
 31
0
  0
LINE
  8
1
 62
7
 10
-30.28758443981147
 20
134.853605762251
 30
0
 11
-30.28758443981147
 21
115.146394237749
 31
0
  0
LINE
  8
1
 62
7
 10
-31.28758443981147
 20
140.5
 30
0
 11
-31.28758443981147
 21
109.2
 31
0
  0
LINE
  8
1
 62
7
 10
-31.48758443981149
 20
94.00154384029609
 30
0
 11
-31.48758443981149
 21
109
 31
0
  0
LINE
  8
1
 62
7
 10
-31.28758443981147
 20
134.853605762251
 30
0
 11
-30.28758443981147
 21
134.853605762251
 31
0
  0
LINE
  8
1
 62
7
 10
-31.28758443981147
 20
115.146394237749
 30
0
 11
-30.28758443981147
 21
115.146394237749
 31
0
  0
LINE
  8
1
 62
7
 10
-35.48758443981149
 20
93.50154384029609
 30
0
 11
-31.98758443981149
 21
93.50154384029609
 31
0
  0
LINE
  8
1
 62
7
 10
-35.48758443981149
 20
141
 30
0
 11
-31.78758443981147
 21
141
 31
0
  0
LINE
  8
1
 62
7
 10
-26.78758443981147
 20
117.5
 30
0
 11
-30.28758443981147
 21
117.5
 31
0
  0
LINE
  8
1
 62
7
 10
-26.78758443981147
 20
132.5
 30
0
 11
-30.28758443981147
 21
132.5
 31
0
  0
LINE
  8
1
 62
7
 10
-285.6723168527309
 20
29.2777867450496
 30
0
 11
-285.6723168527309
 21
16.24807680927192
 31
0
  0
LINE
  8
1
 62
7
 10
-285.6723168527309
 20
-16.24807680927192
 30
0
 11
-285.6723168527309
 21
-29.2777867450496
 31
0
  0
LINE
  8
1
 62
7
 10
-223.6723168527309
 20
-16.24807680927192
 30
0
 11
-223.6723168527309
 21
-29.2777867450496
 31
0
  0
LINE
  8
1
 62
7
 10
-223.6723168527309
 20
29.2777867450496
 30
0
 11
-223.6723168527309
 21
16.24807680927192
 31
0
  0
LINE
  8
1
 62
7
 10
-238.424240043459
 20
-30.99999999999999
 30
0
 11
-225.3945301076813
 21
-30.99999999999999
 31
0
  0
LINE
  8
1
 62
7
 10
-283.9501035977805
 20
-30.99999999999999
 30
0
 11
-270.9203936620029
 21
-30.99999999999999
 31
0
  0
LINE
  8
1
 62
7
 10
-238.424240043459
 20
31
 30
0
 11
-225.3945301076813
 21
31
 31
0
  0
LINE
  8
1
 62
7
 10
-283.9501035977805
 20
31
 30
0
 11
-270.9203936620029
 21
31
 31
0
  0
LINE
  8
1
 62
7
 10
-243.8044743805564
 20
1.699999999999989
 30
0
 11
-245.6723168527309
 21
1.699999999999989
 31
0
  0
LINE
  8
1
 62
7
 10
-245.6723168527309
 20
1.699999999999989
 30
0
 11
-245.6723168527309
 21
-1.700000000000017
 31
0
  0
LINE
  8
1
 62
7
 10
-245.6723168527309
 20
-1.700000000000017
 30
0
 11
-243.8044743805565
 21
-1.700000000000017
 31
0
  0
LINE
  8
1
 62
7
 10
-256.372316852731
 20
-9
 30
0
 11
-256.372316852731
 21
-10.8678424721745
 31
0
  0
LINE
  8
1
 62
7
 10
-252.972316852731
 20
-10.86784247217452
 30
0
 11
-252.972316852731
 21
-9.000000000000014
 31
0
  0
LINE
  8
1
 62
7
 10
-252.972316852731
 20
-9.000000000000014
 30
0
 11
-256.372316852731
 21
-9
 31
0
  0
LINE
  8
1
 62
7
 10
-263.6723168527309
 20
1.700000000000003
 30
0
 11
-265.5401593249055
 21
1.700000000000003
 31
0
  0
LINE
  8
1
 62
7
 10
-263.6723168527309
 20
-1.700000000000003
 30
0
 11
-263.6723168527309
 21
1.700000000000003
 31
0
  0
LINE
  8
1
 62
7
 10
-265.5401593249055
 20
-1.700000000000003
 30
0
 11
-263.6723168527309
 21
-1.700000000000003
 31
0
  0
LINE
  8
1
 62
7
 10
-252.972316852731
 20
9
 30
0
 11
-252.972316852731
 21
10.8678424721745
 31
0
  0
LINE
  8
1
 62
7
 10
-256.3723168527309
 20
9
 30
0
 11
-252.972316852731
 21
9
 31
0
  0
LINE
  8
1
 62
7
 10
-256.3723168527309
 20
10.8678424721745
 30
0
 11
-256.3723168527309
 21
9
 31
0
  0
LINE
  8
1
 62
7
 10
-221.6723168527309
 20
-11.6619037896906
 30
0
 11
-221.6723168527309
 21
-24.99999999999999
 31
0
  0
LINE
  8
1
 62
7
 10
-221.6723168527309
 20
-24.99999999999999
 30
0
 11
-214.7664652927044
 21
-46.70410490294051
 31
0
  0
LINE
  8
1
 62
7
 10
-234.6723168527309
 20
-55
 30
0
 11
-214.6723168527309
 21
-55
 31
0
  0
LINE
  8
1
 62
3
  6
DASHDOT
 10
-224.6723168527309
 20
-57.91323246779531
 30
0
 11
-224.6723168527309
 21
-43.99999999999999
 31
0
  0
LINE
  8
1
 62
7
 10
-232.6723168527309
 20
-46.99999999999999
 30
0
 11
-216.6723168527309
 21
-46.99999999999999
 31
0
  0
LINE
  8
1
 62
7
 10
-234.6723168527309
 20
-55
 30
0
 11
-234.6723168527309
 21
-48.99999999999999
 31
0
  0
LINE
  8
1
 62
7
 10
-272.6723168527309
 20
-52
 30
0
 11
-236.6723168527309
 21
-52
 31
0
  0
LINE
  8
1
 62
3
  6
DASHDOT
 10
-284.6723168527309
 20
-43.99999999999999
 30
0
 11
-284.6723168527309
 21
-58
 31
0
  0
LINE
  8
1
 62
7
 10
-256.6723168527309
 20
-34.94281041931229
 30
0
 11
-256.6723168527309
 21
-41.87900815193181
 31
0
  0
LINE
  8
1
 62
7
 10
-252.6723168527309
 20
-34.94281041931229
 30
0
 11
-252.6723168527309
 21
-41.87900815193181
 31
0
  0
LINE
  8
1
 62
7
 10
-254.6723168527309
 20
-34.99999999999999
 30
0
 11
-254.6723168527309
 21
-41.87900815193181
 31
0
  0
LINE
  8
1
 62
7
 10
-274.6723168527309
 20
-48.99999999999999
 30
0
 11
-274.6723168527309
 21
-55
 31
0
  0
LINE
  8
1
 62
7
 10
-294.6723168527309
 20
-55
 30
0
 11
-274.6723168527309
 21
-55
 31
0
  0
LINE
  8
1
 62
7
 10
-292.6723168527309
 20
-46.99999999999999
 30
0
 11
-276.6723168527309
 21
-46.99999999999999
 31
0
  0
LINE
  8
1
 62
7
 10
-287.6723168527309
 20
-24.99999999999999
 30
0
 11
-287.6723168527309
 21
-11.6619037896906
 31
0
  0
LINE
  8
1
 62
7
 10
-294.5781684127575
 20
-46.70410490294051
 30
0
 11
-287.6723168527309
 21
-24.99999999999999
 31
0
  0
LINE
  8
1
 62
7
 10
-221.6723168527309
 20
29
 30
0
 11
-221.6723168527309
 21
11.6619037896906
 31
0
  0
LINE
  8
1
 62
7
 10
-287.6723168527309
 20
29
 30
0
 11
-287.6723168527309
 21
11.6619037896906
 31
0
  0
LINE
  8
1
 62
7
 10
-243.0104130630403
 20
33
 30
0
 11
-225.6723168527309
 21
33
 31
0
  0
LINE
  8
1
 62
7
 10
-283.6723168527309
 20
33
 30
0
 11
-266.3342206424215
 21
33
 31
0
  0
LINE
  8
1
 62
7
 10
-227.7075248221514
 20
-24.84347168701993
 30
0
 11
-229.380557429627
 21
-25.29175942310395
 31
0
  0
LINE
  8
1
 62
7
 10
-226.4827799507598
 20
-26.06821655841153
 30
0
 11
-227.7075248221514
 21
-24.84347168701993
 31
0
  0
LINE
  8
1
 62
7
 10
-228.6041002943194
 20
-28.18953690197115
 30
0
 11
-226.9310676868438
 21
-27.74124916588713
 31
0
  0
LINE
  8
1
 62
7
 10
-229.828845165711
 20
-26.96479203057957
 30
0
 11
-228.6041002943194
 21
-28.18953690197115
 31
0
  0
LINE
  8
1
 62
7
 10
-229.380557429627
 20
-25.29175942310395
 30
0
 11
-229.828845165711
 21
-26.96479203057957
 31
0
  0
LINE
  8
1
 62
7
 10
-226.9310676868438
 20
-27.74124916588713
 30
0
 11
-226.4827799507598
 21
-26.06821655841153
 31
0
  0
LINE
  8
1
 62
7
 10
-279.5157885397509
 20
-26.96479203057957
 30
0
 11
-279.9640762758349
 21
-25.29175942310395
 31
0
  0
LINE
  8
1
 62
7
 10
-280.7405334111425
 20
-28.18953690197115
 30
0
 11
-279.5157885397509
 21
-26.96479203057957
 31
0
  0
LINE
  8
1
 62
7
 10
-282.8618537547021
 20
-26.06821655841151
 30
0
 11
-282.413566018618
 21
-27.74124916588713
 31
0
  0
LINE
  8
1
 62
7
 10
-281.6371088833105
 20
-24.84347168701993
 30
0
 11
-282.8618537547021
 21
-26.06821655841151
 31
0
  0
LINE
  8
1
 62
7
 10
-279.9640762758349
 20
-25.29175942310395
 30
0
 11
-281.6371088833105
 21
-24.84347168701993
 31
0
  0
LINE
  8
1
 62
7
 10
-282.413566018618
 20
-27.74124916588713
 30
0
 11
-280.7405334111425
 21
-28.18953690197115
 31
0
  0
LINE
  8
1
 62
7
 10
-280.7405334111425
 20
28.1895369019711
 30
0
 11
-282.4135660186181
 21
27.7412491658871
 31
0
  0
LINE
  8
1
 62
7
 10
-279.5157885397509
 20
26.96479203057959
 30
0
 11
-280.7405334111425
 21
28.1895369019711
 31
0
  0
LINE
  8
1
 62
7
 10
-279.9640762758349
 20
25.2917594231039
 30
0
 11
-279.5157885397509
 21
26.96479203057959
 31
0
  0
LINE
  8
1
 62
7
 10
-281.6371088833105
 20
24.8434716870199
 30
0
 11
-279.9640762758349
 21
25.2917594231039
 31
0
  0
LINE
  8
1
 62
7
 10
-282.8618537547021
 20
26.06821655841149
 30
0
 11
-281.6371088833105
 21
24.8434716870199
 31
0
  0
LINE
  8
1
 62
7
 10
-282.4135660186181
 20
27.7412491658871
 30
0
 11
-282.8618537547021
 21
26.06821655841149
 31
0
  0
LINE
  8
1
 62
7
 10
-226.4827799507598
 20
26.06821655841149
 30
0
 11
-226.9310676868438
 21
27.7412491658871
 31
0
  0
LINE
  8
1
 62
7
 10
-227.7075248221514
 20
24.8434716870199
 30
0
 11
-226.4827799507598
 21
26.06821655841149
 31
0
  0
LINE
  8
1
 62
7
 10
-229.380557429627
 20
25.2917594231039
 30
0
 11
-227.7075248221514
 21
24.8434716870199
 31
0
  0
LINE
  8
1
 62
7
 10
-229.828845165711
 20
26.96479203057959
 30
0
 11
-229.380557429627
 21
25.2917594231039
 31
0
  0
LINE
  8
1
 62
7
 10
-228.6041002943194
 20
28.18953690197119
 30
0
 11
-229.828845165711
 21
26.96479203057959
 31
0
  0
LINE
  8
1
 62
7
 10
-226.9310676868438
 20
27.7412491658871
 30
0
 11
-228.6041002943194
 21
28.18953690197119
 31
0
  0
LINE
  8
1
 62
7
 10
-234.2281229908506
 20
12.95816136790079
 30
0
 11
-231.4540615272962
 21
14.55976650063246
 31
0
  0
LINE
  8
1
 62
7
 10
-233.2281229908506
 20
11.22611056033192
 30
0
 11
-230.4540615272962
 21
12.8277156930636
 31
0
  0
LINE
  8
1
 62
7
 10
-239.0534036040815
 20
10.1722843069364
 30
0
 11
-236.2793421405272
 21
11.77388943966808
 31
0
  0
LINE
  8
1
 62
7
 10
-238.0534036040815
 20
8.440233499367537
 30
0
 11
-235.2793421405272
 21
10.04183863209921
 31
0
  0
LINE
  8
1
 62
7
 10
-276.1165107146113
 20
11.22611056033193
 30
0
 11
-278.8905721781657
 21
12.82771569306361
 31
0
  0
LINE
  8
1
 62
7
 10
-275.1165107146114
 20
12.9581613679008
 30
0
 11
-277.8905721781657
 21
14.55976650063248
 31
0
  0
LINE
  8
1
 62
7
 10
-271.2912301013803
 20
8.440233499367551
 30
0
 11
-274.0652915649347
 21
10.04183863209923
 31
0
  0
LINE
  8
1
 62
7
 10
-270.2912301013804
 20
10.17228430693642
 30
0
 11
-273.0652915649347
 21
11.7738894396681
 31
0
  0
LINE
  8
1
 62
7
 10
-253.672316852731
 20
-24.18427192823272
 30
0
 11
-253.672316852731
 21
-27.38748219369607
 31
0
  0
LINE
  8
1
 62
7
 10
-255.672316852731
 20
-24.18427192823272
 30
0
 11
-255.672316852731
 21
-27.38748219369607
 31
0
  0
LINE
  8
1
 62
7
 10
-253.672316852731
 20
-18.61251780630395
 30
0
 11
-253.672316852731
 21
-21.8157280717673
 31
0
  0
LINE
  8
1
 62
7
 10
-255.672316852731
 20
-18.61251780630395
 30
0
 11
-255.672316852731
 21
-21.8157280717673
 31
0
  0
LINE
  8
1
 62
7
 10
-214.6723168527309
 20
-55
 30
0
 11
-214.6723168527309
 21
-47.3105122174944
 31
0
  0
LINE
  8
1
 62
7
 10
-294.6723168527309
 20
-55
 30
0
 11
-294.672316852731
 21
-47.3105122174944
 31
0
  0
LINE
  8
1
 62
3
  6
DASHDOT
 10
-254.6723168527309
 20
3
 30
0
 11
-254.6723168527309
 21
-3
 31
0
  0
LINE
  8
1
 62
3
  6
DASHDOT
 10
-251.6723168527309
 20
0
 30
0
 11
-257.6723168527309
 21
0
 31
0
  0
LINE
  8
1
 62
3
  6
DASHDOT
 10
-254.6723168527309
 20
27
 30
0
 11
-254.6723168527309
 21
18
 31
0
  0
LINE
  8
1
 62
3
  6
DASHDOT
 10
-278.0550027549107
 20
-13.5
 30
0
 11
-270.2607741208508
 21
-9
 31
0
  0
LINE
  8
1
 62
3
  6
DASHDOT
 10
-231.289630950551
 20
-13.50000000000003
 30
0
 11
-239.083859584611
 21
-9.000000000000028
 31
0
  0
LINE
  8
1
 62
7
  6
DASHED
 10
-288.1723168527309
 20
-46.99999999999999
 30
0
 11
-288.1723168527309
 21
-55
 31
0
  0
LINE
  8
1
 62
7
  6
DASHED
 10
-281.1723168527309
 20
-55
 30
0
 11
-281.1723168527309
 21
-46.99999999999999
 31
0
  0
LINE
  8
1
 62
7
  6
DASHED
 10
-228.1723168527309
 20
-46.99999999999999
 30
0
 11
-228.1723168527309
 21
-55
 31
0
  0
LINE
  8
1
 62
7
  6
DASHED
 10
-221.1723168527309
 20
-55
 30
0
 11
-221.1723168527309
 21
-46.99999999999999
 31
0
  0
LINE
  8
1
 62
3
  6
DASHDOT
 10
3.212415560188528
 20
0
 30
0
 11
-16.74228497819072
 21
1.77635683940025e-015
 31
0
  0
LINE
  8
1
 62
3
  6
DASHED
 10
-9.787584439811472
 20
2
 30
0
 11
-10.8268149243528
 21
1.4
 31
0
  0
LINE
  8
1
 62
3
  6
DASHED
 10
-9.787584439811472
 20
-2
 30
0
 11
-10.8268149243528
 21
-1.399999999999999
 31
0
  0
LINE
  8
1
 62
3
  6
DASHED
 10
-9.787584439811472
 20
2
 30
0
 11
-1.787584439811472
 21
2
 31
0
  0
LINE
  8
1
 62
7
  6
DASHED
 10
-9.787584439811472
 20
-2
 30
0
 11
-9.787584439811472
 21
2
 31
0
  0
LINE
  8
1
 62
3
  6
DASHED
 10
-1.787584439811472
 20
-2
 30
0
 11
-9.787584439811472
 21
-2
 31
0
  0
LINE
  8
1
 62
7
  6
DASHED
 10
-13.74228497819073
 20
1.776356839400251e-015
 30
0
 11
-12.58758443981147
 21
1.400000000000002
 31
0
  0
LINE
  8
1
 62
7
  6
DASHED
 10
-12.58758443981147
 20
-1.399999999999999
 30
0
 11
-13.74228497819073
 21
1.776356839400251e-015
 31
0
  0
LINE
  8
1
 62
7
  6
DASHED
 10
-12.58758443981147
 20
1.400000000000002
 30
0
 11
-1.787584439811472
 21
1.4
 31
0
  0
LINE
  8
1
 62
7
  6
DASHED
 10
-12.58758443981147
 20
-1.399999999999999
 30
0
 11
-12.58758443981147
 21
1.400000000000002
 31
0
  0
LINE
  8
1
 62
7
  6
DASHED
 10
-1.787584439811472
 20
-1.4
 30
0
 11
-12.58758443981147
 21
-1.399999999999999
 31
0
  0
LINE
  8
1
 62
7
  6
DASHED
 10
-56.28758443981147
 20
-55
 30
0
 11
-56.28758443981147
 21
-46.99999999999999
 31
0
  0
LINE
  8
1
 62
7
  6
DASHED
 10
-63.28758443981147
 20
-46.99999999999999
 30
0
 11
-63.28758443981147
 21
-55
 31
0
  0
LINE
  8
1
 62
7
  6
DASHED
 10
-126.2875844398115
 20
-55
 30
0
 11
-126.2875844398115
 21
-46.99999999999999
 31
0
  0
LINE
  8
1
 62
7
  6
DASHED
 10
-133.2875844398115
 20
-46.99999999999999
 30
0
 11
-133.2875844398115
 21
-55
 31
0
  0
LINE
  8
1
 62
3
  6
DASHDOT
 10
-163.7875844398115
 20
22.5
 30
0
 11
-146.7875844398115
 21
22.5
 31
0
  0
LINE
  8
1
 62
7
  6
DASHED
 10
-149.7875844398115
 20
20.6
 30
0
 11
-160.7875844398115
 21
20.6
 31
0
  0
LINE
  8
1
 62
7
  6
DASHED
 10
-160.7875844398115
 20
24.4
 30
0
 11
-149.7875844398115
 21
24.4
 31
0
  0
LINE
  8
1
 62
3
  6
DASHED
 10
-149.7875844398115
 20
20
 30
0
 11
-160.7875844398115
 21
20
 31
0
  0
LINE
  8
1
 62
3
  6
DASHED
 10
-160.7875844398115
 20
25
 30
0
 11
-149.7875844398115
 21
25
 31
0
  0
LINE
  8
1
 62
7
 10
-41.98758443981149
 20
-31.99845615970393
 30
0
 11
-41.98758443981149
 21
-32.49783316888558
 31
0
  0
LINE
  8
1
 62
7
 10
-173.7875844398115
 20
-6
 30
0
 11
-173.7875844398115
 21
-5
 31
0
  0
LINE
  8
1
 62
7
 10
-173.7875844398115
 20
6
 30
0
 11
-173.7875844398115
 21
5
 31
0
  0
LINE
  8
1
 62
7
 10
-167.7875844398115
 20
-10.14187665716977
 30
0
 11
-169.6013865867841
 21
-13.28347413060379
 31
0
  0
LINE
  8
1
 62
7
 10
-1.787584439811472
 20
-6
 30
0
 11
-1.787584439811472
 21
7.5
 31
0
  0
LINE
  8
1
 62
7
 10
-21.78758443981147
 20
7.5
 30
0
 11
-1.787584439811472
 21
7.5
 31
0
  0
LINE
  8
1
 62
7
 10
-21.78758443981147
 20
6
 30
0
 11
-21.78758443981147
 21
7.5
 31
0
  0
LINE
  8
1
 62
7
 10
-69.78758443981147
 20
-30.99999999999999
 30
0
 11
-66.98758443981134
 21
-30.99999999999999
 31
0
  0
LINE
  8
1
 62
7
 10
-69.78758443981147
 20
31
 30
0
 11
-66.98758443981134
 21
31
 31
0
  0
LINE
  8
1
 62
7
 10
-66.98758443981134
 20
-30.99999999999999
 30
0
 11
-66.98758443981134
 21
31
 31
0
  0
LINE
  8
1
 62
7
 10
-30.28758443981147
 20
9.853605762250993
 30
0
 11
-30.28758443981147
 21
-9.853605762250993
 31
0
  0
LINE
  8
1
 62
7
 10
-26.78758443981147
 20
7.5
 30
0
 11
-26.78758443981147
 21
-7.5
 31
0
  0
LINE
  8
1
 62
7
 10
-26.78758443981147
 20
-6
 30
0
 11
-1.787584439811472
 21
-6
 31
0
  0
LINE
  8
1
 62
7
 10
-26.78758443981147
 20
6
 30
0
 11
-1.787584439811472
 21
6
 31
0
  0
LINE
  8
1
 62
7
 10
-49.58873890581488
 20
33
 30
0
 11
-60.48873890581476
 21
33
 31
0
  0
LINE
  8
1
 62
7
 10
-49.58873890581488
 20
33
 30
0
 11
-49.58873890581488
 21
-33.00000000000003
 31
0
  0
LINE
  8
1
 62
7
 10
-60.48873890581476
 20
-33.00000000000006
 30
0
 11
-49.58873890581488
 21
-33.00000000000003
 31
0
  0
LINE
  8
1
 62
7
 10
-122.8875844398115
 20
-30.99999999999999
 30
0
 11
-119.7875844398115
 21
-30.99999999999999
 31
0
  0
LINE
  8
1
 62
7
 10
-122.8875844398115
 20
31
 30
0
 11
-122.8875844398115
 21
-30.99999999999999
 31
0
  0
LINE
  8
1
 62
7
 10
-122.8875844398115
 20
31
 30
0
 11
-119.7875844398115
 21
31
 31
0
  0
LINE
  8
1
 62
7
 10
-170.0343992886763
 20
13.03347413060374
 30
0
 11
-170.0343992886763
 21
-13.03347413060379
 31
0
  0
LINE
  8
1
 62
7
 10
-170.0343992886763
 20
-13.03347413060379
 30
0
 11
-169.6013865867841
 21
-13.28347413060379
 31
0
  0
LINE
  8
1
 62
3
 10
-172.2875844398115
 20
-5.4585
 30
0
 11
-173.7875844398115
 21
-5.4585
 31
0
  0
LINE
  8
1
 62
3
 10
-173.7875844398115
 20
5.4585
 30
0
 11
-172.2875844398115
 21
5.4585
 31
0
  0
LINE
  8
1
 62
7
 10
-172.2875844398115
 20
10.86784247217452
 30
0
 11
-170.0343992886763
 21
10.86784247217452
 31
0
  0
LINE
  8
1
 62
7
 10
-169.6013865867841
 20
13.28347413060374
 30
0
 11
-170.0343992886763
 21
13.03347413060374
 31
0
  0
LINE
  8
1
 62
7
 10
-169.6013865867841
 20
13.28347413060374
 30
0
 11
-167.7875844398115
 21
10.14187665716972
 31
0
  0
LINE
  8
1
 62
3
  6
DASHDOT
 10
-178.7875844398115
 20
0
 30
0
 11
-173.7875844398115
 21
0
 31
0
  0
LINE
  8
1
 62
7
 10
-173.7875844398115
 20
-6
 30
0
 11
-172.2875844398115
 21
-6
 31
0
  0
LINE
  8
1
 62
7
 10
-173.7875844398115
 20
6
 30
0
 11
-172.2875844398115
 21
6
 31
0
  0
LINE
  8
1
 62
7
 10
-172.2875844398115
 20
-10.86784247217452
 30
0
 11
-169.9387718060959
 21
-10.86784247217452
 31
0
  0
LINE
  8
1
 62
7
 10
-172.2875844398115
 20
10.86784247217452
 30
0
 11
-172.2875844398115
 21
-10.86784247217452
 31
0
  0
LINE
  8
1
 62
7
 10
-173.7875844398115
 20
5
 30
0
 11
-173.7875844398115
 21
-5
 31
0
  0
LINE
  8
1
 62
7
 10
-167.7875844398115
 20
-17.49999999999999
 30
0
 11
-160.7875844398115
 21
-17.49999999999999
 31
0
  0
LINE
  8
1
 62
7
 10
-167.7875844398115
 20
17.5
 30
0
 11
-160.7875844398115
 21
17.5
 31
0
  0
LINE
  8
1
 62
7
 10
-167.7875844398115
 20
17.5
 30
0
 11
-167.7875844398115
 21
-17.49999999999999
 31
0
  0
LINE
  8
1
 62
7
 10
-147.9828926651403
 20
23
 30
0
 11
-147.9828926651403
 21
-32.74999999999999
 31
0
  0
LINE
  8
1
 62
7
 10
-147.5828926651403
 20
33.5
 30
0
 11
-147.5828926651403
 21
-33.49999999999999
 31
0
  0
LINE
  8
1
 62
7
 10
-147.9828926651403
 20
-25.74999999999999
 30
0
 11
-147.5828926651403
 21
-25.74999999999999
 31
0
  0
LINE
  8
1
 62
7
 10
-148.3828926651403
 20
-32.74999999999999
 30
0
 11
-147.9828926651403
 21
-32.74999999999999
 31
0
  0
LINE
  8
1
 62
7
 10
-142.3328839014323
 20
-34.99999999999999
 30
0
 11
-134.4875844398115
 21
-34.99999999999999
 31
0
  0
LINE
  8
1
 62
7
 10
-143.4875844398115
 20
-32.99999999999999
 30
0
 11
-144.2875844398115
 21
-32.99999999999999
 31
0
  0
LINE
  8
1
 62
7
 10
-142.3328839014323
 20
-34.99999999999999
 30
0
 11
-143.4875844398115
 21
-32.99999999999999
 31
0
  0
LINE
  8
1
 62
7
 10
-129.3875844398115
 20
-32.99999999999999
 30
0
 11
-133.9875844398115
 21
-32.99999999999999
 31
0
  0
LINE
  8
1
 62
7
 10
-133.9875844398115
 20
-34.49999999999999
 30
0
 11
-134.4875844398115
 21
-34.99999999999999
 31
0
  0
LINE
  8
1
 62
7
 10
-144.5875844398115
 20
-33.49999999999999
 30
0
 11
-147.5875844398115
 21
-33.49999999999999
 31
0
  0
LINE
  8
1
 62
7
 10
-144.5875844398115
 20
33.5
 30
0
 11
-144.5875844398115
 21
-33.49999999999999
 31
0
  0
LINE
  8
1
 62
7
 10
-148.3828926651403
 20
-32.74999999999999
 30
0
 11
-148.3828926651403
 21
23.103527618041
 31
0
  0
LINE
  8
1
 62
7
 10
-133.9875844398115
 20
-34.49999999999999
 30
0
 11
-133.9875844398115
 21
34.5
 31
0
  0
LINE
  8
1
 62
7
 10
-142.3328839014323
 20
-34.99999999999999
 30
0
 11
-142.3328839014323
 21
35
 31
0
  0
LINE
  8
1
 62
7
 10
-143.4875844398115
 20
-32.99999999999999
 30
0
 11
-143.4875844398115
 21
33
 31
0
  0
LINE
  8
1
 62
7
 10
-144.2875844398115
 20
-32.99999999999999
 30
0
 11
-144.2875844398115
 21
33
 31
0
  0
LINE
  8
1
 62
7
 10
-134.4875844398115
 20
35
 30
0
 11
-142.3328839014323
 21
35
 31
0
  0
LINE
  8
1
 62
7
 10
-144.2875844398115
 20
33
 30
0
 11
-143.4875844398115
 21
33
 31
0
  0
LINE
  8
1
 62
7
 10
-143.4875844398115
 20
33
 30
0
 11
-142.3328839014323
 21
35
 31
0
  0
LINE
  8
1
 62
7
 10
-133.9875844398115
 20
33
 30
0
 11
-129.3875844398115
 21
33
 31
0
  0
LINE
  8
1
 62
7
 10
-134.4875844398115
 20
35
 30
0
 11
-133.9875844398115
 21
34.5
 31
0
  0
LINE
  8
1
 62
7
 10
-149.7875844398115
 20
-19.49999999999999
 30
0
 11
-148.3828926651403
 21
-19.49999999999999
 31
0
  0
LINE
  8
1
 62
7
 10
-149.7875844398115
 20
-26.49999999999999
 30
0
 11
-148.3828926651403
 21
-26.49999999999999
 31
0
  0
LINE
  8
1
 62
7
 10
-147.9828926651403
 20
25.25
 30
0
 11
-147.5828926651403
 21
25.25
 31
0
  0
LINE
  8
1
 62
7
 10
-147.5828926651403
 20
24.4928203230276
 30
0
 11
-147.9828926651403
 21
23
 31
0
  0
LINE
  8
1
 62
7
 10
-148.3828926651403
 20
23.103527618041
 30
0
 11
-147.9828926651403
 21
24.5454813220625
 31
0
  0
LINE
  8
1
 62
7
 10
-148.3828926651403
 20
23.103527618041
 30
0
 11
-147.9828926651403
 21
24.5454813220625
 31
0
  0
LINE
  8
1
 62
7
 10
-147.9828926651403
 20
24.5454813220625
 30
0
 11
-147.9828926651403
 21
32.75
 31
0
  0
LINE
  8
1
 62
7
 10
-147.9828926651403
 20
32.75
 30
0
 11
-147.5828926651403
 21
32.75
 31
0
  0
LINE
  8
1
 62
7
 10
-147.5828926651403
 20
33.5
 30
0
 11
-144.5875844398115
 21
33.5
 31
0
  0
LINE
  8
1
 62
7
 10
-147.9828926651403
 20
23
 30
0
 11
-147.5828926651403
 21
23
 31
0
  0
LINE
  8
1
 62
7
 10
-149.5828926651403
 20
26.3
 30
0
 11
-149.5828926651403
 21
31.69999999999999
 31
0
  0
LINE
  8
1
 62
7
 10
-149.2828926651403
 20
26
 30
0
 11
-147.9828926651403
 21
26
 31
0
  0
LINE
  8
1
 62
7
 10
-148.4828926651403
 20
32
 30
0
 11
-148.4828926651403
 21
26
 31
0
  0
LINE
  8
1
 62
7
 10
-149.2828926651403
 20
32
 30
0
 11
-147.9828926651403
 21
32
 31
0
  0
LINE
  8
1
 62
7
 10
-149.5828926651403
 20
31.69999999999999
 30
0
 11
-149.2828926651403
 21
32
 31
0
  0
LINE
  8
1
 62
7
 10
-149.5828926651403
 20
26.3
 30
0
 11
-149.2828926651403
 21
26
 31
0
  0
LINE
  8
1
 62
7
 10
-149.7875844398115
 20
-30.99999999999999
 30
0
 11
-149.7875844398115
 21
31
 31
0
  0
LINE
  8
1
 62
7
 10
-85.29565105498185
 20
-46.99999999999999
 30
0
 11
-51.78758443981147
 21
-46.99999999999999
 31
0
  0
LINE
  8
1
 62
7
 10
-99.74203558991476
 20
-46.99999999999999
 30
0
 11
-89.83313328970814
 21
-46.99999999999999
 31
0
  0
LINE
  8
1
 62
7
 10
-89.92095518050246
 20
-51.13568953006741
 30
0
 11
-89.30152141434576
 21
-50.43123982524303
 31
0
  0
LINE
  8
1
 62
7
 10
-89.23528496912945
 20
-51.574518465346
 30
0
 11
-88.66596003079746
 21
-50.9742222143734
 31
0
  0
LINE
  8
1
 62
7
 10
-89.56440667058845
 20
-51.39571320813931
 30
0
 11
-88.98935858804114
 21
-50.69793148023039
 31
0
  0
LINE
  8
1
 62
7
 10
-91.23744198633847
 20
-49.95633676650601
 30
0
 11
-90.42469071833637
 21
-49.22424017780581
 31
0
  0
LINE
  8
1
 62
7
 10
-91.42942964552245
 20
-49.7094954904118
 30
0
 11
-90.65027156751245
 21
-48.95514126154075
 31
0
  0
LINE
  8
1
 62
7
 10
-91.01802751869946
 20
-50.2306048510552
 30
0
 11
-90.23744381473316
 21
-49.44760993200988
 31
0
  0
LINE
  8
1
 62
7
 10
-90.99232581140984
 20
-48.54709941458059
 30
0
 11
-89.69388464362595
 21
-50.09603015210011
 31
0
  0
LINE
  8
1
 62
7
 10
-89.69388464362595
 20
-50.09603015210011
 30
0
 11
-88.17260443674206
 21
-51.39571320813931
 31
0
  0
LINE
  8
1
 62
7
 10
-100.2736474652772
 20
-50.43123982524303
 30
0
 11
-99.65421369912045
 21
-51.13568953006741
 31
0
  0
LINE
  8
1
 62
7
 10
-100.9092088488254
 20
-50.9742222143734
 30
0
 11
-100.3398839104935
 21
-51.574518465346
 31
0
  0
LINE
  8
1
 62
7
 10
-100.5858102915818
 20
-50.69793148023039
 30
0
 11
-100.0107622090345
 21
-51.39571320813931
 31
0
  0
LINE
  8
1
 62
7
 10
-99.15047816128654
 20
-49.22424017780581
 30
0
 11
-98.33772689328447
 21
-49.95633676650601
 31
0
  0
LINE
  8
1
 62
7
 10
-98.92489731211046
 20
-48.95514126154075
 30
0
 11
-98.14573923410046
 21
-49.7094954904118
 31
0
  0
LINE
  8
1
 62
7
 10
-99.33772506488975
 20
-49.44760993200988
 30
0
 11
-98.55714136092345
 21
-50.2306048510552
 31
0
  0
LINE
  8
1
 62
7
 10
-99.88128423599696
 20
-50.09603015210011
 30
0
 11
-98.58284306821307
 21
-48.54709941458059
 31
0
  0
LINE
  8
1
 62
7
 10
-101.4025644428808
 20
-51.39571320813931
 30
0
 11
-99.88128423599696
 21
-50.09603015210011
 31
0
  0
LINE
  8
1
 62
7
 10
-70.78758443981147
 20
33
 30
0
 11
-70.78758443981147
 21
-44.99999999999999
 31
0
  0
LINE
  8
1
 62
7
 10
-118.7875844398115
 20
33
 30
0
 11
-70.78758443981147
 21
33
 31
0
  0
LINE
  8
1
 62
7
 10
-68.78758443981147
 20
-30.99999999999999
 30
0
 11
-68.78758443981147
 21
31
 31
0
  0
LINE
  8
1
 62
3
  6
DASHDOT
 10
-59.78758443981147
 20
-58
 30
0
 11
-59.78758443981147
 21
-43.99999999999999
 31
0
  0
LINE
  8
1
 62
7
 10
-111.7875844398115
 20
-52
 30
0
 11
-77.78758443981147
 21
-52
 31
0
  0
LINE
  8
1
 62
7
 10
-75.78758443981147
 20
-55
 30
0
 11
-75.78758443981147
 21
-54
 31
0
  0
LINE
  8
1
 62
7
 10
-75.78758443981147
 20
-55
 30
0
 11
-49.78758443981147
 21
-55
 31
0
  0
LINE
  8
1
 62
7
 10
-49.78758443981147
 20
-55
 30
0
 11
-49.78758443981147
 21
-48.99999999999999
 31
0
  0
LINE
  8
1
 62
7
 10
-118.7875844398115
 20
-44.99999999999999
 30
0
 11
-118.7875844398115
 21
33
 31
0
  0
LINE
  8
1
 62
7
 10
-120.7875844398115
 20
31
 30
0
 11
-120.7875844398115
 21
-30.99999999999999
 31
0
  0
LINE
  8
1
 62
3
  6
DASHDOT
 10
-129.7875844398115
 20
-43.99999999999999
 30
0
 11
-129.7875844398115
 21
-58
 31
0
  0
LINE
  8
1
 62
7
 10
-113.7875844398115
 20
-54
 30
0
 11
-113.7875844398115
 21
-55
 31
0
  0
LINE
  8
1
 62
7
 10
-139.7875844398115
 20
-55
 30
0
 11
-113.7875844398115
 21
-55
 31
0
  0
LINE
  8
1
 62
7
 10
-137.7875844398115
 20
-46.99999999999999
 30
0
 11
-104.2795178246412
 21
-46.99999999999999
 31
0
  0
LINE
  8
1
 62
7
 10
-139.7875844398115
 20
-48.99999999999999
 30
0
 11
-139.7875844398115
 21
-55
 31
0
  0
LINE
  8
1
 62
7
 10
-160.7875844398115
 20
31
 30
0
 11
-160.7875844398115
 21
-30.99999999999999
 31
0
  0
LINE
  8
1
 62
7
 10
-160.7875844398115
 20
-30.99999999999999
 30
0
 11
-149.7875844398115
 21
-30.99999999999999
 31
0
  0
LINE
  8
1
 62
7
 10
-160.7875844398115
 20
31
 30
0
 11
-149.7875844398115
 21
31
 31
0
  0
LINE
  8
1
 62
7
 10
-31.28758443981147
 20
15.5
 30
0
 11
-31.28758443981147
 21
-15.8
 31
0
  0
LINE
  8
1
 62
7
 10
-35.48758443981149
 20
16
 30
0
 11
-31.78758443981147
 21
16
 31
0
  0
LINE
  8
1
 62
7
 10
-43.98758443981149
 20
-30.99845615970393
 30
0
 11
-43.98758443981149
 21
-16.5
 31
0
  0
LINE
  8
1
 62
7
 10
-43.98758443981149
 20
22.4976629144106
 30
0
 11
-43.98758443981149
 21
16.5
 31
0
  0
LINE
  8
1
 62
7
 10
-36.48758443981149
 20
22.9976629144106
 30
0
 11
-43.48758443981149
 21
22.9976629144106
 31
0
  0
LINE
  8
1
 62
7
 10
-49.23773890581488
 20
-33.25
 30
0
 11
-49.23773890581488
 21
33.24999999999999
 31
0
  0
LINE
  8
1
 62
7
 10
-44.48758443981149
 20
16
 30
0
 11
-45.58758443981139
 21
16
 31
0
  0
LINE
  8
1
 62
7
 10
-31.48758443981149
 20
-30.99845615970393
 30
0
 11
-31.48758443981149
 21
-16
 31
0
  0
LINE
  8
1
 62
7
 10
-46.38758443981151
 20
33.24999999999999
 30
0
 11
-46.38758443981151
 21
-33.24999999999999
 31
0
  0
LINE
  8
1
 62
7
 10
-45.98758443981149
 20
23
 30
0
 11
-45.98758443981149
 21
-32.74999999999999
 31
0
  0
LINE
  8
1
 62
7
 10
-45.98758443981149
 20
-32.74999999999999
 30
0
 11
-45.58758443981139
 21
-32.74999999999999
 31
0
  0
LINE
  8
1
 62
7
 10
-45.98758443981149
 20
23
 30
0
 11
-46.38758443981151
 21
24.4928203230276
 31
0
  0
LINE
  8
1
 62
7
 10
-45.58758443981139
 20
-32.74999999999999
 30
0
 11
-45.58758443981139
 21
23.103527618041
 31
0
  0
LINE
  8
1
 62
7
 10
-45.98758443981149
 20
24.5454813220625
 30
0
 11
-45.58758443981139
 21
23.103527618041
 31
0
  0
LINE
  8
1
 62
7
 10
-45.98758443981149
 20
24.5454813220625
 30
0
 11
-45.58758443981139
 21
23.103527618041
 31
0
  0
LINE
  8
1
 62
7
 10
-45.98758443981149
 20
32.75
 30
0
 11
-45.98758443981149
 21
24.5454813220625
 31
0
  0
LINE
  8
1
 62
7
 10
-46.38758443981151
 20
32.75
 30
0
 11
-45.98758443981149
 21
32.75
 31
0
  0
LINE
  8
1
 62
7
 10
-49.23773890581488
 20
33.24999999999999
 30
0
 11
-46.38758443981151
 21
33.24999999999999
 31
0
  0
LINE
  8
1
 62
7
 10
-49.23773890581488
 20
-33.25
 30
0
 11
-46.38758443981151
 21
-33.24999999999999
 31
0
  0
LINE
  8
1
 62
7
 10
-44.38758443981151
 20
31.69999999999999
 30
0
 11
-44.38758443981151
 21
26.3
 31
0
  0
LINE
  8
1
 62
7
 10
-45.98758443981149
 20
26
 30
0
 11
-44.68758443981159
 21
26
 31
0
  0
LINE
  8
1
 62
7
 10
-45.48758443981149
 20
26
 30
0
 11
-45.48758443981149
 21
32
 31
0
  0
LINE
  8
1
 62
7
 10
-45.98758443981149
 20
32
 30
0
 11
-44.68758443981159
 21
32
 31
0
  0
LINE
  8
1
 62
7
 10
-44.68758443981159
 20
32
 30
0
 11
-44.38758443981151
 21
31.69999999999999
 31
0
  0
LINE
  8
1
 62
7
 10
-44.68758443981159
 20
26
 30
0
 11
-44.38758443981151
 21
26.3
 31
0
  0
LINE
  8
1
 62
7
 10
-35.48758443981149
 20
-31.49845615970393
 30
0
 11
-31.98758443981149
 21
-31.49845615970393
 31
0
  0
LINE
  8
1
 62
7
 10
-41.48758443981149
 20
-32.99783316888558
 30
0
 11
-36.48758443981149
 21
-32.99783316888558
 31
0
  0
LINE
  8
1
 62
7
 10
-43.48758443981149
 20
-31.49845615970393
 30
0
 11
-42.48758443981149
 21
-31.49845615970393
 31
0
  0
LINE
  8
1
 62
7
 10
-44.48758443981149
 20
-16
 30
0
 11
-45.58758443981139
 21
-16
 31
0
  0
LINE
  8
1
 62
7
 10
-43.98758443981149
 20
-18.50000000000001
 30
0
 11
-45.58758443981139
 21
-18.50000000000001
 31
0
  0
LINE
  8
1
 62
7
 10
-43.98758443981149
 20
-27.50000000000001
 30
0
 11
-45.58758443981139
 21
-27.50000000000001
 31
0
  0
LINE
  8
1
 62
7
 10
-31.28758443981147
 20
9.853605762250993
 30
0
 11
-30.28758443981147
 21
9.853605762250993
 31
0
  0
LINE
  8
1
 62
7
 10
-31.28758443981147
 20
-9.853605762250993
 30
0
 11
-30.28758443981147
 21
-9.853605762250993
 31
0
  0
LINE
  8
1
 62
7
 10
-26.78758443981147
 20
-7.5
 30
0
 11
-30.28758443981147
 21
-7.5
 31
0
  0
LINE
  8
1
 62
7
 10
-26.78758443981147
 20
7.5
 30
0
 11
-30.28758443981147
 21
7.5
 31
0
  0
LINE
  8
1
 62
7
 10
-148.3828926651403
 20
18
 30
0
 11
-147.9828926651403
 21
18
 31
0
  0
LINE
  8
1
 62
7
 10
-35.98758443981149
 20
22.4976629144106
 30
0
 11
-35.98758443981149
 21
-32.49783316888558
 31
0
  0
ARC
  8
1
 62
7
  6
DASHED
 10
-59.78758443981147
 20
155
 30
0
 40
3.500000000000072
 50
124.2944351008903
 51
58.99728086612558
  0
ARC
  8
1
 62
7
 10
-59.78758443981147
 20
155
 30
0
 40
3.500000000000016
 50
58.99728086612558
 51
124.2944351008903
  0
ARC
  8
1
 62
7
 10
-60.48873890581476
 20
150.5
 30
0
 40
7.5
 50
90
 51
150.0558915983475
  0
ARC
  8
1
 62
7
 10
-19.78758443981147
 20
125
 30
0
 40
2
 50
90
 51
270
  0
ARC
  8
1
 62
7
 10
-117.7875844398115
 20
92.99999999999999
 30
0
 40
1
 50
180
 51
270
  0
ARC
  8
1
 62
7
 10
-71.78758443981147
 20
92.99999999999999
 30
0
 40
1
 50
270
 51
0
  0
ARC
  8
1
 62
7
 10
-120.7875844398115
 20
86.99999999999999
 30
0
 40
2
 50
270
 51
0
  0
ARC
  8
1
 62
7
 10
-68.78758443981147
 20
86.99999999999999
 30
0
 40
2
 50
180
 51
270
  0
ARC
  8
1
 62
7
 10
-120.7875844398115
 20
163
 30
0
 40
2
 50
0
 51
90
  0
ARC
  8
1
 62
7
 10
-68.78758443981147
 20
163
 30
0
 40
2
 50
90
 51
180
  0
ARC
  8
1
 62
7
 10
-71.78758443981147
 20
157
 30
0
 40
1
 50
0
 51
90
  0
ARC
  8
1
 62
7
 10
-117.7875844398115
 20
157
 30
0
 40
1
 50
90
 51
180
  0
ARC
  8
1
 62
7
 10
-60.48873890581476
 20
99.4999999999999
 30
0
 40
7.499999999999957
 50
209.944108401652
 51
270
  0
ARC
  8
1
 62
7
 10
-69.78758443981147
 20
157
 30
0
 40
1
 50
180
 51
270
  0
ARC
  8
1
 62
7
 10
-51.78758443981147
 20
163
 30
0
 40
2
 50
0
 51
90
  0
ARC
  8
1
 62
7
 10
-69.78758443981147
 20
92.99999999999999
 30
0
 40
1
 50
90
 51
180
  0
ARC
  8
1
 62
7
 10
-51.78758443981147
 20
86.99999999999999
 30
0
 40
2
 50
270
 51
0
  0
ARC
  8
1
 62
7
 10
-137.7875844398115
 20
86.99999999999999
 30
0
 40
2
 50
180
 51
270
  0
ARC
  8
1
 62
7
 10
-137.7875844398115
 20
163
 30
0
 40
2
 50
90
 51
180
  0
ARC
  8
1
 62
7
 10
-119.7875844398115
 20
92.99999999999999
 30
0
 40
1
 50
0
 51
90
  0
ARC
  8
1
 62
7
 10
-119.7875844398115
 20
157
 30
0
 40
1
 50
270
 51
0
  0
ARC
  8
1
 62
7
 10
-35.48758443981149
 20
141.5
 30
0
 40
0.5
 50
180
 51
270
  0
ARC
  8
1
 62
7
 10
-44.48758443981149
 20
108.5
 30
0
 40
0.5
 50
0
 51
90
  0
ARC
  8
1
 62
7
 10
-44.48758443981149
 20
141.5
 30
0
 40
0.5
 50
270
 51
0
  0
ARC
  8
1
 62
7
 10
-43.48758443981149
 20
147.4976629144106
 30
0
 40
0.5
 50
90
 51
180
  0
ARC
  8
1
 62
7
 10
-36.48758443981149
 20
147.4976629144106
 30
0
 40
0.5
 50
0
 51
90
  0
ARC
  8
1
 62
7
 10
-43.48758443981149
 20
94.00154384029609
 30
0
 40
0.5
 50
180
 51
270
  0
ARC
  8
1
 62
7
 10
-42.48758443981149
 20
93.00154384029609
 30
0
 40
0.5
 50
0
 51
90
  0
ARC
  8
1
 62
7
 10
-41.48758443981149
 20
92.50216683111439
 30
0
 40
0.5
 50
180
 51
270
  0
ARC
  8
1
 62
7
 10
-36.48758443981149
 20
92.50216683111439
 30
0
 40
0.5
 50
270
 51
0
  0
ARC
  8
1
 62
7
 10
-35.48758443981149
 20
93.00154384029609
 30
0
 40
0.5
 50
90
 51
180
  0
ARC
  8
1
 62
7
 10
-31.78758443981147
 20
140.5
 30
0
 40
0.5
 50
0
 51
90
  0
ARC
  8
1
 62
7
 10
-31.48758443981149
 20
109.2
 30
0
 40
0.2000000000000028
 50
270
 51
0
  0
ARC
  8
1
 62
7
 10
-31.98758443981149
 20
94.00154384029609
 30
0
 40
0.5
 50
270
 51
0
  0
ARC
  8
1
 62
7
 10
-129.3875844398115
 20
99.5
 30
0
 40
7.500000000000014
 50
270
 51
330.0735651333853
  0
ARC
  8
1
 62
7
 10
-129.3875844398115
 20
150.5
 30
0
 40
7.499999999999972
 50
29.92643486661408
 51
90
  0
ARC
  8
1
 62
7
 10
-129.7875844398115
 20
94.99999999999999
 30
0
 40
3.500000000000002
 50
238.997280866126
 51
306.6798254076508
  0
ARC
  8
1
 62
7
  6
DASHED
 10
-129.7875844398115
 20
94.99999999999999
 30
0
 40
3.500000000000013
 50
306.6798254076508
 51
238.997280866126
  0
ARC
  8
1
 62
7
 10
-59.78758443981147
 20
94.99999999999999
 30
0
 40
3.500000000000026
 50
235.7055648991141
 51
301.002719133872
  0
ARC
  8
1
 62
7
  6
DASHED
 10
-59.78758443981147
 20
94.99999999999999
 30
0
 40
3.500000000000027
 50
301.002719133872
 51
235.7055648991141
  0
ARC
  8
1
 62
7
  6
DASHED
 10
-129.7875844398115
 20
155
 30
0
 40
3.500000000000002
 50
121.002719133874
 51
53.32017459234707
  0
ARC
  8
1
 62
7
 10
-129.7875844398115
 20
155
 30
0
 40
3.500000000000004
 50
53.32017459234707
 51
121.002719133874
  0
ARC
  8
1
 62
7
 10
-216.6723168527309
 20
-48.99999999999999
 30
0
 40
2
 50
0
 51
90
  0
ARC
  8
1
 62
7
 10
-216.6723168527309
 20
-47.3105122174944
 30
0
 40
2
 50
0
 51
17.65012421993033
  0
ARC
  8
1
 62
7
 10
-232.6723168527309
 20
-48.99999999999999
 30
0
 40
2
 50
90
 51
180
  0
ARC
  8
1
 62
7
 10
-236.6723168527309
 20
-54
 30
0
 40
2
 50
0
 51
90
  0
ARC
  8
1
 62
7
 10
-272.6723168527309
 20
-54
 30
0
 40
2
 50
90
 51
180
  0
ARC
  8
1
 62
7
 10
-276.6723168527309
 20
-48.99999999999999
 30
0
 40
2
 50
0
 51
90
  0
ARC
  8
1
 62
7
 10
-292.6723168527309
 20
-48.99999999999999
 30
0
 40
2
 50
90
 51
180
  0
ARC
  8
1
 62
7
 10
-292.6723168527309
 20
-47.3105122174944
 30
0
 40
2.000000000000104
 50
162.3498757800709
 51
180
  0
ARC
  8
1
 62
7
 10
-283.6723168527309
 20
29
 30
0
 40
4
 50
90
 51
180
  0
ARC
  8
1
 62
7
 10
-225.6723168527309
 20
29
 30
0
 40
4
 50
0
 51
90
  0
ARC
  8
1
 62
7
 10
-254.6723168527309
 20
0
 30
0
 40
42.64022510128904
 50
313.3634317184163
 51
316.6365682815837
  0
ARC
  8
1
 62
7
 10
-254.6723168527309
 20
0
 30
0
 40
42.64022510128906
 50
223.3634317184164
 51
226.6365682815836
  0
ARC
  8
1
 62
7
 10
-254.6723168527309
 20
0
 30
0
 40
42.64022510128909
 50
133.3634317184164
 51
136.6365682815836
  0
ARC
  8
1
 62
7
 10
-254.6723168527309
 20
0
 30
0
 40
42.64022510128906
 50
43.36343171841636
 51
46.63656828158366
  0
ARC
  8
1
 62
7
 10
-254.6723168527309
 20
0
 30
0
 40
11.00000000000013
 50
188.8904350669841
 51
261.1095649330153
  0
ARC
  8
1
 62
7
 10
-254.6723168527309
 20
0
 30
0
 40
11
 50
98.8904350669841
 51
171.1095649330159
  0
ARC
  8
1
 62
7
 10
-254.6723168527309
 20
0
 30
0
 40
11
 50
278.8904350669835
 51
351.1095649330156
  0
ARC
  8
1
 62
7
 10
-254.6723168527309
 20
0
 30
0
 40
10.99999999999998
 50
8.890435066984109
 51
81.1095649330165
  0
ARC
  8
1
 62
7
 10
-254.6723168527309
 20
-41.87900815193181
 30
0
 40
2.999999999999992
 50
131.8103148957787
 51
48.18968510422136
  0
ARC
  8
1
 62
7
 10
-255.6723168527309
 20
-41.87900815193181
 30
0
 40
1
 50
180
 51
0
  0
ARC
  8
1
 62
7
 10
-253.6723168527309
 20
-41.87900815193181
 30
0
 40
1
 50
180
 51
0
  0
ARC
  8
1
 62
7
 10
-228.1558125582354
 20
-26.51650429449555
 30
0
 40
3.49999999999997
 50
177.5114037779368
 51
92.48859622206416
  0
ARC
  8
1
 62
7
 10
-228.1558125582354
 20
-26.51650429449555
 30
0
 40
3.5
 50
270
 51
92.48859622206416
  0
ARC
  8
1
 62
7
 10
-228.1558125582354
 20
-26.51650429449555
 30
0
 40
3.5
 50
270
 51
92.48859622206416
  0
ARC
  8
1
 62
7
 10
-281.1888211472265
 20
-26.51650429449555
 30
0
 40
3.500000000000024
 50
87.51140377793539
 51
2.488596222063204
  0
ARC
  8
1
 62
7
 10
-281.1888211472265
 20
26.51650429449549
 30
0
 40
3.499999999999968
 50
357.5114037779377
 51
272.4885962220646
  0
ARC
  8
1
 62
7
 10
-228.1558125582354
 20
26.51650429449549
 30
0
 40
3.499999999999962
 50
267.5114037779358
 51
182.4885962220623
  0
ARC
  8
1
 62
7
 10
-274.5909011397731
 20
11.50000000000001
 30
0
 40
6.000000000000006
 50
350.3641348063176
 51
309.6358651936832
  0
ARC
  8
1
 62
7
 10
-234.7537325656889
 20
11.5
 30
0
 40
5.999999999999985
 50
230.3641348063179
 51
189.6358651936823
  0
ARC
  8
1
 62
7
 10
-254.672316852731
 20
-23.00000000000001
 30
0
 40
6.000000000000008
 50
110.3641348063174
 51
69.6358651936817
  0
ARC
  8
1
 62
3
  6
DASHDOT
 10
-254.6723168527309
 20
0
 30
0
 40
22.5
 50
75.00000000000007
 51
105
  0
ARC
  8
1
 62
3
  6
DASHDOT
 10
-254.6723168527309
 20
0
 30
0
 40
22.49999999999996
 50
194.9999999999999
 51
225
  0
ARC
  8
1
 62
3
  6
DASHDOT
 10
-254.6723168527309
 20
0
 30
0
 40
22.5
 50
314.9999999999998
 51
344.9999999999999
  0
ARC
  8
1
 62
7
 10
-60.48873890581476
 20
-25.50000000000006
 30
0
 40
7.499999999999942
 50
209.9441084016518
 51
270
  0
ARC
  8
1
 62
7
 10
-51.78758443981147
 20
-48.99999999999999
 30
0
 40
2
 50
0
 51
90
  0
ARC
  8
1
 62
7
 10
-68.78758443981147
 20
-44.99999999999999
 30
0
 40
2
 50
180
 51
270
  0
ARC
  8
1
 62
7
 10
-77.78758443981147
 20
-54
 30
0
 40
2
 50
0
 51
90
  0
ARC
  8
1
 62
7
 10
-120.7875844398115
 20
-44.99999999999999
 30
0
 40
2
 50
270
 51
0
  0
ARC
  8
1
 62
7
 10
-111.7875844398115
 20
-54
 30
0
 40
2
 50
90
 51
180
  0
ARC
  8
1
 62
7
 10
-137.7875844398115
 20
-48.99999999999999
 30
0
 40
2
 50
90
 51
180
  0
ARC
  8
1
 62
7
 10
-69.78758443981147
 20
-31.99999999999999
 30
0
 40
1
 50
90
 51
180
  0
ARC
  8
1
 62
7
 10
-69.78758443981147
 20
32
 30
0
 40
1
 50
180
 51
270
  0
ARC
  8
1
 62
7
 10
-119.7875844398115
 20
-31.99999999999999
 30
0
 40
1
 50
0
 51
90
  0
ARC
  8
1
 62
7
 10
-119.7875844398115
 20
32
 30
0
 40
1
 50
270
 51
0
  0
ARC
  8
1
 62
7
 10
-31.78758443981147
 20
15.5
 30
0
 40
0.5
 50
0
 51
90
  0
ARC
  8
1
 62
7
 10
-35.48758443981149
 20
16.5
 30
0
 40
0.5
 50
180
 51
270
  0
ARC
  8
1
 62
7
 10
-31.48758443981149
 20
-15.8
 30
0
 40
0.1999999999999993
 50
270
 51
0
  0
ARC
  8
1
 62
7
 10
-44.48758443981149
 20
-16.5
 30
0
 40
0.5
 50
0
 51
90
  0
ARC
  8
1
 62
7
 10
-44.48758443981149
 20
16.5
 30
0
 40
0.5
 50
270
 51
0
  0
ARC
  8
1
 62
7
 10
-43.48758443981149
 20
22.4976629144106
 30
0
 40
0.5
 50
90
 51
180
  0
ARC
  8
1
 62
7
 10
-36.48758443981149
 20
22.4976629144106
 30
0
 40
0.5
 50
0
 51
90
  0
ARC
  8
1
 62
7
 10
-43.48758443981149
 20
-30.99845615970393
 30
0
 40
0.5
 50
180
 51
270
  0
ARC
  8
1
 62
7
 10
-42.48758443981149
 20
-31.99845615970393
 30
0
 40
0.5
 50
0
 51
90
  0
ARC
  8
1
 62
7
 10
-41.48758443981149
 20
-32.49783316888558
 30
0
 40
0.5
 50
180
 51
270
  0
ARC
  8
1
 62
7
 10
-36.48758443981149
 20
-32.49783316888558
 30
0
 40
0.5
 50
270
 51
0
  0
ARC
  8
1
 62
7
 10
-35.48758443981149
 20
-31.99845615970393
 30
0
 40
0.5
 50
90
 51
180
  0
ARC
  8
1
 62
7
 10
-31.98758443981149
 20
-30.99845615970393
 30
0
 40
0.5
 50
270
 51
0
  0
ARC
  8
1
 62
7
 10
-129.3875844398115
 20
-25.50000000000003
 30
0
 40
7.499999999999965
 50
270
 51
330.0735651333857
  0
ARC
  8
1
 62
7
 10
-129.3875844398115
 20
25.5
 30
0
 40
7.499999999999963
 50
29.92643486661397
 51
90
  0
ARC
  8
1
 62
7
 10
-85.78758443981147
 20
-39.99999999999999
 30
0
 40
3.000000000000045
 50
307.6698869643305
 51
223.7617426926809
  0
ARC
  8
1
 62
7
 10
-100.7875844398115
 20
-39.99999999999999
 30
0
 40
17.00000000000008
 50
317.9069917721908
 51
0
  0
ARC
  8
1
 62
7
 10
-100.7875844398115
 20
-39.99999999999999
 30
0
 40
15.00000000000007
 50
317.6956491403901
 51
0
  0
ARC
  8
1
 62
7
 10
-84.78758443981147
 20
-39.99999999999999
 30
0
 40
1
 50
0
 51
180
  0
ARC
  8
1
 62
7
 10
-86.78758443981147
 20
-39.99999999999999
 30
0
 40
1
 50
0
 51
180
  0
ARC
  8
1
 62
7
 10
-100.7875844398115
 20
-39.99999999999999
 30
0
 40
13.00000000000004
 50
318.8928570641602
 51
0
  0
ARC
  8
1
 62
7
 10
-103.7875844398115
 20
-39.99999999999999
 30
0
 40
2.999999999999959
 50
316.2382573073193
 51
232.3301130356691
  0
ARC
  8
1
 62
7
 10
-88.78758443981147
 20
-39.99999999999999
 30
0
 40
17.00000000000003
 50
180
 51
222.0930082278094
  0
ARC
  8
1
 62
7
 10
-88.78758443981147
 20
-39.99999999999999
 30
0
 40
15.00000000000003
 50
180
 51
222.3043508596101
  0
ARC
  8
1
 62
7
 10
-104.7875844398115
 20
-39.99999999999999
 30
0
 40
1
 50
0
 51
180
  0
ARC
  8
1
 62
7
 10
-102.7875844398115
 20
-39.99999999999999
 30
0
 40
1
 50
0
 51
180
  0
ARC
  8
1
 62
7
 10
-88.78758443981147
 20
-39.99999999999999
 30
0
 40
13.00000000000003
 50
180
 51
221.10714293584
  0
ARC
  8
1
 62
7
 10
-60.48873890581476
 20
25.5
 30
0
 40
7.5
 50
90
 51
150.0558915983482
  0
CIRCLE
  8
1
 62
3
 10
-254.6723168527309
 20
0
 30
0
 40
5.458499999999987
  0
CIRCLE
  8
1
 62
7
 10
-235.1867452675811
 20
-11.25000000000001
 30
0
 40
1.599999999999994
  0
CIRCLE
  8
1
 62
3
 10
-235.1867452675811
 20
-11.25000000000001
 30
0
 40
2.5
  0
CIRCLE
  8
1
 62
7
 10
-274.1578884378808
 20
-11.24999999999999
 30
0
 40
1.599999999999966
  0
CIRCLE
  8
1
 62
3
 10
-274.1578884378808
 20
-11.24999999999999
 30
0
 40
2.5
  0
CIRCLE
  8
1
 62
7
 10
-254.6723168527309
 20
0
 30
0
 40
6
  0
CIRCLE
  8
1
 62
7
 10
-254.6723168527309
 20
22.5
 30
0
 40
1.599999999999881
  0
CIRCLE
  8
1
 62
3
 10
-254.6723168527309
 20
22.5
 30
0
 40
2.5
  0
CIRCLE
  8
1
 62
7
 10
-254.6723168527309
 20
0
 30
0
 40
33.5
  0
CIRCLE
  8
1
 62
7
 10
-254.6723168527309
 20
0
 30
0
 40
35
  0
CIRCLE
  8
1
 62
7
 10
-254.6723168527309
 20
0
 30
0
 40
31
  0
CIRCLE
  8
1
 62
7
 10
-234.7537325656889
 20
11.5
 30
0
 40
1.549999999999983
  0
CIRCLE
  8
1
 62
7
 10
-274.5909011397731
 20
11.50000000000001
 30
0
 40
4.5
  0
CIRCLE
  8
1
 62
7
 10
-274.5909011397731
 20
11.50000000000001
 30
0
 40
1.549999999999898
  0
CIRCLE
  8
1
 62
7
 10
-254.6723168527309
 20
0
 30
0
 40
31
  0
CIRCLE
  8
1
 62
7
 10
-254.6723168527309
 20
0
 30
0
 40
31
  0
CIRCLE
  8
1
 62
7
 10
-254.672316852731
 20
-23.00000000000001
 30
0
 40
4.5
  0
CIRCLE
  8
1
 62
7
 10
-254.672316852731
 20
-23.00000000000001
 30
0
 40
1.550000000000011
  0
CIRCLE
  8
1
 62
7
 10
-234.7537325656889
 20
11.5
 30
0
 40
4.5
  0
CIRCLE
  8
1
 62
7
 10
-254.6723168527309
 20
0
 30
0
 40
17.5
  0
TEXT
  8
1
 62
7
 10
-279.8723168527309
 20
128.6502668074566
 30
0
 40
5
  1
TMAP 0.6
 41
0.9
  7
SIMPLEX
  0
TEXT
  8
1
 62
7
 10
-279.8723168527309
 20
118.1502668074566
 30
0
 40
5
  1
DC2401
 41
0.9
  7
SIMPLEX
  0
TEXT
  8
1
 62
7
 10
-88.96738883361547
 20
-35.37898807271831
 30
0
 40
3.5
  1
BR
 41
0.8910000000000004
  7
SIMPLEX
  0
TEXT
  8
1
 62
7
 10
-106.9375844398115
 20
-35.37898807271831
 30
0
 40
3.5
  1
CL
 41
0.8910000000000004
  7
SIMPLEX
  0
ENDSEC
  0
EOF
