  0
SECTION
  2
HEADER
  9
$ACADVER
  1
AC1009
  9
$INSBASE
 10
0
 20
0
  9
$EXTMIN
 10
-398.0486326243599
 20
-68
  9
$EXTMAX
 10
5
 20
207
  9
$LIMMIN
 10
-398.0486326243599
 20
-68
  9
$LIMMAX
 10
5
 20
207
  9
$VIEWCTR
 10
10
 20
10
  9
$VIEWSIZE
 40
10
  9
$SNAPMODE
 70
0
  9
$SNAPUNIT
 10
1
 20
1
  9
$SNAPBASE
 10
0
 20
0
  9
$SNAPANG
 50
0
  9
$SNAPSTYLE
 70
0
  9
$SNAPISOPAIR
 70
0
  9
$GRIDMODE
 70
0
  9
$GRIDUNIT
 10
0
 20
0
  9
$ORTHOMODE
 70
0
  9
$REGENMODE
 70
1
  9
$FILLMODE
 70
1
  9
$QTEXTMODE
 70
0
  9
$DRAGMODE
 70
2
  9
$LTSCALE
 40
1
  9
$OSMODE
 70
0
  9
$ATTMODE
 70
1
  9
$TEXTSIZE
 40
3.5
  9
$TRACEWID
 40
0.5
  9
$TEXTSTYLE
  7
STANDARD
  9
$CLAYER
  8
0
  9
$CELTYPE
  6
BYLAYER
  9
$CECOLOR
 62
256
  9
$DIMSCALE
 40
1
  9
$DIMASZ
 40
0.18
  9
$DIMEXO
 40
0.0625
  9
$DIMDLI
 40
0.38
  9
$DIMRND
 40
0
  9
$DIMDLE
 40
0
  9
$DIMEXE
 40
0.18
  9
$DIMTP
 40
0
  9
$DIMTM
 40
0
  9
$DIMTXT
 40
0.18
  9
$DIMCEN
 40
0.09
  9
$DIMTSZ
 40
0
  9
$DIMTOL
 70
0
  9
$DIMLIM
 70
0
  9
$DIMTIH
 70
1
  9
$DIMTOH
 70
1
  9
$DIMSE1
 70
0
  9
$DIMSE2
 70
0
  9
$DIMTAD
 70
0
  9
$DIMZIN
 70
0
  9
$DIMBLK
  1

  9
$DIMASO
 70
1
  9
$DIMSHO
 70
1
  9
$DIMPOST
  1

  9
$DIMAPOST
  1

  9
$DIMALT
 70
0
  9
$DIMALTD
 70
2
  9
$DIMALTF
 40
25.4
  9
$DIMLFAC
 40
1
  9
$DIMTOFL
 70
0
  9
$DIMTVP
 40
0
  9
$DIMTIX
 70
0
  9
$DIMSOXD
 70
0
  9
$DIMSAH
 70
0
  9
$DIMBLK1
  1

  9
$DIMBLK2
  1

  9
$DIMSTYLE
  2
*UNNAMED
  9
$DIMCLRD
 70
0
  9
$DIMCLRE
 70
0
  9
$DIMCLRT
 70
0
  9
$DIMTFAC
 40
1
  9
$DIMGAP
 40
0.09
  9
$LUNITS
 70
2
  9
$LUPREC
 70
4
  9
$AXISMODE
 70
0
  9
$AXISUNIT
 10
0
 20
0
  9
$SKETCHINC
 40
0.1
  9
$FILLETRAD
 40
2
  9
$AUNITS
 70
0
  9
$AUPREC
 70
0
  9
$MENU
  1
ACAD
  9
$ELEVATION
 40
0
  9
$THICKNESS
 40
0
  9
$VIEWDIR
 10
0
 20
0
 30
1
  9
$LIMCHECK
 70
0
  9
$BLIPMODE
 70
1
  9
$CHAMFERA
 40
0
  9
$CHAMFERB
 40
0
  9
$FASTZOOM
 70
1
  9
$SKPOLY
 70
0
  9
$ANGBASE
 50
0
  9
$ANGDIR
 70
0
  9
$PDMODE
 70
0
  9
$PDSIZE
 40
0
  9
$PLINEWID
 40
0
  9
$COORDS
 70
2
  0
ENDSEC
  0
SECTION
  2
TABLES
  0
TABLE
  2
DIMSTYLE
 70
0
  0
ENDTAB
  0
TABLE
  2
LTYPE
 70
9
  0
LTYPE
  2
CONTINUOUS
 70
64
  3
Solid line
 72
65
 73
0
 40
0
  0
LTYPE
  2
BORDER
 70
64
  3
__ __ . __ __ .
 72
65
 73
6
 40
18.56145018664816
 49
5.303271481899473
 49
-2.651635740949736
 49
5.303271481899473
 49
-2.651635740949736
 49
0
 49
-2.651635740949736
  0
LTYPE
  2
CENTER
 70
64
  3
____ _ ____ _
 72
65
 73
4
 40
21.21308592759789
 49
13.25817870474868
 49
-2.651635740949736
 49
2.651635740949736
 49
-2.651635740949736
  0
LTYPE
  2
DASHDOT
 70
64
  3
__ . __ . __ .
 72
65
 73
4
 40
10.60654296379895
 49
5.303271481899473
 49
-2.651635740949736
 49
0
 49
-2.651635740949736
  0
LTYPE
  2
DASHED
 70
64
  3
__ __ __ __ __
 72
65
 73
2
 40
7.95490722284921
 49
5.303271481899473
 49
-2.651635740949736
  0
LTYPE
  2
DIVIDE
 70
64
  3
__ . . __ . . 
 72
65
 73
6
 40
13.25817870474868
 49
5.303271481899473
 49
-2.651635740949736
 49
0
 49
-2.651635740949736
 49
0
 49
-2.651635740949736
  0
LTYPE
  2
DOT
 70
64
  3
..............
 72
65
 73
4
 40
5.303271481899473
 49
0
 49
-2.651635740949736
 49
0
 49
-2.651635740949736
  0
LTYPE
  2
HIDDEN
 70
64
  3
_ _ _ _ _ _ _
 72
65
 73
2
 40
3.977453611424605
 49
2.651635740949736
 49
-1.325817870474868
  0
LTYPE
  2
PHANTOM
 70
64
  3
_____ _ _ _____ _ _ 
 72
65
 73
6
 40
26.51635740949736
 49
13.25817870474868
 49
-2.651635740949736
 49
2.651635740949736
 49
-2.651635740949736
 49
2.651635740949736
 49
-2.651635740949736
  0
ENDTAB
  0
TABLE
  2
LAYER
 70
3
  0
LAYER
  2
1
 70
0
 62
7
  6
CONTINUOUS
  0
LAYER
  2
0
 70
0
 62
7
  6
CONTINUOUS
  0
ENDTAB
  0
TABLE
  2
STYLE
 70
4
  0
STYLE
  2
STANDARD
 70
0
 40
0
 41
1
 50
0
 71
0
 42
3.5
  3
txt
  4

  0
STYLE
  2
SIMPLEX
 70
0
 40
0
 41
1
 50
0
 71
0
 42
3.5
  3
simplex
  4

  0
STYLE
  2
COMPLEX
 70
0
 40
0
 41
1
 50
0
 71
0
 42
3.5
  3
complex
  4

  0
STYLE
  2
ITALIC
 70
0
 40
0
 41
1
 50
0
 71
0
 42
3.5
  3
italic
  4

  0
ENDTAB
  0
TABLE
  2
VIEW
 70
0
  0
ENDTAB
  0
ENDSEC
  0
SECTION
  2
BLOCKS
  0
ENDSEC
  0
SECTION
  2
ENTITIES
  0
LINE
  8
1
 62
7
 10
-45.69999999999993
 20
110.0003777856057
 30
0
 11
-45.69999999999993
 21
109.0001880396306
 31
0
  0
LINE
  8
1
 62
3
  6
DASHDOT
 10
-56.20000000000005
 20
104.9999999999999
 30
0
 11
-71.20000000000005
 21
104.9999999999999
 31
0
  0
LINE
  8
1
 62
3
  6
DASHDOT
 10
-63.70000000000005
 20
97.49999999999989
 30
0
 11
-63.70000000000007
 21
112.4999999999999
 31
0
  0
LINE
  8
1
 62
3
  6
DASHDOT
 10
-151.2
 20
104.9999999999999
 30
0
 11
-160.9
 21
105
 31
0
  0
LINE
  8
1
 62
3
  6
DASHDOT
 10
-158.7
 20
112.4999999999999
 30
0
 11
-158.7
 21
97.49999999999989
 31
0
  0
LINE
  8
1
 62
3
  6
DASHDOT
 10
-63.70000000000007
 20
187.5000000000001
 30
0
 11
-63.70000000000005
 21
202.5000000000001
 31
0
  0
LINE
  8
1
 62
3
  6
DASHDOT
 10
-71.20000000000005
 20
195.0000000000001
 30
0
 11
-56.20000000000005
 21
195.0000000000001
 31
0
  0
LINE
  8
1
 62
3
  6
DASHDOT
 10
-160.9
 20
195.0000000000001
 30
0
 11
-151.2
 21
195.0000000000001
 31
0
  0
LINE
  8
1
 62
3
  6
DASHDOT
 10
-158.7
 20
202.5000000000001
 30
0
 11
-158.7
 21
187.5000000000001
 31
0
  0
LINE
  8
1
 62
7
 10
-1.77635683940025e-015
 20
142.5
 30
0
 11
-30
 21
142.5
 31
0
  0
LINE
  8
1
 62
7
 10
-1.77635683940025e-015
 20
157.5
 30
0
 11
-1.77635683940025e-015
 21
142.5
 31
0
  0
LINE
  8
1
 62
7
 10
-30
 20
157.5
 30
0
 11
-1.77635683940025e-015
 21
157.5
 31
0
  0
LINE
  8
1
 62
7
 10
-139.2
 20
93.00000000000003
 30
0
 11
-167.2
 21
93.00000000000003
 31
0
  0
LINE
  8
1
 62
7
 10
-83.20000000000005
 20
90.00000000000003
 30
0
 11
-83.20000000000005
 21
107.0000000000001
 31
0
  0
LINE
  8
1
 62
7
 10
-139.2
 20
90.00000000000003
 30
0
 11
-83.20000000000005
 21
90.00000000000003
 31
0
  0
LINE
  8
1
 62
7
 10
-139.2
 20
107.0000000000001
 30
0
 11
-139.2
 21
90.00000000000003
 31
0
  0
LINE
  8
1
 62
7
 10
-144.7
 20
95.00000000000011
 30
0
 11
-144.7
 21
205
 31
0
  0
LINE
  8
1
 62
7
 10
-77.70000000000005
 20
95.00000000000011
 30
0
 11
-77.70000000000005
 21
108.0000000000001
 31
0
  0
LINE
  8
1
 62
7
 10
-167.2
 20
207
 30
0
 11
-55.20000000000005
 21
207
 31
0
  0
LINE
  8
1
 62
7
 10
-77.70000000000005
 20
205
 30
0
 11
-77.70000000000005
 21
95.00000000000011
 31
0
  0
LINE
  8
1
 62
7
 10
-171.2
 20
97.00000000000003
 30
0
 11
-171.2
 21
106.2875644347018
 31
0
  0
LINE
  8
1
 62
7
 10
-55.20000000000005
 20
93.00000000000003
 30
0
 11
-83.20000000000005
 21
93.00000000000003
 31
0
  0
LINE
  8
1
 62
7
 10
-51.20000000000005
 20
203
 30
0
 11
-51.20000000000005
 21
192.7500000000001
 31
0
  0
LINE
  8
1
 62
7
 10
-171.2
 20
193.7124355652982
 30
0
 11
-171.2
 21
203
 31
0
  0
LINE
  8
1
 62
7
 10
-51.20000000000005
 20
97.00000000000003
 30
0
 11
-51.20000000000005
 21
107.25
 31
0
  0
LINE
  8
1
 62
7
 10
-145.7
 20
109.0000000000001
 30
0
 11
-149.3
 21
109.0000000000001
 31
0
  0
LINE
  8
1
 62
7
 10
-76.70000000000005
 20
109.0000000000001
 30
0
 11
-73.09999999999991
 21
109.0000000000001
 31
0
  0
LINE
  8
1
 62
7
 10
-78.70000000000005
 20
107.0000000000001
 30
0
 11
-143.7
 21
107.0000000000001
 31
0
  0
LINE
  8
1
 62
7
 10
-78.70000000000005
 20
107.0000000000001
 30
0
 11
-143.7
 21
107.0000000000001
 31
0
  0
LINE
  8
1
 62
7
 10
-78.70000000000005
 20
107.0000000000001
 30
0
 11
-143.7
 21
107.0000000000001
 31
0
  0
LINE
  8
1
 62
7
 10
-143.7
 20
193.0000000000001
 30
0
 11
-78.70000000000005
 21
193.0000000000001
 31
0
  0
LINE
  8
1
 62
7
 10
-173.2
 20
107
 30
0
 11
-176.4
 21
107
 31
0
  0
LINE
  8
1
 62
7
 10
-176.4
 20
108
 30
0
 11
-177.4
 21
108
 31
0
  0
LINE
  8
1
 62
7
 10
-172.9
 20
107.5
 30
0
 11
-171.9
 21
107.5
 31
0
  0
LINE
  8
1
 62
7
 10
-171.9
 20
107.5
 30
0
 11
-170.4566243270259
 21
105
 31
0
  0
LINE
  8
1
 62
7
 10
-22.5
 20
147.5
 30
0
 11
-1.77635683940025e-015
 21
147.5
 31
0
  0
LINE
  8
1
 62
7
 10
-1.77635683940025e-015
 20
152.5
 30
0
 11
-22.5
 21
152.5
 31
0
  0
LINE
  8
1
 62
7
 10
-73.09999999999991
 20
109.0000000000001
 30
0
 11
-73.10000000000002
 21
191.0000000000001
 31
0
  0
LINE
  8
1
 62
7
 10
-67.34999999999991
 20
192.5000000000001
 30
0
 11
-54.09999999999991
 21
192.5000000000001
 31
0
  0
LINE
  8
1
 62
7
 10
-73.10000000000002
 20
191.0000000000001
 30
0
 11
-76.70000000000005
 21
191.0000000000001
 31
0
  0
LINE
  8
1
 62
3
  6
DASHDOT
 10
0
 20
150
 30
0
 11
5
 21
150
 31
0
  0
LINE
  8
1
 62
7
 10
-54.09999999999991
 20
107.5
 30
0
 11
-67.09999999999991
 21
107.5
 31
0
  0
LINE
  8
1
 62
7
 10
-54.09999999999991
 20
107.5
 30
0
 11
-54.09999999999991
 21
192.5000000000001
 31
0
  0
LINE
  8
1
 62
7
 10
-75.20000000000005
 20
109.0000000000001
 30
0
 11
-75.20000000000005
 21
191.0000000000001
 31
0
  0
LINE
  8
1
 62
7
 10
-147.2
 20
109.0000000000001
 30
0
 11
-147.2
 21
191.0000000000001
 31
0
  0
LINE
  8
1
 62
7
 10
-149.3
 20
109.0000000000001
 30
0
 11
-149.3
 21
191.0000000000001
 31
0
  0
LINE
  8
1
 62
7
 10
-171.9
 20
192.5000000000001
 30
0
 11
-171.9
 21
107.5
 31
0
  0
LINE
  8
1
 62
7
 10
-170.4566243270259
 20
105
 30
0
 11
-170.4566243270259
 21
195.0000000000001
 31
0
  0
LINE
  8
1
 62
7
 10
-154.109004913842
 20
107.5000000000001
 30
0
 11
-160.9
 21
107.5000000000001
 31
0
  0
LINE
  8
1
 62
7
 10
-160.9
 20
192.5000000000001
 30
0
 11
-154.109004913842
 21
192.5000000000001
 31
0
  0
LINE
  8
1
 62
7
 10
-176.9
 20
108
 30
0
 11
-176.9
 21
180.0000000000001
 31
0
  0
LINE
  8
1
 62
7
 10
-177.4
 20
108
 30
0
 11
-177.4
 21
180.0658262487936
 31
0
  0
LINE
  8
1
 62
7
 10
-179.4
 20
124.5
 30
0
 11
-179.4
 21
115.5
 31
0
  0
LINE
  8
1
 62
3
  6
DASHDOT
 10
-214
 20
150
 30
0
 11
-209
 21
150.0000000000001
 31
0
  0
LINE
  8
1
 62
7
 10
-176.4
 20
193.0000000000001
 30
0
 11
-176.4
 21
107
 31
0
  0
LINE
  8
1
 62
7
 10
-160.9
 20
195.0000000000001
 30
0
 11
-160.9
 21
105
 31
0
  0
LINE
  8
1
 62
7
 10
-149.3
 20
191.0000000000001
 30
0
 11
-145.7
 21
191.0000000000001
 31
0
  0
LINE
  8
1
 62
7
 10
-173.2
 20
193.0000000000001
 30
0
 11
-173.2
 21
107
 31
0
  0
LINE
  8
1
 62
7
 10
-176.4
 20
193.0000000000001
 30
0
 11
-173.2
 21
193.0000000000001
 31
0
  0
LINE
  8
1
 62
7
 10
-173.2
 20
107
 30
0
 11
-176.4
 21
107
 31
0
  0
LINE
  8
1
 62
7
 10
-176.9
 20
192.0000000000001
 30
0
 11
-176.4
 21
192.0000000000001
 31
0
  0
LINE
  8
1
 62
7
 10
-176.9
 20
181.9318516525781
 30
0
 11
-176.9
 21
192.0000000000001
 31
0
  0
LINE
  8
1
 62
7
 10
-177.4
 20
180.0658262487936
 30
0
 11
-176.9
 21
181.9318516525781
 31
0
  0
LINE
  8
1
 62
7
 10
-176.9
 20
180.0000000000001
 30
0
 11
-176.4
 21
181.8660254037845
 31
0
  0
LINE
  8
1
 62
7
 10
-178.3
 20
191.1
 30
0
 11
-176.9
 21
191.1
 31
0
  0
LINE
  8
1
 62
7
 10
-178.8
 20
184.4
 30
0
 11
-178.8
 21
190.6
 31
0
  0
LINE
  8
1
 62
7
 10
-178.3
 20
183.9
 30
0
 11
-176.9
 21
183.9
 31
0
  0
LINE
  8
1
 62
7
 10
-177.4
 20
183.9
 30
0
 11
-177.4
 21
191.1
 31
0
  0
LINE
  8
1
 62
7
 10
-178.3
 20
191.1
 30
0
 11
-178.8
 21
190.6
 31
0
  0
LINE
  8
1
 62
7
 10
-178.8
 20
184.4
 30
0
 11
-178.3
 21
183.9
 31
0
  0
LINE
  8
1
 62
7
 10
-179.4
 20
124.5
 30
0
 11
-177.4
 21
124.5
 31
0
  0
LINE
  8
1
 62
7
 10
-179.4
 20
115.5
 30
0
 11
-177.4
 21
115.5
 31
0
  0
LINE
  8
1
 62
7
 10
-171.9
 20
192.5000000000001
 30
0
 11
-172.9
 21
192.5000000000001
 31
0
  0
LINE
  8
1
 62
7
 10
-170.4566243270259
 20
195.0000000000001
 30
0
 11
-171.9
 21
192.5000000000001
 31
0
  0
LINE
  8
1
 62
7
 10
-160.9
 20
195.0000000000001
 30
0
 11
-170.4566243270259
 21
195.0000000000001
 31
0
  0
LINE
  8
1
 62
7
 10
-172.9
 20
192.5000000000001
 30
0
 11
-172.9
 21
107.5
 31
0
  0
LINE
  8
1
 62
7
 10
-170.4566243270259
 20
105
 30
0
 11
-160.9
 21
105
 31
0
  0
LINE
  8
1
 62
7
 10
-171.9
 20
107.5
 30
0
 11
-170.4566243270259
 21
105
 31
0
  0
LINE
  8
1
 62
7
 10
-172.9
 20
107.5
 30
0
 11
-171.9
 21
107.5
 31
0
  0
LINE
  8
1
 62
7
 10
-209
 20
142.5
 30
0
 11
-207.8333333333333
 21
142.5
 31
0
  0
LINE
  8
1
 62
3
 10
-209
 20
143.25
 30
0
 11
-207.8333333333333
 21
143.25
 31
0
  0
LINE
  8
1
 62
7
 10
-209
 20
142.5
 30
0
 11
-209
 21
157.5000000000001
 31
0
  0
LINE
  8
1
 62
3
 10
-207.8333333333333
 20
156.7500000000001
 30
0
 11
-209
 21
156.7500000000001
 31
0
  0
LINE
  8
1
 62
7
 10
-207.8333333333333
 20
157.5000000000001
 30
0
 11
-209
 21
157.5000000000001
 31
0
  0
LINE
  8
1
 62
7
 10
-207.8333333333333
 20
137.5000000000001
 30
0
 11
-206.1666666666667
 21
137.5000000000001
 31
0
  0
LINE
  8
1
 62
7
 10
-207.8333333333333
 20
137.5000000000001
 30
0
 11
-207.8333333333333
 21
162.5000000000001
 31
0
  0
LINE
  8
1
 62
7
 10
-206.1666666666667
 20
162.5000000000001
 30
0
 11
-207.8333333333333
 21
162.5000000000001
 31
0
  0
LINE
  8
1
 62
7
 10
-206.1666666666667
 20
136.0000000000001
 30
0
 11
-206.1666666666667
 21
164.0000000000001
 31
0
  0
LINE
  8
1
 62
7
 10
-202.5
 20
140.0000000000001
 30
0
 11
-206.1666666666667
 21
136.0000000000001
 31
0
  0
LINE
  8
1
 62
7
 10
-206.1666666666667
 20
164.0000000000001
 30
0
 11
-202.5
 21
160.0000000000001
 31
0
  0
LINE
  8
1
 62
7
 10
-202.5
 20
130.0000000000001
 30
0
 11
-190.5
 21
130.0000000000001
 31
0
  0
LINE
  8
1
 62
7
 10
-202.5
 20
170.0000000000001
 30
0
 11
-202.5
 21
130.0000000000001
 31
0
  0
LINE
  8
1
 62
7
 10
-190.5
 20
170.0000000000001
 30
0
 11
-202.5
 21
170.0000000000001
 31
0
  0
LINE
  8
1
 62
7
 10
-190.5
 20
111.5000000000001
 30
0
 11
-179.5
 21
111.5000000000001
 31
0
  0
LINE
  8
1
 62
7
 10
-190.5
 20
188.5000000000001
 30
0
 11
-179.5
 21
188.5000000000001
 31
0
  0
LINE
  8
1
 62
7
 10
-179.5
 20
188.5000000000001
 30
0
 11
-179.5
 21
111.5000000000001
 31
0
  0
LINE
  8
1
 62
7
 10
-190.5
 20
188.5000000000001
 30
0
 11
-190.5
 21
111.5000000000001
 31
0
  0
LINE
  8
1
 62
7
 10
-30
 20
140.5
 30
0
 11
-33.49999999999994
 21
140.5
 31
0
  0
LINE
  8
1
 62
7
 10
-30
 20
140.5
 30
0
 11
-30
 21
159.5
 31
0
  0
LINE
  8
1
 62
7
 10
-47.89999999999993
 20
179.4999894695551
 30
0
 11
-47.89999999999993
 21
170.5
 31
0
  0
LINE
  8
1
 62
7
 10
-48.39999999999993
 20
170
 30
0
 11
-49.19999999999993
 21
170
 31
0
  0
LINE
  8
1
 62
7
 10
-35.19999999999993
 20
170
 30
0
 11
-38.19999999999993
 21
170
 31
0
  0
LINE
  8
1
 62
7
 10
-34.89999999999995
 20
130
 30
0
 11
-34.89999999999995
 21
111.0003777856057
 31
0
  0
LINE
  8
1
 62
7
 10
-47.89999999999993
 20
129.5
 30
0
 11
-47.89999999999993
 21
111.0003777856057
 31
0
  0
LINE
  8
1
 62
7
 10
-53.70000000000007
 20
192.75
 30
0
 11
-50.69999999999993
 21
192.75
 31
0
  0
LINE
  8
1
 62
7
 10
-50.69999999999993
 20
107.25
 30
0
 11
-53.70000000000007
 21
107.25
 31
0
  0
LINE
  8
1
 62
7
 10
-50.69999999999993
 20
192
 30
0
 11
-50.19999999999993
 21
192
 31
0
  0
LINE
  8
1
 62
7
 10
-50.19999999999993
 20
192
 30
0
 11
-50.19999999999993
 21
181.9318516525781
 31
0
  0
LINE
  8
1
 62
7
 10
-50.19999999999993
 20
181.9318516525781
 30
0
 11
-49.69999999999993
 21
180.0658262487936
 31
0
  0
LINE
  8
1
 62
7
 10
-49.69999999999993
 20
180.0658262487936
 30
0
 11
-49.69999999999993
 21
108
 31
0
  0
LINE
  8
1
 62
7
 10
-50.69999999999993
 20
181.8660254037844
 30
0
 11
-50.19999999999993
 21
180
 31
0
  0
LINE
  8
1
 62
7
 10
-50.69999999999993
 20
192.75
 30
0
 11
-50.69999999999993
 21
107.25
 31
0
  0
LINE
  8
1
 62
7
 10
-50.19999999999993
 20
191.1
 30
0
 11
-48.79999999999994
 21
191.1
 31
0
  0
LINE
  8
1
 62
7
 10
-48.29999999999994
 20
190.6
 30
0
 11
-48.29999999999994
 21
184.4
 31
0
  0
LINE
  8
1
 62
7
 10
-50.19999999999993
 20
183.9
 30
0
 11
-48.79999999999994
 21
183.9
 31
0
  0
LINE
  8
1
 62
7
 10
-49.69999999999993
 20
191.1
 30
0
 11
-49.69999999999993
 21
183.9
 31
0
  0
LINE
  8
1
 62
7
 10
-48.29999999999994
 20
190.6
 30
0
 11
-48.79999999999994
 21
191.1
 31
0
  0
LINE
  8
1
 62
7
 10
-48.79999999999994
 20
183.9
 30
0
 11
-48.29999999999994
 21
184.4
 31
0
  0
LINE
  8
1
 62
7
 10
-50.19999999999993
 20
108
 30
0
 11
-49.69999999999993
 21
108
 31
0
  0
LINE
  8
1
 62
7
 10
-49.69999999999993
 20
124.5
 30
0
 11
-47.89999999999993
 21
124.5
 31
0
  0
LINE
  8
1
 62
7
 10
-49.69999999999993
 20
115.5
 30
0
 11
-47.89999999999993
 21
115.5
 31
0
  0
LINE
  8
1
 62
7
 10
-50.19999999999993
 20
108
 30
0
 11
-50.19999999999993
 21
180
 31
0
  0
LINE
  8
1
 62
7
 10
-39.19999999999993
 20
179.9999894695551
 30
0
 11
-47.39999999999993
 21
179.9999894695551
 31
0
  0
LINE
  8
1
 62
7
 10
-34.89999999999995
 20
130
 30
0
 11
-34.69999999999993
 21
130
 31
0
  0
LINE
  8
1
 62
7
 10
-38.19999999999993
 20
110.5003777856057
 30
0
 11
-35.39999999999995
 21
110.5003777856057
 31
0
  0
LINE
  8
1
 62
7
 10
-38.69999999999993
 20
109.0001880396306
 30
0
 11
-38.69999999999993
 21
179.4999894695551
 31
0
  0
LINE
  8
1
 62
7
 10
-45.19999999999993
 20
108.5001880396306
 30
0
 11
-39.19999999999993
 21
108.5001880396306
 31
0
  0
LINE
  8
1
 62
7
 10
-47.39999999999993
 20
110.5003777856057
 30
0
 11
-46.19999999999993
 21
110.5003777856057
 31
0
  0
LINE
  8
1
 62
7
 10
-48.39999999999993
 20
130
 30
0
 11
-49.19999999999993
 21
130
 31
0
  0
LINE
  8
1
 62
7
 10
-53.70000000000007
 20
107.25
 30
0
 11
-53.70000000000007
 21
192.75
 31
0
  0
LINE
  8
1
 62
7
 10
-50.19999999999993
 20
180
 30
0
 11
-50.69999999999993
 21
180
 31
0
  0
LINE
  8
1
 62
7
 10
-50.19999999999993
 20
120
 30
0
 11
-50.69999999999993
 21
120
 31
0
  0
LINE
  8
1
 62
7
 10
-33.49999999999994
 20
161.7
 30
0
 11
-34.69999999999993
 21
161.7
 31
0
  0
LINE
  8
1
 62
7
 10
-34.69999999999993
 20
137.3919389774239
 30
0
 11
-33.49999999999994
 21
137.3919389774239
 31
0
  0
LINE
  8
1
 62
7
 10
-33.49999999999994
 20
161.7
 30
0
 11
-33.49999999999994
 21
137.3919389774239
 31
0
  0
LINE
  8
1
 62
7
 10
-34.69999999999993
 20
130
 30
0
 11
-34.69999999999993
 21
169.5
 31
0
  0
LINE
  8
1
 62
7
 10
-33.49999999999994
 20
159.5
 30
0
 11
-30
 21
159.5
 31
0
  0
LINE
  8
1
 62
7
  6
DASHED
 10
-390.5486326243599
 20
-54.99999999999999
 30
0
 11
-390.5486326243599
 21
-64.99999999999999
 31
0
  0
LINE
  8
1
 62
7
  6
DASHED
 10
-381.5486326243599
 20
-54.99999999999999
 30
0
 11
-381.5486326243599
 21
-64.99999999999999
 31
0
  0
LINE
  8
1
 62
7
  6
DASHED
 10
-300.5486326243599
 20
-54.99999999999999
 30
0
 11
-300.5486326243599
 21
-64.99999999999999
 31
0
  0
LINE
  8
1
 62
7
  6
DASHED
 10
-291.5486326243599
 20
-54.99999999999999
 30
0
 11
-291.5486326243599
 21
-64.99999999999999
 31
0
  0
LINE
  8
1
 62
7
 10
-340.1037214001227
 20
-34.74155698377986
 30
0
 11
-340.1037214001227
 21
-31.57462830578248
 31
0
  0
LINE
  8
1
 62
7
 10
-342.1037214001227
 20
-24.94359801264714
 30
0
 11
-342.1037214001226
 21
-28.1105266906447
 31
0
  0
LINE
  8
1
 62
7
 10
-371.8271242007751
 20
16.74088684078523
 30
0
 11
-369.0844835136559
 21
15.15742250178646
 31
0
  0
LINE
  8
1
 62
7
 10
-362.3418428265366
 20
13.5739581627877
 30
0
 11
-365.0844835136559
 21
15.15742250178646
 31
0
  0
LINE
  8
1
 62
7
 10
-311.3803185994702
 20
18.47293764835407
 30
0
 11
-314.1229592865895
 21
16.88947330935536
 31
0
  0
LINE
  8
1
 62
7
 10
-318.8655999737088
 20
11.84190735521887
 30
0
 11
-316.1229592865895
 21
13.42537169421762
 31
0
  0
LINE
  8
1
 62
7
 10
-342.1037214001227
 20
-31.57462830578248
 30
0
 11
-342.1037214001227
 21
-34.7415569837799
 31
0
  0
LINE
  8
1
 62
7
 10
-340.1037214001227
 20
-28.1105266906447
 30
0
 11
-340.1037214001227
 21
-24.94359801264719
 31
0
  0
LINE
  8
1
 62
7
 10
-368.0844835136559
 20
16.88947330935536
 30
0
 11
-370.8271242007752
 21
18.47293764835407
 31
0
  0
LINE
  8
1
 62
7
 10
-366.0844835136559
 20
13.42537169421762
 30
0
 11
-363.3418428265365
 21
11.84190735521889
 31
0
  0
LINE
  8
1
 62
7
 10
-313.1229592865895
 20
15.15742250178646
 30
0
 11
-310.3803185994702
 21
16.74088684078521
 31
0
  0
LINE
  8
1
 62
7
 10
-317.1229592865895
 20
15.15742250178646
 30
0
 11
-319.8655999737088
 21
13.57395816278773
 31
0
  0
LINE
  8
1
 62
7
 10
-343.0486326243599
 20
-44.95553358597804
 30
0
 11
-343.0486326243599
 21
-52.99999999999999
 31
0
  0
LINE
  8
1
 62
7
 10
-341.0486326243599
 20
-52.99999999999999
 30
0
 11
-341.0486326243599
 21
-44.99999999999999
 31
0
  0
LINE
  8
1
 62
7
 10
-339.0486326243599
 20
-52.99999999999999
 30
0
 11
-339.0486326243599
 21
-44.95553358597804
 31
0
  0
LINE
  8
1
 62
7
 10
-398.0486326243599
 20
-65
 30
0
 11
-398.0486326243599
 21
-58.99999999999999
 31
0
  0
LINE
  8
1
 62
7
 10
-394.0486326243599
 20
-54.99999999999999
 30
0
 11
-376.0486326243599
 21
-54.99999999999999
 31
0
  0
LINE
  8
1
 62
7
 10
-372.0486326243599
 20
-65
 30
0
 11
-398.0486326243599
 21
-65
 31
0
  0
LINE
  8
1
 62
7
 10
-384.0486326243599
 20
13.26649916142161
 30
0
 11
-384.0486326243599
 21
39.00000000000001
 31
0
  0
LINE
  8
1
 62
7
 10
-380.0486326243599
 20
43.00000000000001
 30
0
 11
-354.3151317857815
 21
43.00000000000001
 31
0
  0
LINE
  8
1
 62
7
 10
-327.7821334629383
 20
43.00000000000001
 30
0
 11
-302.0486326243599
 21
43.00000000000001
 31
0
  0
LINE
  8
1
 62
7
 10
-298.0486326243599
 20
39.00000000000001
 30
0
 11
-298.0486326243599
 21
13.26649916142161
 31
0
  0
LINE
  8
1
 62
7
 10
-384.0486326243599
 20
-13.26649916142159
 30
0
 11
-384.0486326243599
 21
-34.99999999999999
 31
0
  0
LINE
  8
1
 62
7
 10
-372.0486326243599
 20
-58.99999999999999
 30
0
 11
-372.0486326243599
 21
-65
 31
0
  0
LINE
  8
1
 62
7
 10
-384.0486326243599
 20
-34.99999999999999
 30
0
 11
-397.2763344756622
 21
-56.70944744518515
 31
0
  0
LINE
  8
1
 62
3
  6
DASHDOT
 10
-386.0486326243599
 20
-51.99999999999999
 30
0
 11
-386.0486326243599
 21
-68
 31
0
  0
LINE
  8
1
 62
7
 10
-284.8209307730577
 20
-56.70944744518515
 30
0
 11
-298.0486326243599
 21
-34.99999999999999
 31
0
  0
LINE
  8
1
 62
7
 10
-298.0486326243599
 20
-34.99999999999999
 30
0
 11
-298.0486326243599
 21
-13.26649916142159
 31
0
  0
LINE
  8
1
 62
7
 10
-284.0486326243599
 20
-58.99999999999999
 30
0
 11
-284.0486326243599
 21
-65
 31
0
  0
LINE
  8
1
 62
7
 10
-306.0486326243599
 20
-54.99999999999999
 30
0
 11
-288.0486326243599
 21
-54.99999999999999
 31
0
  0
LINE
  8
1
 62
7
 10
-284.0486326243599
 20
-65
 30
0
 11
-310.0486326243599
 21
-65
 31
0
  0
LINE
  8
1
 62
7
 10
-314.0486326243599
 20
-60.99999999999999
 30
0
 11
-368.0486326243599
 21
-60.99999999999999
 31
0
  0
LINE
  8
1
 62
7
 10
-310.0486326243599
 20
-65
 30
0
 11
-310.0486326243599
 21
-58.99999999999999
 31
0
  0
LINE
  8
1
 62
3
  6
DASHDOT
 10
-296.0486326243599
 20
-68
 30
0
 11
-296.0486326243599
 21
-51.99999999999999
 31
0
  0
LINE
  8
1
 62
7
 10
-304.7674071843637
 20
36.28122543999627
 30
0
 11
-306.9981173276644
 21
36.87894242144166
 31
0
  0
LINE
  8
1
 62
7
 10
-306.9981173276644
 20
36.87894242144166
 30
0
 11
-308.6311104895199
 21
35.2459492595862
 31
0
  0
LINE
  8
1
 62
7
 10
-308.6311104895199
 20
35.2459492595862
 30
0
 11
-308.0333935080745
 21
33.01523911628538
 31
0
  0
LINE
  8
1
 62
7
 10
-308.0333935080745
 20
33.01523911628538
 30
0
 11
-305.8026833647738
 21
32.41752213484001
 31
0
  0
LINE
  8
1
 62
7
 10
-305.8026833647738
 20
32.41752213484001
 30
0
 11
-304.1696902029183
 21
34.05051529669546
 31
0
  0
LINE
  8
1
 62
7
 10
-304.1696902029183
 20
34.05051529669546
 30
0
 11
-304.7674071843637
 21
36.28122543999627
 31
0
  0
LINE
  8
1
 62
7
 10
-322.5013956333685
 20
41.00000000000001
 30
0
 11
-304.4270626102634
 21
41.00000000000001
 31
0
  0
LINE
  8
1
 62
7
 10
-300.0486326243599
 20
36.62157001409647
 30
0
 11
-300.0486326243599
 21
18.54723699099141
 31
0
  0
LINE
  8
1
 62
7
 10
-377.3298580643562
 20
36.28122543999628
 30
0
 11
-377.9275750458016
 21
34.05051529669547
 31
0
  0
LINE
  8
1
 62
7
 10
-377.9275750458016
 20
34.05051529669547
 30
0
 11
-376.2945818839461
 21
32.41752213484001
 31
0
  0
LINE
  8
1
 62
7
 10
-376.2945818839461
 20
32.41752213484001
 30
0
 11
-374.0638717406453
 21
33.01523911628538
 31
0
  0
LINE
  8
1
 62
7
 10
-374.0638717406453
 20
33.01523911628538
 30
0
 11
-373.4661547591999
 21
35.24594925958619
 31
0
  0
LINE
  8
1
 62
7
 10
-373.4661547591999
 20
35.24594925958619
 30
0
 11
-375.0991479210554
 21
36.87894242144166
 31
0
  0
LINE
  8
1
 62
7
 10
-375.0991479210554
 20
36.87894242144166
 30
0
 11
-377.3298580643562
 21
36.28122543999628
 31
0
  0
LINE
  8
1
 62
7
 10
-382.0486326243599
 20
18.54723699099141
 30
0
 11
-382.0486326243599
 21
36.62157001409648
 31
0
  0
LINE
  8
1
 62
7
 10
-377.6702026384564
 20
41.00000000000001
 30
0
 11
-359.5958696153513
 21
41.00000000000001
 31
0
  0
LINE
  8
1
 62
7
 10
-377.3298580643562
 20
-36.28122543999624
 30
0
 11
-375.0991479210554
 21
-36.87894242144164
 31
0
  0
LINE
  8
1
 62
7
 10
-375.0991479210554
 20
-36.87894242144164
 30
0
 11
-373.4661547591999
 21
-35.24594925958618
 31
0
  0
LINE
  8
1
 62
7
 10
-373.4661547591999
 20
-35.24594925958618
 30
0
 11
-374.0638717406453
 21
-33.01523911628536
 31
0
  0
LINE
  8
1
 62
7
 10
-374.0638717406453
 20
-33.01523911628536
 30
0
 11
-376.2945818839461
 21
-32.41752213483998
 31
0
  0
LINE
  8
1
 62
7
 10
-376.2945818839461
 20
-32.41752213483998
 30
0
 11
-377.9275750458016
 21
-34.05051529669543
 31
0
  0
LINE
  8
1
 62
7
 10
-377.9275750458016
 20
-34.05051529669543
 30
0
 11
-377.3298580643562
 21
-36.28122543999624
 31
0
  0
LINE
  8
1
 62
7
 10
-359.5958696153513
 20
-40.99999999999999
 30
0
 11
-377.6702026384564
 21
-40.99999999999999
 31
0
  0
LINE
  8
1
 62
7
 10
-382.0486326243599
 20
-36.62157001409644
 30
0
 11
-382.0486326243599
 21
-18.54723699099139
 31
0
  0
LINE
  8
1
 62
7
 10
-304.7674071843637
 20
-36.28122543999628
 30
0
 11
-304.1696902029183
 21
-34.05051529669547
 31
0
  0
LINE
  8
1
 62
7
 10
-304.1696902029183
 20
-34.05051529669547
 30
0
 11
-305.8026833647737
 21
-32.41752213483999
 31
0
  0
LINE
  8
1
 62
7
 10
-305.8026833647737
 20
-32.41752213483999
 30
0
 11
-308.0333935080745
 21
-33.01523911628536
 31
0
  0
LINE
  8
1
 62
7
 10
-308.0333935080745
 20
-33.01523911628536
 30
0
 11
-308.6311104895199
 21
-35.24594925958618
 31
0
  0
LINE
  8
1
 62
7
 10
-308.6311104895199
 20
-35.24594925958618
 30
0
 11
-306.9981173276645
 21
-36.87894242144164
 31
0
  0
LINE
  8
1
 62
7
 10
-306.9981173276645
 20
-36.87894242144164
 30
0
 11
-304.7674071843637
 21
-36.28122543999628
 31
0
  0
LINE
  8
1
 62
7
 10
-300.0486326243599
 20
-18.5472369909914
 30
0
 11
-300.0486326243599
 21
-36.62157001409647
 31
0
  0
LINE
  8
1
 62
7
 10
-304.4270626102635
 20
-40.99999999999999
 30
0
 11
-322.5013956333685
 21
-40.99999999999999
 31
0
  0
LINE
  8
1
 62
7
 10
-343.0486326243599
 20
12.33896267925306
 30
0
 11
-343.0486326243599
 21
10.50000000000001
 31
0
  0
LINE
  8
1
 62
7
 10
-343.0486326243599
 20
10.50000000000001
 30
0
 11
-339.0486326243599
 21
10.50000000000001
 31
0
  0
LINE
  8
1
 62
7
 10
-339.0486326243599
 20
10.50000000000001
 30
0
 11
-339.0486326243599
 21
12.33896267925306
 31
0
  0
LINE
  8
1
 62
7
 10
-351.5486326243599
 20
-1.999999999999993
 30
0
 11
-351.5486326243599
 21
2.000000000000007
 31
0
  0
LINE
  8
1
 62
7
 10
-353.387595303613
 20
-1.999999999999993
 30
0
 11
-351.5486326243599
 21
-1.999999999999993
 31
0
  0
LINE
  8
1
 62
7
 10
-351.5486326243599
 20
2.000000000000007
 30
0
 11
-353.387595303613
 21
2.000000000000007
 31
0
  0
LINE
  8
1
 62
7
 10
-339.0486326243599
 20
-10.49999999999999
 30
0
 11
-343.0486326243599
 21
-10.49999999999999
 31
0
  0
LINE
  8
1
 62
7
 10
-339.0486326243599
 20
-10.49999999999999
 30
0
 11
-343.0486326243599
 21
-10.49999999999999
 31
0
  0
LINE
  8
1
 62
7
 10
-343.0486326243599
 20
-10.49999999999999
 30
0
 11
-343.0486326243599
 21
-12.33896267925306
 31
0
  0
LINE
  8
1
 62
7
 10
-339.0486326243599
 20
-12.33896267925306
 30
0
 11
-339.0486326243599
 21
-10.49999999999999
 31
0
  0
LINE
  8
1
 62
7
 10
-330.5486326243599
 20
2.000000000000007
 30
0
 11
-330.5486326243599
 21
-1.999999999999993
 31
0
  0
LINE
  8
1
 62
7
 10
-330.5486326243599
 20
2.000000000000007
 30
0
 11
-330.5486326243599
 21
-1.999999999999993
 31
0
  0
LINE
  8
1
 62
7
 10
-328.7096699451068
 20
2.000000000000007
 30
0
 11
-330.5486326243599
 21
2.000000000000007
 31
0
  0
LINE
  8
1
 62
7
 10
-330.5486326243599
 20
-1.999999999999993
 30
0
 11
-328.7096699451068
 21
-1.999999999999993
 31
0
  0
LINE
  8
1
 62
7
 10
-279.0486326243599
 20
-4.999999999999993
 30
0
 11
-279.0486326243599
 21
-24.99999999999999
 31
0
  0
LINE
  8
1
 62
7
 10
-278.0486326243599
 20
-4.999999999999993
 30
0
 11
-296.3272730743641
 21
-4.999999999999993
 31
0
  0
LINE
  8
1
 62
7
 10
-278.0486326243599
 20
-4.999999999999993
 30
0
 11
-278.0486326243599
 21
-24.99999999999999
 31
0
  0
LINE
  8
1
 62
7
 10
-278.0486326243599
 20
-24.99999999999999
 30
0
 11
-298.0486326243599
 21
-24.99999999999999
 31
0
  0
LINE
  8
1
 62
7
 10
-278.0486326243599
 20
-7.499999999999993
 30
0
 11
-276.0486326243599
 21
-7.499999999999993
 31
0
  0
LINE
  8
1
 62
7
 10
-276.0486326243599
 20
-7.499999999999993
 30
0
 11
-276.0486326243599
 21
-12.49999999999999
 31
0
  0
LINE
  8
1
 62
7
 10
-276.0486326243599
 20
-12.49999999999999
 30
0
 11
-278.0486326243599
 21
-12.49999999999999
 31
0
  0
LINE
  8
1
 62
3
  6
DASHDOT
 10
-338.0486326243599
 20
7.105427357601002e-015
 30
0
 11
-344.0486326243599
 21
7.105427357601002e-015
 31
0
  0
LINE
  8
1
 62
3
  6
DASHDOT
 10
-341.0486326243599
 20
3.000000000000007
 30
0
 11
-341.0486326243599
 21
-2.999999999999993
 31
0
  0
LINE
  8
1
 62
3
  6
DASHDOT
 10
-341.0486326243599
 20
33.00000000000001
 30
0
 11
-341.0486326243599
 21
21.00000000000001
 31
0
  0
LINE
  8
1
 62
3
  6
DASHDOT
 10
-369.6274709492465
 20
-16.5
 30
0
 11
-359.2351661038332
 21
-10.5
 31
0
  0
LINE
  8
1
 62
3
  6
DASHDOT
 10
-312.4697942994735
 20
-16.5
 30
0
 11
-322.8620991448867
 21
-10.5
 31
0
  0
LINE
  8
1
 62
3
  6
DASHED
 10
-10
 20
2.500000000000001
 30
0
 11
-11.03923048454133
 21
1.900000000000001
 31
0
  0
LINE
  8
1
 62
3
  6
DASHED
 10
-10
 20
-2.499999999999999
 30
0
 11
-11.03923048454133
 21
-1.899999999999999
 31
0
  0
LINE
  8
1
 62
3
  6
DASHED
 10
-10
 20
2.500000000000001
 30
0
 11
-1.470205250944656e-015
 21
2.5
 31
0
  0
LINE
  8
1
 62
7
  6
DASHED
 10
-10
 20
-2.499999999999999
 30
0
 11
-10
 21
2.500000000000001
 31
0
  0
LINE
  8
1
 62
3
  6
DASHED
 10
-2.082508427855844e-015
 20
-2.5
 30
0
 11
-10
 21
-2.499999999999999
 31
0
  0
LINE
  8
1
 62
7
  6
DASHED
 10
-15.24337567297407
 20
1.86671347028255e-015
 30
0
 11
-13.8
 21
1.900000000000002
 31
0
  0
LINE
  8
1
 62
7
  6
DASHED
 10
-13.8
 20
-1.899999999999998
 30
0
 11
-15.24337567297407
 21
1.86671347028255e-015
 31
0
  0
LINE
  8
1
 62
7
  6
DASHED
 10
-13.8
 20
1.900000000000002
 30
0
 11
-1.543681632173999e-015
 21
1.9
 31
0
  0
LINE
  8
1
 62
7
  6
DASHED
 10
-13.8
 20
-1.899999999999998
 30
0
 11
-13.8
 21
1.900000000000002
 31
0
  0
LINE
  8
1
 62
7
  6
DASHED
 10
-2.009032046626502e-015
 20
-1.9
 30
0
 11
-13.8
 21
-1.899999999999998
 31
0
  0
LINE
  8
1
 62
3
  6
DASHDOT
 10
-193.5
 20
27.00000000000001
 30
0
 11
-176.5
 21
27.00000000000001
 31
0
  0
LINE
  8
1
 62
7
  6
DASHED
 10
-179.5
 20
24.60000000000001
 30
0
 11
-190.5
 21
24.60000000000001
 31
0
  0
LINE
  8
1
 62
7
  6
DASHED
 10
-190.5
 20
29.40000000000001
 30
0
 11
-179.5
 21
29.40000000000001
 31
0
  0
LINE
  8
1
 62
3
  6
DASHED
 10
-179.5
 20
24.00000000000001
 30
0
 11
-190.5
 21
24.00000000000001
 31
0
  0
LINE
  8
1
 62
3
  6
DASHED
 10
-190.5
 20
30.00000000000001
 30
0
 11
-179.5
 21
30.00000000000001
 31
0
  0
LINE
  8
1
 62
7
  6
DASHED
 10
-68.20000000000005
 20
-54.99999999999999
 30
0
 11
-68.20000000000005
 21
-64.99999999999999
 31
0
  0
LINE
  8
1
 62
7
  6
DASHED
 10
-59.20000000000005
 20
-54.99999999999999
 30
0
 11
-59.20000000000005
 21
-64.99999999999999
 31
0
  0
LINE
  8
1
 62
7
  6
DASHED
 10
-163.2
 20
-54.99999999999999
 30
0
 11
-163.2
 21
-64.99999999999999
 31
0
  0
LINE
  8
1
 62
7
  6
DASHED
 10
-154.2
 20
-54.99999999999999
 30
0
 11
-154.2
 21
-64.99999999999999
 31
0
  0
LINE
  8
1
 62
7
 10
-92.20000000000005
 20
-24.99999999999999
 30
0
 11
-92.20000000000005
 21
-15.99999999999999
 31
0
  0
LINE
  8
1
 62
7
 10
-92.20000000000005
 20
-15.99999999999999
 30
0
 11
-100.2
 21
-15.99999999999999
 31
0
  0
LINE
  8
1
 62
7
 10
-100.2
 20
-15.99999999999999
 30
0
 11
-100.2
 21
-24.99999999999999
 31
0
  0
LINE
  8
1
 62
7
 10
-110.2
 20
-24.99999999999999
 30
0
 11
-110.2
 21
-15.99999999999999
 31
0
  0
LINE
  8
1
 62
7
 10
-110.2
 20
-15.99999999999999
 30
0
 11
-102.2
 21
-15.99999999999999
 31
0
  0
LINE
  8
1
 62
7
 10
-102.2
 20
-15.99999999999999
 30
0
 11
-102.2
 21
-24.63679671664208
 31
0
  0
LINE
  8
1
 62
7
 10
-97.62305239713817
 20
-21.05182133701497
 30
0
 11
-97.25182133701492
 21
-21.42305239713791
 31
0
  0
LINE
  8
1
 62
7
 10
-95.14817866298495
 20
-21.42305239713791
 30
0
 11
-94.77694760286215
 21
-21.05182133701497
 31
0
  0
LINE
  8
1
 62
7
 10
-94.77694760286215
 20
-18.948178662985
 30
0
 11
-95.14817866298495
 21
-18.57694760286209
 31
0
  0
LINE
  8
1
 62
7
 10
-97.25182133701492
 20
-18.57694760286209
 30
0
 11
-97.62305239713817
 21
-18.948178662985
 31
0
  0
LINE
  8
1
 62
7
 10
-107.6230523971382
 20
-21.05182133701497
 30
0
 11
-107.251821337015
 21
-21.42305239713791
 31
0
  0
LINE
  8
1
 62
7
 10
-105.1481786629849
 20
-21.42305239713791
 30
0
 11
-104.7769476028622
 21
-21.05182133701497
 31
0
  0
LINE
  8
1
 62
7
 10
-104.7769476028622
 20
-18.948178662985
 30
0
 11
-105.1481786629849
 21
-18.57694760286209
 31
0
  0
LINE
  8
1
 62
7
 10
-107.251821337015
 20
-18.57694760286209
 30
0
 11
-107.6230523971382
 21
-18.948178662985
 31
0
  0
LINE
  8
1
 62
7
 10
-88.95000000000005
 20
-9.737499999999997
 30
0
 11
-88.95000000000005
 21
-10.26249999999997
 31
0
  0
LINE
  8
1
 62
7
 10
-87.46250000000009
 20
-11.74999999999999
 30
0
 11
-86.93749999999989
 21
-11.74999999999999
 31
0
  0
LINE
  8
1
 62
7
 10
-85.45000000000005
 20
-10.26249999999997
 30
0
 11
-85.45000000000005
 21
-9.737499999999997
 31
0
  0
LINE
  8
1
 62
7
 10
-86.93749999999989
 20
-8.249999999999986
 30
0
 11
-87.46250000000009
 21
-8.249999999999986
 31
0
  0
LINE
  8
1
 62
7
 10
-139.2
 20
-4.999999999999986
 30
0
 11
-83.20000000000005
 21
-4.999999999999986
 31
0
  0
LINE
  8
1
 62
7
 10
-83.20000000000005
 20
-4.999999999999986
 30
0
 11
-83.20000000000005
 21
-24.99999999999999
 31
0
  0
LINE
  8
1
 62
7
 10
-83.20000000000005
 20
-24.99999999999999
 30
0
 11
-139.2
 21
-24.99999999999999
 31
0
  0
LINE
  8
1
 62
7
 10
-130.2
 20
-15.99999999999999
 30
0
 11
-130.2
 21
-24.99999999999999
 31
0
  0
LINE
  8
1
 62
7
 10
-122.2
 20
-15.99999999999999
 30
0
 11
-130.2
 21
-15.99999999999999
 31
0
  0
LINE
  8
1
 62
7
 10
-122.2
 20
-24.99999999999999
 30
0
 11
-122.2
 21
-15.99999999999999
 31
0
  0
LINE
  8
1
 62
7
 10
-112.2
 20
-15.99999999999999
 30
0
 11
-112.2
 21
-24.99999999999999
 31
0
  0
LINE
  8
1
 62
7
 10
-120.2
 20
-15.99999999999999
 30
0
 11
-112.2
 21
-15.99999999999999
 31
0
  0
LINE
  8
1
 62
7
 10
-120.2
 20
-24.63679671664208
 30
0
 11
-120.2
 21
-15.99999999999999
 31
0
  0
LINE
  8
1
 62
7
 10
-125.1481786629849
 20
-21.42305239713791
 30
0
 11
-124.7769476028622
 21
-21.05182133701497
 31
0
  0
LINE
  8
1
 62
7
 10
-127.6230523971382
 20
-21.05182133701497
 30
0
 11
-127.2518213370151
 21
-21.42305239713791
 31
0
  0
LINE
  8
1
 62
7
 10
-127.2518213370151
 20
-18.57694760286209
 30
0
 11
-127.6230523971382
 21
-18.948178662985
 31
0
  0
LINE
  8
1
 62
7
 10
-124.7769476028622
 20
-18.948178662985
 30
0
 11
-125.1481786629849
 21
-18.57694760286209
 31
0
  0
LINE
  8
1
 62
7
 10
-115.1481786629849
 20
-21.42305239713791
 30
0
 11
-114.7769476028622
 21
-21.05182133701497
 31
0
  0
LINE
  8
1
 62
7
 10
-117.6230523971382
 20
-21.05182133701497
 30
0
 11
-117.2518213370151
 21
-21.42305239713791
 31
0
  0
LINE
  8
1
 62
7
 10
-117.2518213370151
 20
-18.57694760286209
 30
0
 11
-117.6230523971382
 21
-18.948178662985
 31
0
  0
LINE
  8
1
 62
7
 10
-114.7769476028622
 20
-18.948178662985
 30
0
 11
-115.1481786629849
 21
-18.57694760286209
 31
0
  0
LINE
  8
1
 62
7
 10
-133.45
 20
-10.26249999999997
 30
0
 11
-133.45
 21
-9.737499999999997
 31
0
  0
LINE
  8
1
 62
7
 10
-135.4625000000001
 20
-11.74999999999999
 30
0
 11
-134.9375
 21
-11.74999999999999
 31
0
  0
LINE
  8
1
 62
7
 10
-136.95
 20
-9.73749999999999
 30
0
 11
-136.95
 21
-10.26249999999997
 31
0
  0
LINE
  8
1
 62
7
 10
-134.9375
 20
-8.249999999999986
 30
0
 11
-135.4625000000001
 21
-8.249999999999986
 31
0
  0
LINE
  8
1
 62
7
 10
-139.2
 20
-24.99999999999999
 30
0
 11
-139.2
 21
-4.999999999999986
 31
0
  0
LINE
  8
1
 62
7
 10
-115.2
 20
-4.999999999999986
 30
0
 11
-115.2
 21
-0.05676798830086227
 31
0
  0
LINE
  8
1
 62
7
 10
-117.2
 20
-4.999999999999986
 30
0
 11
-117.2
 21
0.04323201169913204
 31
0
  0
LINE
  8
1
 62
7
 10
-112.2
 20
4.943232011699138
 30
0
 11
-118.2
 21
4.943232011699138
 31
0
  0
LINE
  8
1
 62
7
 10
-112.2
 20
6.943232011699138
 30
0
 11
-118.2
 21
6.943232011699138
 31
0
  0
LINE
  8
1
 62
7
 10
-125.2
 20
-2.056767988300862
 30
0
 11
-125.2
 21
-4.999999999999986
 31
0
  0
LINE
  8
1
 62
7
 10
-127.2
 20
-2.056767988300862
 30
0
 11
-127.2
 21
-4.999999999999986
 31
0
  0
LINE
  8
1
 62
7
 10
-107.1999999999999
 20
-0.05676798830086227
 30
0
 11
-107.1999999999999
 21
-4.999999999999986
 31
0
  0
LINE
  8
1
 62
7
 10
-105.1999999999999
 20
0.04323201169913204
 30
0
 11
-105.1999999999999
 21
-4.999999999999986
 31
0
  0
LINE
  8
1
 62
7
 10
-104.1999999999999
 20
4.943232011699138
 30
0
 11
-110.2
 21
4.943232011699138
 31
0
  0
LINE
  8
1
 62
7
 10
-104.1999999999999
 20
6.943232011699138
 30
0
 11
-110.2
 21
6.943232011699138
 31
0
  0
LINE
  8
1
 62
7
 10
-97.19999999999993
 20
-4.999999999999986
 30
0
 11
-97.19999999999993
 21
-2.056767988300862
 31
0
  0
LINE
  8
1
 62
7
 10
-95.19999999999993
 20
-4.999999999999986
 30
0
 11
-95.19999999999993
 21
-2.056767988300862
 31
0
  0
LINE
  8
1
 62
7
 10
-73.09999999999991
 20
-40.99999999999999
 30
0
 11
-75.70000000000005
 21
-40.99999999999999
 31
0
  0
LINE
  8
1
 62
7
 10
-76.93606797749993
 20
-53.99999999999999
 30
0
 11
-67.20000000000006
 21
-53.99999999999999
 31
0
  0
LINE
  8
1
 62
7
 10
-67.20000000000006
 20
-51.99999999999999
 30
0
 11
-77.70000000000005
 21
-51.99999999999999
 31
0
  0
LINE
  8
1
 62
7
 10
-64.20000000000006
 20
-50.99999999999999
 30
0
 11
-64.20000000000006
 21
-42.49999999999989
 31
0
  0
LINE
  8
1
 62
7
 10
-66.20000000000006
 20
-42.49999999999989
 30
0
 11
-66.20000000000006
 21
-50.99999999999999
 31
0
  0
LINE
  8
1
 62
7
 10
-144.7
 20
-51.99999999999999
 30
0
 11
-155.2000000000001
 21
-51.99999999999999
 31
0
  0
LINE
  8
1
 62
7
 10
-158.2000000000001
 20
-42.49999999999989
 30
0
 11
-158.2000000000001
 21
-50.99999999999999
 31
0
  0
LINE
  8
1
 62
7
 10
-156.2000000000001
 20
-50.99999999999999
 30
0
 11
-156.2000000000001
 21
-42.49999999999989
 31
0
  0
LINE
  8
1
 62
7
 10
-155.2000000000001
 20
-53.99999999999999
 30
0
 11
-145.4639320225002
 21
-53.99999999999999
 31
0
  0
LINE
  8
1
 62
7
 10
-33.49999999999994
 20
9.5
 30
0
 11
-30
 21
9.500000000000002
 31
0
  0
LINE
  8
1
 62
7
 10
-34.69999999999993
 20
-20
 30
0
 11
-34.69999999999993
 21
19.5
 31
0
  0
LINE
  8
1
 62
7
 10
-33.49999999999994
 20
11.7
 30
0
 11
-33.49999999999994
 21
-12.60806102257608
 31
0
  0
LINE
  8
1
 62
7
 10
-34.69999999999993
 20
-12.60806102257608
 30
0
 11
-33.49999999999994
 21
-12.60806102257608
 31
0
  0
LINE
  8
1
 62
7
 10
-33.49999999999994
 20
11.7
 30
0
 11
-34.69999999999993
 21
11.7
 31
0
  0
LINE
  8
1
 62
7
 10
-50.19999999999993
 20
-30
 30
0
 11
-50.69999999999993
 21
-30
 31
0
  0
LINE
  8
1
 62
7
 10
-50.19999999999993
 20
30
 30
0
 11
-50.69999999999993
 21
30
 31
0
  0
LINE
  8
1
 62
7
 10
-53.70000000000007
 20
-42.75
 30
0
 11
-53.70000000000007
 21
42.75
 31
0
  0
LINE
  8
1
 62
7
 10
-48.39999999999993
 20
-20
 30
0
 11
-49.19999999999993
 21
-20
 31
0
  0
LINE
  8
1
 62
7
 10
-47.39999999999993
 20
-39.49962221439432
 30
0
 11
-46.19999999999993
 21
-39.49962221439432
 31
0
  0
LINE
  8
1
 62
7
 10
-45.19999999999993
 20
-41.49981196036936
 30
0
 11
-39.19999999999993
 21
-41.49981196036936
 31
0
  0
LINE
  8
1
 62
7
 10
-38.69999999999993
 20
-40.99981196036936
 30
0
 11
-38.69999999999993
 21
29.49998946955515
 31
0
  0
LINE
  8
1
 62
7
 10
-38.19999999999993
 20
-39.49962221439432
 30
0
 11
-35.39999999999995
 21
-39.49962221439432
 31
0
  0
LINE
  8
1
 62
7
 10
-34.89999999999995
 20
-20
 30
0
 11
-34.69999999999993
 21
-20
 31
0
  0
LINE
  8
1
 62
7
 10
-39.19999999999993
 20
29.99998946955515
 30
0
 11
-47.39999999999993
 21
29.99998946955515
 31
0
  0
LINE
  8
1
 62
7
 10
-50.19999999999993
 20
-42
 30
0
 11
-50.19999999999993
 21
30
 31
0
  0
LINE
  8
1
 62
7
 10
-49.69999999999993
 20
-34.5
 30
0
 11
-47.89999999999993
 21
-34.5
 31
0
  0
LINE
  8
1
 62
7
 10
-49.69999999999993
 20
-25.5
 30
0
 11
-47.89999999999993
 21
-25.5
 31
0
  0
LINE
  8
1
 62
7
 10
-50.19999999999993
 20
-42
 30
0
 11
-49.69999999999993
 21
-42
 31
0
  0
LINE
  8
1
 62
7
 10
-48.79999999999994
 20
33.89999999999998
 30
0
 11
-48.29999999999994
 21
34.39999999999998
 31
0
  0
LINE
  8
1
 62
7
 10
-48.29999999999994
 20
40.59999999999997
 30
0
 11
-48.79999999999994
 21
41.09999999999997
 31
0
  0
LINE
  8
1
 62
7
 10
-49.69999999999993
 20
41.09999999999997
 30
0
 11
-49.69999999999993
 21
33.89999999999998
 31
0
  0
LINE
  8
1
 62
7
 10
-50.19999999999993
 20
33.89999999999998
 30
0
 11
-48.79999999999994
 21
33.89999999999998
 31
0
  0
LINE
  8
1
 62
7
 10
-48.29999999999994
 20
40.59999999999997
 30
0
 11
-48.29999999999994
 21
34.39999999999998
 31
0
  0
LINE
  8
1
 62
7
 10
-50.19999999999993
 20
41.09999999999997
 30
0
 11
-48.79999999999994
 21
41.09999999999997
 31
0
  0
LINE
  8
1
 62
7
 10
-50.69999999999993
 20
42.75
 30
0
 11
-50.69999999999993
 21
-42.75000000000001
 31
0
  0
LINE
  8
1
 62
7
 10
-50.69999999999993
 20
31.86602540378442
 30
0
 11
-50.19999999999993
 21
30
 31
0
  0
LINE
  8
1
 62
7
 10
-49.69999999999993
 20
30.06582624879366
 30
0
 11
-49.69999999999993
 21
-42
 31
0
  0
LINE
  8
1
 62
7
 10
-50.19999999999993
 20
31.93185165257813
 30
0
 11
-49.69999999999993
 21
30.06582624879366
 31
0
  0
LINE
  8
1
 62
7
 10
-50.19999999999993
 20
42
 30
0
 11
-50.19999999999993
 21
31.93185165257813
 31
0
  0
LINE
  8
1
 62
7
 10
-50.69999999999993
 20
42
 30
0
 11
-50.19999999999993
 21
42
 31
0
  0
LINE
  8
1
 62
7
 10
-50.69999999999993
 20
-42.75000000000001
 30
0
 11
-53.70000000000007
 21
-42.75
 31
0
  0
LINE
  8
1
 62
7
 10
-53.70000000000007
 20
42.75
 30
0
 11
-50.69999999999993
 21
42.75
 31
0
  0
LINE
  8
1
 62
7
 10
-47.89999999999993
 20
-20.5
 30
0
 11
-47.89999999999993
 21
-38.99962221439432
 31
0
  0
LINE
  8
1
 62
7
 10
-34.89999999999995
 20
-20
 30
0
 11
-34.89999999999995
 21
-38.99962221439432
 31
0
  0
LINE
  8
1
 62
7
 10
-35.19999999999993
 20
20
 30
0
 11
-38.19999999999993
 21
20
 31
0
  0
LINE
  8
1
 62
7
 10
-48.39999999999993
 20
20
 30
0
 11
-49.19999999999993
 21
20
 31
0
  0
LINE
  8
1
 62
7
 10
-47.89999999999993
 20
29.49998946955515
 30
0
 11
-47.89999999999993
 21
20.5
 31
0
  0
LINE
  8
1
 62
7
 10
-171.2
 20
-65
 30
0
 11
-171.2
 21
-58.99999999999999
 31
0
  0
LINE
  8
1
 62
7
 10
-171.2
 20
-65
 30
0
 11
-134.2
 21
-65
 31
0
  0
LINE
  8
1
 62
3
  6
DASHDOT
 10
-158.7
 20
-51.99999999999999
 30
0
 11
-158.7
 21
-68
 31
0
  0
LINE
  8
1
 62
7
 10
-145.7
 20
41.00000000000001
 30
0
 11
-147.2
 21
41.00000000000001
 31
0
  0
LINE
  8
1
 62
7
 10
-51.20000000000005
 20
-58.99999999999999
 30
0
 11
-51.20000000000005
 21
-65
 31
0
  0
LINE
  8
1
 62
7
 10
-55.20000000000005
 20
-54.99999999999999
 30
0
 11
-167.2
 21
-54.99999999999999
 31
0
  0
LINE
  8
1
 62
7
 10
-88.20000000000005
 20
-65
 30
0
 11
-51.20000000000005
 21
-65
 31
0
  0
LINE
  8
1
 62
7
 10
-92.20000000000005
 20
-60.99999999999999
 30
0
 11
-130.2
 21
-60.99999999999999
 31
0
  0
LINE
  8
1
 62
3
  6
DASHDOT
 10
-63.70000000000005
 20
-68
 30
0
 11
-63.70000000000005
 21
-51.99999999999999
 31
0
  0
LINE
  8
1
 62
7
 10
-78.70000000000005
 20
43.00000000000001
 30
0
 11
-143.7
 21
43.00000000000001
 31
0
  0
LINE
  8
1
 62
7
 10
-190.5
 20
38.5
 30
0
 11
-190.5
 21
-38.5
 31
0
  0
LINE
  8
1
 62
7
 10
-179.5
 20
38.50000000000001
 30
0
 11
-179.5
 21
-38.5
 31
0
  0
LINE
  8
1
 62
7
 10
-190.5
 20
38.5
 30
0
 11
-179.5
 21
38.50000000000001
 31
0
  0
LINE
  8
1
 62
7
 10
-190.5
 20
-38.5
 30
0
 11
-179.5
 21
-38.5
 31
0
  0
LINE
  8
1
 62
7
 10
-190.5
 20
20.00000000000001
 30
0
 11
-202.5
 21
20.00000000000001
 31
0
  0
LINE
  8
1
 62
7
 10
-202.5
 20
20.00000000000001
 30
0
 11
-202.5
 21
-19.99999999999999
 31
0
  0
LINE
  8
1
 62
7
 10
-202.5
 20
-19.99999999999999
 30
0
 11
-190.5
 21
-19.99999999999999
 31
0
  0
LINE
  8
1
 62
7
 10
-206.1666666666667
 20
14.00000000000001
 30
0
 11
-202.5
 21
10.00000000000001
 31
0
  0
LINE
  8
1
 62
7
 10
-202.5
 20
-9.999999999999993
 30
0
 11
-206.1666666666667
 21
-13.99999999999999
 31
0
  0
LINE
  8
1
 62
7
 10
-206.1666666666667
 20
-13.99999999999999
 30
0
 11
-206.1666666666667
 21
14.00000000000001
 31
0
  0
LINE
  8
1
 62
7
 10
-206.1666666666667
 20
12.50000000000001
 30
0
 11
-207.8333333333333
 21
12.50000000000001
 31
0
  0
LINE
  8
1
 62
7
 10
-207.8333333333333
 20
-12.49999999999999
 30
0
 11
-207.8333333333333
 21
12.50000000000001
 31
0
  0
LINE
  8
1
 62
7
 10
-207.8333333333333
 20
-12.49999999999999
 30
0
 11
-206.1666666666667
 21
-12.49999999999999
 31
0
  0
LINE
  8
1
 62
7
 10
-207.8333333333333
 20
7.500000000000007
 30
0
 11
-209
 21
7.500000000000007
 31
0
  0
LINE
  8
1
 62
3
 10
-207.8333333333333
 20
6.750000000000007
 30
0
 11
-209
 21
6.750000000000007
 31
0
  0
LINE
  8
1
 62
7
 10
-209
 20
-7.5
 30
0
 11
-209
 21
7.500000000000007
 31
0
  0
LINE
  8
1
 62
3
 10
-209
 20
-6.75
 30
0
 11
-207.8333333333333
 21
-6.75
 31
0
  0
LINE
  8
1
 62
7
 10
-209
 20
-7.5
 30
0
 11
-207.8333333333333
 21
-7.5
 31
0
  0
LINE
  8
1
 62
7
 10
-172.9
 20
-42.50000000000001
 30
0
 11
-171.9
 21
-42.50000000000001
 31
0
  0
LINE
  8
1
 62
7
 10
-171.9
 20
-42.50000000000001
 30
0
 11
-170.4566243270259
 21
-45.00000000000001
 31
0
  0
LINE
  8
1
 62
7
 10
-170.4566243270259
 20
-45.00000000000001
 30
0
 11
-160.9
 21
-45.00000000000001
 31
0
  0
LINE
  8
1
 62
7
 10
-172.9
 20
42.49999999999999
 30
0
 11
-172.9
 21
-42.50000000000001
 31
0
  0
LINE
  8
1
 62
7
 10
-160.9
 20
44.99999999999999
 30
0
 11
-170.4566243270259
 21
44.99999999999999
 31
0
  0
LINE
  8
1
 62
7
 10
-170.4566243270259
 20
44.99999999999999
 30
0
 11
-171.9
 21
42.49999999999999
 31
0
  0
LINE
  8
1
 62
7
 10
-171.9
 20
42.49999999999999
 30
0
 11
-172.9
 21
42.49999999999999
 31
0
  0
LINE
  8
1
 62
7
 10
-179.5
 20
-34.5
 30
0
 11
-177.4
 21
-34.5
 31
0
  0
LINE
  8
1
 62
7
 10
-179.5
 20
-25.5
 30
0
 11
-177.4
 21
-25.5
 31
0
  0
LINE
  8
1
 62
7
 10
-177.4
 20
-42.00000000000001
 30
0
 11
-176.9
 21
-42.00000000000001
 31
0
  0
LINE
  8
1
 62
7
 10
-178.8
 20
34.4
 30
0
 11
-178.3
 21
33.9
 31
0
  0
LINE
  8
1
 62
7
 10
-178.3
 20
41.09999999999999
 30
0
 11
-178.8
 21
40.59999999999999
 31
0
  0
LINE
  8
1
 62
7
 10
-177.4
 20
33.9
 30
0
 11
-177.4
 21
41.09999999999999
 31
0
  0
LINE
  8
1
 62
7
 10
-178.3
 20
33.9
 30
0
 11
-176.9
 21
33.9
 31
0
  0
LINE
  8
1
 62
7
 10
-178.8
 20
34.4
 30
0
 11
-178.8
 21
40.59999999999999
 31
0
  0
LINE
  8
1
 62
7
 10
-178.3
 20
41.09999999999999
 30
0
 11
-176.9
 21
41.09999999999999
 31
0
  0
LINE
  8
1
 62
7
 10
-176.9
 20
29.99999999999999
 30
0
 11
-176.4
 21
31.86602540378441
 31
0
  0
LINE
  8
1
 62
7
 10
-177.4
 20
30.06582624879359
 30
0
 11
-176.9
 21
31.9318516525781
 31
0
  0
LINE
  8
1
 62
7
 10
-176.9
 20
31.9318516525781
 30
0
 11
-176.9
 21
41.99999999999999
 31
0
  0
LINE
  8
1
 62
7
 10
-176.9
 20
41.99999999999999
 30
0
 11
-176.4
 21
41.99999999999999
 31
0
  0
LINE
  8
1
 62
7
 10
-173.2
 20
-43.00000000000001
 30
0
 11
-176.4
 21
-43.00000000000001
 31
0
  0
LINE
  8
1
 62
7
 10
-176.4
 20
42.99999999999999
 30
0
 11
-173.2
 21
42.99999999999999
 31
0
  0
LINE
  8
1
 62
7
 10
-173.2
 20
42.99999999999999
 30
0
 11
-173.2
 21
-43.00000000000001
 31
0
  0
LINE
  8
1
 62
7
 10
-149.3
 20
41.14923346977078
 30
0
 11
-147.2
 21
41.14923346977078
 31
0
  0
LINE
  8
1
 62
7
 10
-160.9
 20
44.99999999999999
 30
0
 11
-160.9
 21
-45.00000000000001
 31
0
  0
LINE
  8
1
 62
7
 10
-176.4
 20
42.99999999999999
 30
0
 11
-176.4
 21
-43.00000000000001
 31
0
  0
LINE
  8
1
 62
3
  6
DASHDOT
 10
-214
 20
0
 30
0
 11
-209
 21
7.105427357601002e-015
 31
0
  0
LINE
  8
1
 62
7
 10
-177.4
 20
-42.00000000000001
 30
0
 11
-177.4
 21
30.06582624879359
 31
0
  0
LINE
  8
1
 62
7
 10
-176.9
 20
-42.00000000000001
 30
0
 11
-176.9
 21
29.99999999999999
 31
0
  0
LINE
  8
1
 62
7
 10
-160.9
 20
42.49999999999999
 30
0
 11
-154.109004913842
 21
42.49999999999999
 31
0
  0
LINE
  8
1
 62
7
 10
-154.109004913842
 20
-42.49999999999989
 30
0
 11
-160.9
 21
-42.49999999999989
 31
0
  0
LINE
  8
1
 62
7
 10
-170.4566243270259
 20
-45.00000000000001
 30
0
 11
-170.4566243270259
 21
44.99999999999999
 31
0
  0
LINE
  8
1
 62
7
 10
-171.9
 20
42.49999999999999
 30
0
 11
-171.9
 21
-42.50000000000001
 31
0
  0
LINE
  8
1
 62
7
 10
-149.3
 20
-40.99999999999999
 30
0
 11
-146.7
 21
-40.99999999999999
 31
0
  0
LINE
  8
1
 62
7
 10
-149.3
 20
-40.99999999999999
 30
0
 11
-149.3
 21
41.14923346977078
 31
0
  0
LINE
  8
1
 62
7
 10
-25
 20
7.5
 30
0
 11
-25
 21
9.5
 31
0
  0
LINE
  8
1
 62
7
 10
-25
 20
9.5
 30
0
 11
-1.77635683940025e-015
 21
9.5
 31
0
  0
LINE
  8
1
 62
7
 10
-54.09999999999991
 20
-42.50000000000001
 30
0
 11
-54.09999999999991
 21
42.49999999999999
 31
0
  0
LINE
  8
1
 62
7
 10
-54.09999999999991
 20
-42.50000000000001
 30
0
 11
-67.09999999999991
 21
-42.50000000000001
 31
0
  0
LINE
  8
1
 62
7
 10
-73.10000000000002
 20
40.99999999999999
 30
0
 11
-76.70000000000005
 21
41.00000000000001
 31
0
  0
LINE
  8
1
 62
7
 10
-67.34999999999991
 20
42.49999999999999
 30
0
 11
-54.09999999999991
 21
42.49999999999999
 31
0
  0
LINE
  8
1
 62
7
 10
-30
 20
-9.5
 30
0
 11
-30
 21
9.500000000000002
 31
0
  0
LINE
  8
1
 62
7
 10
-30
 20
-9.5
 30
0
 11
-33.49999999999994
 21
-9.5
 31
0
  0
LINE
  8
1
 62
7
 10
-77.70000000000005
 20
-51.99999999999999
 30
0
 11
-77.70000000000005
 21
42.00000000000001
 31
0
  0
LINE
  8
1
 62
7
 10
-75.20000000000005
 20
41.00000000000001
 30
0
 11
-75.20000000000005
 21
-40.99999999999999
 31
0
  0
LINE
  8
1
 62
7
 10
-73.09999999999991
 20
-40.99999999999999
 30
0
 11
-73.10000000000002
 21
40.99999999999999
 31
0
  0
LINE
  8
1
 62
7
 10
-147.2
 20
-40.99999999999999
 30
0
 11
-147.2
 21
41.14923346977078
 31
0
  0
LINE
  8
1
 62
7
 10
-144.7
 20
42.00000000000001
 30
0
 11
-144.7
 21
-51.99999999999999
 31
0
  0
LINE
  8
1
 62
3
  6
DASHDOT
 10
-18.24337567297407
 20
1.86671347028255e-015
 30
0
 11
5
 21
0
 31
0
  0
LINE
  8
1
 62
7
 10
-1.77635683940025e-015
 20
-7.5
 30
0
 11
-30
 21
-7.5
 31
0
  0
LINE
  8
1
 62
7
 10
-30
 20
7.5
 30
0
 11
-1.77635683940025e-015
 21
7.5
 31
0
  0
LINE
  8
1
 62
7
 10
-1.77635683940025e-015
 20
9.5
 30
0
 11
-1.77635683940025e-015
 21
-7.5
 31
0
  0
LINE
  8
1
 62
7
 10
-45.69999999999993
 20
-39.99962221439432
 30
0
 11
-45.69999999999993
 21
-40.99981196036936
 31
0
  0
ARC
  8
1
 62
7
  6
DASHED
 10
-158.7
 20
195.0000000000001
 30
0
 40
4.5
 50
180
 51
326.251011404111
  0
ARC
  8
1
 62
7
 10
-158.7
 20
195.0000000000001
 30
0
 40
4.499999999999949
 50
326.251011404111
 51
180
  0
ARC
  8
1
 62
7
 10
-158.7
 20
105
 30
0
 40
4.500000000000114
 50
180
 51
33.74898859588927
  0
ARC
  8
1
 62
7
  6
DASHED
 10
-158.7
 20
105
 30
0
 40
4.5000000000001
 50
33.74898859588927
 51
180
  0
ARC
  8
1
 62
7
 10
-63.70000000000005
 20
105
 30
0
 40
4.500000000000007
 50
146.107251562593
 51
33.74898859588857
  0
ARC
  8
1
 62
7
  6
DASHED
 10
-63.70000000000005
 20
105
 30
0
 40
4.500000000000003
 50
33.74898859588857
 51
146.107251562593
  0
ARC
  8
1
 62
7
 10
-63.70000000000005
 20
195.0000000000001
 30
0
 40
4.499999999999985
 50
326.2510114041112
 51
213.8927484374074
  0
ARC
  8
1
 62
7
  6
DASHED
 10
-63.70000000000005
 20
195.0000000000001
 30
0
 40
4.499999999999991
 50
213.8927484374074
 51
326.2510114041112
  0
ARC
  8
1
 62
7
 10
-153.9076207461137
 20
112.1121342918542
 30
0
 40
4.616528816016226
 50
267.4998259682885
 51
356.440069475035
  0
ARC
  8
1
 62
7
 10
-153.9076207461137
 20
187.8878657081459
 30
0
 40
4.616528816016315
 50
3.559930524964778
 51
92.50017403171148
  0
ARC
  8
1
 62
7
 10
-167.2
 20
203
 30
0
 40
4
 50
90
 51
180
  0
ARC
  8
1
 62
7
 10
-167.2
 20
97.00000000000003
 30
0
 40
4
 50
180
 51
270
  0
ARC
  8
1
 62
7
 10
-55.20000000000005
 20
97.00000000000003
 30
0
 40
4
 50
270
 51
0
  0
ARC
  8
1
 62
7
 10
-55.20000000000005
 20
203
 30
0
 40
4
 50
0
 51
90
  0
ARC
  8
1
 62
7
 10
-146.7
 20
95.00000000000011
 30
0
 40
2
 50
270
 51
0
  0
ARC
  8
1
 62
7
 10
-75.70000000000005
 20
95.00000000000011
 30
0
 40
2
 50
180
 51
270
  0
ARC
  8
1
 62
7
 10
-146.7
 20
205
 30
0
 40
2
 50
0
 51
90
  0
ARC
  8
1
 62
7
 10
-75.70000000000005
 20
205
 30
0
 40
2
 50
90
 51
180
  0
ARC
  8
1
 62
7
 10
-145.7
 20
108.0000000000001
 30
0
 40
1
 50
0
 51
90
  0
ARC
  8
1
 62
7
 10
-76.70000000000005
 20
108.0000000000001
 30
0
 40
1
 50
90
 51
180
  0
ARC
  8
1
 62
7
 10
-78.70000000000005
 20
108.0000000000001
 30
0
 40
1
 50
270
 51
0
  0
ARC
  8
1
 62
7
 10
-143.7
 20
108.0000000000001
 30
0
 40
1
 50
180
 51
270
  0
ARC
  8
1
 62
7
 10
-22.5
 20
150
 30
0
 40
2.5
 50
90
 51
270
  0
ARC
  8
1
 62
7
 10
-67.09999999999991
 20
186.5052105958593
 30
0
 40
5.999999999999917
 50
92.38801546326882
 51
180
  0
ARC
  8
1
 62
7
 10
-67.09999999999991
 20
113.5
 30
0
 40
6
 50
180
 51
270
  0
ARC
  8
1
 62
7
 10
-76.70000000000005
 20
192.0000000000001
 30
0
 40
1
 50
180
 51
270
  0
ARC
  8
1
 62
7
 10
-78.70000000000005
 20
192.0000000000001
 30
0
 40
1
 50
0
 51
90
  0
ARC
  8
1
 62
7
 10
-145.7
 20
192.0000000000001
 30
0
 40
1
 50
270
 51
0
  0
ARC
  8
1
 62
7
 10
-143.7
 20
192.0000000000001
 30
0
 40
1
 50
90
 51
180
  0
ARC
  8
1
 62
7
 10
-35.19999999999993
 20
169.5
 30
0
 40
0.5
 50
0
 51
90
  0
ARC
  8
1
 62
7
 10
-38.19999999999993
 20
170.5
 30
0
 40
0.5
 50
180
 51
270
  0
ARC
  8
1
 62
7
 10
-49.19999999999993
 20
169.5
 30
0
 40
0.5
 50
90
 51
180
  0
ARC
  8
1
 62
7
 10
-48.39999999999993
 20
170.5
 30
0
 40
0.5
 50
270
 51
0
  0
ARC
  8
1
 62
7
 10
-48.39999999999993
 20
129.5
 30
0
 40
0.5
 50
0
 51
90
  0
ARC
  8
1
 62
7
 10
-35.39999999999995
 20
111.0003777856057
 30
0
 40
0.5
 50
270
 51
0
  0
ARC
  8
1
 62
7
 10
-38.19999999999993
 20
110.0003777856057
 30
0
 40
0.5
 50
90
 51
180
  0
ARC
  8
1
 62
7
 10
-39.19999999999993
 20
109.0001880396306
 30
0
 40
0.5
 50
270
 51
0
  0
ARC
  8
1
 62
7
 10
-45.19999999999993
 20
109.0001880396306
 30
0
 40
0.5
 50
180
 51
270
  0
ARC
  8
1
 62
7
 10
-46.19999999999993
 20
110.0003777856057
 30
0
 40
0.5
 50
0
 51
90
  0
ARC
  8
1
 62
7
 10
-47.39999999999993
 20
111.0003777856057
 30
0
 40
0.5
 50
180
 51
270
  0
ARC
  8
1
 62
7
 10
-49.19999999999993
 20
130.5
 30
0
 40
0.5
 50
180
 51
270
  0
ARC
  8
1
 62
7
 10
-47.39999999999993
 20
179.4999894695551
 30
0
 40
0.5
 50
90
 51
180
  0
ARC
  8
1
 62
7
 10
-39.19999999999993
 20
179.4999894695551
 30
0
 40
0.5
 50
0
 51
90
  0
ARC
  8
1
 62
7
 10
-394.0486326243599
 20
-58.99999999999999
 30
0
 40
4
 50
90
 51
180
  0
ARC
  8
1
 62
7
 10
-376.0486326243599
 20
-58.99999999999999
 30
0
 40
4
 50
0
 51
90
  0
ARC
  8
1
 62
7
 10
-368.0486326243599
 20
-65
 30
0
 40
4.000000000000007
 50
90
 51
180
  0
ARC
  8
1
 62
7
 10
-380.0486326243599
 20
39.00000000000001
 30
0
 40
4
 50
90
 51
180
  0
ARC
  8
1
 62
7
 10
-302.0486326243599
 20
39.00000000000001
 30
0
 40
4
 50
0
 51
90
  0
ARC
  8
1
 62
7
 10
-288.0486326243599
 20
-58.99999999999999
 30
0
 40
4
 50
0
 51
90
  0
ARC
  8
1
 62
7
 10
-306.0486326243599
 20
-58.99999999999999
 30
0
 40
4
 50
90
 51
180
  0
ARC
  8
1
 62
7
 10
-314.0486326243599
 20
-65
 30
0
 40
4
 50
0
 51
90
  0
ARC
  8
1
 62
7
 10
-380.0486326243599
 20
39.00000000000001
 30
0
 40
4
 50
90
 51
180
  0
ARC
  8
1
 62
7
 10
-341.0486326243599
 20
-52.99999999999999
 30
0
 40
3.000000000000008
 50
131.8103148957785
 51
48.18968510422154
  0
ARC
  8
1
 62
7
 10
-342.0486326243599
 20
-52.99999999999999
 30
0
 40
1
 50
180
 51
0
  0
ARC
  8
1
 62
7
 10
-340.0486326243599
 20
-52.99999999999999
 30
0
 40
1
 50
180
 51
0
  0
ARC
  8
1
 62
7
 10
-306.4004003462191
 20
34.64823227814083
 30
0
 40
4.249999999999995
 50
243.8923761392299
 51
206.107623860771
  0
ARC
  8
1
 62
7
 10
-341.0486326243599
 20
7.105427357601002e-015
 30
0
 40
54.97398830626508
 50
41.77151597972456
 51
48.22848402027541
  0
ARC
  8
1
 62
7
 10
-375.6968649025007
 20
34.64823227814083
 30
0
 40
4.249999999999915
 50
333.8923761392294
 51
296.1076238607689
  0
ARC
  8
1
 62
7
 10
-341.0486326243599
 20
7.105427357601002e-015
 30
0
 40
54.97398830626507
 50
131.7715159797245
 51
138.2284840202754
  0
ARC
  8
1
 62
7
 10
-375.6968649025007
 20
-34.64823227814081
 30
0
 40
4.249999999999945
 50
63.89237613923129
 51
26.1076238607707
  0
ARC
  8
1
 62
7
 10
-341.0486326243599
 20
7.105427357601002e-015
 30
0
 40
54.97398830626507
 50
221.7715159797245
 51
228.2284840202755
  0
ARC
  8
1
 62
7
 10
-306.4004003462191
 20
-34.64823227814082
 30
0
 40
4.249999999999915
 50
153.8923761392294
 51
116.1076238607692
  0
ARC
  8
1
 62
7
 10
-341.0486326243599
 20
7.105427357601002e-015
 30
0
 40
54.97398830626507
 50
311.7715159797245
 51
318.2284840202754
  0
ARC
  8
1
 62
7
 10
-341.0486326243599
 20
7.105427357601002e-015
 30
0
 40
12.50000000000008
 50
9.206896221345845
 51
80.79310377865409
  0
ARC
  8
1
 62
7
 10
-341.0486326243599
 20
7.105427357601002e-015
 30
0
 40
12.49999999999999
 50
99.20689622134591
 51
170.7931037786541
  0
ARC
  8
1
 62
7
 10
-341.0486326243599
 20
7.105427357601002e-015
 30
0
 40
12.50000000000002
 50
189.2068962213459
 51
260.7931037786541
  0
ARC
  8
1
 62
7
 10
-341.0486326243599
 20
7.105427357601002e-015
 30
0
 40
12.5
 50
279.2068962213459
 51
350.7931037786542
  0
ARC
  8
1
 62
3
  6
DASHDOT
 10
-341.0486326243599
 20
7.105427357601002e-015
 30
0
 40
27
 50
75.00000000000004
 51
105.0000000000001
  0
ARC
  8
1
 62
3
  6
DASHDOT
 10
-341.0486326243599
 20
7.105427357601002e-015
 30
0
 40
27.00000000000002
 50
194.9999999999999
 51
224.9999999999999
  0
ARC
  8
1
 62
3
  6
DASHDOT
 10
-341.0486326243599
 20
7.105427357601002e-015
 30
0
 40
27.00000000000006
 50
315
 51
344.9999999999999
  0
ARC
  8
1
 62
7
 10
-112.2
 20
-0.05676798830086227
 30
0
 40
3
 50
90
 51
180
  0
ARC
  8
1
 62
7
 10
-112.2500000000001
 20
-0.006767988300964367
 30
0
 40
4.950252518811643
 50
89.42127443439114
 51
179.4212744343911
  0
ARC
  8
1
 62
7
 10
-118.2
 20
-2.056767988300862
 30
0
 40
7
 50
90
 51
180
  0
ARC
  8
1
 62
7
 10
-118.2
 20
-2.056767988300862
 30
0
 40
9
 50
90
 51
180
  0
ARC
  8
1
 62
7
 10
-110.1999999999999
 20
-0.05676798830086227
 30
0
 40
3
 50
0
 51
90
  0
ARC
  8
1
 62
7
 10
-110.1499999999999
 20
-0.006767988300971917
 30
0
 40
4.950252518811544
 50
0.5787255656089648
 51
90.57872556560888
  0
ARC
  8
1
 62
7
 10
-104.1999999999999
 20
-2.056767988300862
 30
0
 40
6.999999999999972
 50
0
 51
90
  0
ARC
  8
1
 62
7
 10
-104.1999999999999
 20
-2.056767988300862
 30
0
 40
8.999999999999972
 50
0
 51
90
  0
ARC
  8
1
 62
7
 10
-67.20000000000006
 20
-50.99999999999999
 30
0
 40
3
 50
270
 51
0
  0
ARC
  8
1
 62
7
 10
-67.20000000000006
 20
-50.99999999999999
 30
0
 40
1
 50
270
 51
0
  0
ARC
  8
1
 62
7
 10
-155.2000000000001
 20
-50.99999999999999
 30
0
 40
3
 50
180
 51
270
  0
ARC
  8
1
 62
7
 10
-155.2000000000001
 20
-50.99999999999999
 30
0
 40
1
 50
180
 51
270
  0
ARC
  8
1
 62
7
 10
-39.19999999999993
 20
29.49998946955515
 30
0
 40
0.5
 50
0
 51
90
  0
ARC
  8
1
 62
7
 10
-47.39999999999993
 20
29.49998946955515
 30
0
 40
0.5
 50
90
 51
180
  0
ARC
  8
1
 62
7
 10
-49.19999999999993
 20
-19.5
 30
0
 40
0.5
 50
180
 51
270
  0
ARC
  8
1
 62
7
 10
-47.39999999999993
 20
-38.99962221439432
 30
0
 40
0.5
 50
180
 51
270
  0
ARC
  8
1
 62
7
 10
-46.19999999999993
 20
-39.99962221439432
 30
0
 40
0.5
 50
0
 51
90
  0
ARC
  8
1
 62
7
 10
-45.19999999999993
 20
-40.99981196036936
 30
0
 40
0.5
 50
180
 51
270
  0
ARC
  8
1
 62
7
 10
-39.19999999999993
 20
-40.99981196036936
 30
0
 40
0.5
 50
270
 51
0
  0
ARC
  8
1
 62
7
 10
-38.19999999999993
 20
-39.99962221439432
 30
0
 40
0.5
 50
90
 51
180
  0
ARC
  8
1
 62
7
 10
-35.39999999999995
 20
-38.99962221439432
 30
0
 40
0.5
 50
270
 51
0
  0
ARC
  8
1
 62
7
 10
-48.39999999999993
 20
-20.5
 30
0
 40
0.5
 50
0
 51
90
  0
ARC
  8
1
 62
7
 10
-48.39999999999993
 20
20.5
 30
0
 40
0.5
 50
270
 51
0
  0
ARC
  8
1
 62
7
 10
-49.19999999999993
 20
19.5
 30
0
 40
0.5
 50
90
 51
180
  0
ARC
  8
1
 62
7
 10
-38.19999999999993
 20
20.5
 30
0
 40
0.5
 50
180
 51
270
  0
ARC
  8
1
 62
7
 10
-35.19999999999993
 20
19.5
 30
0
 40
0.5
 50
0
 51
90
  0
ARC
  8
1
 62
7
 10
-130.2
 20
-65
 30
0
 40
4.000000000000007
 50
90
 51
180
  0
ARC
  8
1
 62
7
 10
-167.2
 20
-58.99999999999999
 30
0
 40
4
 50
90
 51
180
  0
ARC
  8
1
 62
7
 10
-147.7
 20
-51.99999999999999
 30
0
 40
3
 50
270
 51
0
  0
ARC
  8
1
 62
7
 10
-146.7
 20
-42.99999999999999
 30
0
 40
2
 50
0
 51
90
  0
ARC
  8
1
 62
7
 10
-143.7
 20
42.00000000000001
 30
0
 40
1
 50
90
 51
180
  0
ARC
  8
1
 62
7
 10
-145.7
 20
42.00000000000001
 30
0
 40
1
 50
270
 51
0
  0
ARC
  8
1
 62
7
 10
-92.20000000000005
 20
-65
 30
0
 40
4
 50
0
 51
90
  0
ARC
  8
1
 62
7
 10
-55.20000000000005
 20
-58.99999999999999
 30
0
 40
4
 50
0
 51
90
  0
ARC
  8
1
 62
7
 10
-74.70000000000005
 20
-51.99999999999999
 30
0
 40
3
 50
180
 51
270
  0
ARC
  8
1
 62
7
 10
-75.70000000000005
 20
-42.99999999999999
 30
0
 40
2
 50
90
 51
180
  0
ARC
  8
1
 62
7
 10
-78.70000000000005
 20
42.00000000000001
 30
0
 40
1
 50
0
 51
90
  0
ARC
  8
1
 62
7
 10
-76.70000000000005
 20
42.00000000000001
 30
0
 40
1
 50
180
 51
270
  0
ARC
  8
1
 62
7
 10
-67.09999999999991
 20
-36.5
 30
0
 40
6
 50
180
 51
270
  0
ARC
  8
1
 62
7
 10
-67.09999999999991
 20
36.49999999999999
 30
0
 40
5.999999999999975
 50
92.3880154632688
 51
180
  0
ARC
  8
1
 62
7
 10
-96.20000000000005
 20
-22.47487373415289
 30
0
 40
1.487500000000072
 50
44.99999999999681
 51
134.999999999997
  0
ARC
  8
1
 62
7
 10
-93.72512626584728
 20
-19.99999999999999
 30
0
 40
1.487499999999916
 50
134.9999999999968
 51
225.000000000003
  0
ARC
  8
1
 62
7
 10
-96.20000000000005
 20
-17.52512626584711
 30
0
 40
1.487499999999911
 50
225.000000000003
 51
315.0000000000032
  0
ARC
  8
1
 62
7
 10
-98.67487373415304
 20
-19.99999999999999
 30
0
 40
1.487499999999911
 50
314.999999999997
 51
45.0000000000032
  0
ARC
  8
1
 62
7
 10
-106.2
 20
-22.47487373415289
 30
0
 40
1.487500000000072
 50
44.99999999999681
 51
135.0000000000005
  0
ARC
  8
1
 62
7
 10
-103.7251262658471
 20
-19.99999999999999
 30
0
 40
1.487500000000077
 50
135.000000000003
 51
224.9999999999968
  0
ARC
  8
1
 62
7
 10
-106.2
 20
-17.52512626584711
 30
0
 40
1.487500000000002
 50
224.9999999999995
 51
315.0000000000032
  0
ARC
  8
1
 62
7
 10
-108.6748737341532
 20
-19.99999999999999
 30
0
 40
1.487500000000002
 50
315.0000000000005
 51
44.99999999999971
  0
ARC
  8
1
 62
7
 10
-88.95000000000005
 20
-11.74999999999999
 30
0
 40
1.487499999999955
 50
0
 51
90
  0
ARC
  8
1
 62
7
 10
-85.45000000000005
 20
-11.74999999999999
 30
0
 40
1.487500000000019
 50
90
 51
180
  0
ARC
  8
1
 62
7
 10
-85.45000000000005
 20
-8.249999999999986
 30
0
 40
1.487499999999841
 50
180
 51
270
  0
ARC
  8
1
 62
7
 10
-88.95000000000005
 20
-8.249999999999986
 30
0
 40
1.487500000000011
 50
270
 51
0
  0
ARC
  8
1
 62
7
 10
-126.2
 20
-22.47487373415289
 30
0
 40
1.487500000000072
 50
44.99999999999681
 51
135.0000000000032
  0
ARC
  8
1
 62
7
 10
-128.6748737341532
 20
-19.99999999999999
 30
0
 40
1.487500000000012
 50
315.0000000000009
 51
44.99999999999933
  0
ARC
  8
1
 62
7
 10
-126.2
 20
-17.52512626584711
 30
0
 40
1.487500000000072
 50
224.9999999999968
 51
315.0000000000032
  0
ARC
  8
1
 62
7
 10
-123.7251262658471
 20
-19.99999999999999
 30
0
 40
1.487500000000077
 50
135.000000000003
 51
224.9999999999968
  0
ARC
  8
1
 62
7
 10
-116.2
 20
-22.47487373415289
 30
0
 40
1.487500000000072
 50
44.99999999999681
 51
135.0000000000032
  0
ARC
  8
1
 62
7
 10
-118.6748737341532
 20
-19.99999999999999
 30
0
 40
1.487500000000002
 50
315.0000000000005
 51
44.99999999999971
  0
ARC
  8
1
 62
7
 10
-116.2
 20
-17.52512626584711
 30
0
 40
1.487500000000072
 50
224.9999999999968
 51
315.0000000000032
  0
ARC
  8
1
 62
7
 10
-113.7251262658471
 20
-19.99999999999999
 30
0
 40
1.487500000000077
 50
135.000000000003
 51
224.9999999999968
  0
ARC
  8
1
 62
7
 10
-133.45
 20
-11.74999999999999
 30
0
 40
1.487500000000019
 50
90
 51
180
  0
ARC
  8
1
 62
7
 10
-136.95
 20
-11.74999999999999
 30
0
 40
1.487499999999898
 50
0
 51
90
  0
ARC
  8
1
 62
7
 10
-136.95
 20
-8.249999999999986
 30
0
 40
1.487500000000004
 50
270
 51
0
  0
ARC
  8
1
 62
7
 10
-133.45
 20
-8.249999999999986
 30
0
 40
1.487500000000011
 50
180
 51
270
  0
ARC
  8
1
 62
7
 10
-111.2
 20
4.943232011699138
 30
0
 40
5.000000000000061
 50
23.57817847820153
 51
156.421821521799
  0
ARC
  8
1
 62
7
 10
-111.2
 20
4.943232011699138
 30
0
 40
5
 50
180
 51
198.8078095517085
  0
ARC
  8
1
 62
7
 10
-111.2
 20
4.943232011699138
 30
0
 40
5.000000000000047
 50
224.1457432463716
 51
315.8542567536275
  0
ARC
  8
1
 62
7
 10
-111.2
 20
4.943232011699138
 30
0
 40
5.000000000000042
 50
341.1921904482911
 51
0
  0
ARC
  8
1
 62
7
 10
-111.2
 20
4.943232011699138
 30
0
 40
2.500000000000016
 50
234.4649085793088
 51
305.5350914206891
  0
ARC
  8
1
 62
7
 10
-111.2
 20
4.943232011699138
 30
0
 40
2.5
 50
53.13010235415598
 51
126.869897645844
  0
ARC
  8
1
 62
7
 10
-153.9076207461137
 20
37.88786570814579
 30
0
 40
4.616528816016317
 50
3.559930524965218
 51
92.50017403171148
  0
ARC
  8
1
 62
7
 10
-153.9076207461137
 20
-37.8878657081458
 30
0
 40
4.616528816016212
 50
267.4998259682885
 51
356.4400694750349
  0
ARC
  8
1
 62
7
 10
-112.2
 20
5.943232011699138
 30
0
 40
1
 50
270
 51
90
  0
ARC
  8
1
 62
7
 10
-112.2
 20
3.943232011699138
 30
0
 40
1
 50
270
 51
90
  0
ARC
  8
1
 62
7
 10
-110.2
 20
3.943232011699138
 30
0
 40
0.9999999999999996
 50
90
 51
270
  0
ARC
  8
1
 62
7
 10
-110.2
 20
5.943232011699138
 30
0
 40
1
 50
90
 51
270
  0
CIRCLE
  8
1
 62
7
 10
-367.0844835136559
 20
15.15742250178646
 30
0
 40
2
  0
CIRCLE
  8
1
 62
7
 10
-367.0844835136559
 20
15.15742250178646
 30
0
 40
4.999999999999943
  0
CIRCLE
  8
1
 62
7
 10
-315.1229592865895
 20
15.15742250178646
 30
0
 40
2
  0
CIRCLE
  8
1
 62
7
 10
-315.1229592865895
 20
15.15742250178646
 30
0
 40
5
  0
CIRCLE
  8
1
 62
7
 10
-341.1037214001228
 20
-29.84257749821352
 30
0
 40
2
  0
CIRCLE
  8
1
 62
7
 10
-341.1037214001228
 20
-29.84257749821352
 30
0
 40
5
  0
CIRCLE
  8
1
 62
7
 10
-367.0844835136559
 20
15.15742250178646
 30
0
 40
6.5
  0
CIRCLE
  8
1
 62
7
 10
-315.1229592865895
 20
15.15742250178646
 30
0
 40
6.5
  0
CIRCLE
  8
1
 62
7
 10
-341.1037214001228
 20
-29.84257749821352
 30
0
 40
6.5
  0
CIRCLE
  8
1
 62
7
 10
-341.0486326243599
 20
7.105427357601002e-015
 30
0
 40
38.5
  0
CIRCLE
  8
1
 62
7
 10
-341.0486326243599
 20
7.105427357601002e-015
 30
0
 40
45
  0
CIRCLE
  8
1
 62
7
 10
-341.0486326243599
 20
7.105427357601002e-015
 30
0
 40
20
  0
CIRCLE
  8
1
 62
3
 10
-341.0486326243599
 20
27.00000000000001
 30
0
 40
3
  0
CIRCLE
  8
1
 62
7
 10
-341.0486326243599
 20
27.00000000000001
 30
0
 40
2.5
  0
CIRCLE
  8
1
 62
7
 10
-341.0486326243599
 20
7.105427357601002e-015
 30
0
 40
43
  0
CIRCLE
  8
1
 62
7
 10
-341.0486326243599
 20
7.105427357601002e-015
 30
0
 40
7.5
  0
CIRCLE
  8
1
 62
3
 10
-341.0486326243599
 20
7.105427357601002e-015
 30
0
 40
6.75
  0
CIRCLE
  8
1
 62
3
 10
-364.4313185265398
 20
-13.5
 30
0
 40
3.000000000000003
  0
CIRCLE
  8
1
 62
7
 10
-364.4313185265398
 20
-13.5
 30
0
 40
2.500000000000012
  0
CIRCLE
  8
1
 62
3
 10
-317.6659467221801
 20
-13.5
 30
0
 40
3.000000000000003
  0
CIRCLE
  8
1
 62
7
 10
-317.6659467221801
 20
-13.5
 30
0
 40
2.500000000000012
  0
CIRCLE
  8
1
 62
7
 10
-96.20000000000005
 20
-19.99999999999999
 30
0
 40
2.75
  0
CIRCLE
  8
1
 62
7
 10
-106.2
 20
-19.99999999999999
 30
0
 40
2.75
  0
CIRCLE
  8
1
 62
7
 10
-87.20000000000005
 20
-9.999999999999986
 30
0
 40
2.75
  0
CIRCLE
  8
1
 62
7
 10
-126.2
 20
-19.99999999999999
 30
0
 40
2.75
  0
CIRCLE
  8
1
 62
7
 10
-116.2
 20
-19.99999999999999
 30
0
 40
2.75
  0
CIRCLE
  8
1
 62
7
 10
-135.2
 20
-9.999999999999986
 30
0
 40
2.75
  0
TEXT
  8
1
 62
7
 10
-366.2486326243599
 20
146.5315490836095
 30
0
 40
7
  1
DC2402
 41
0.9
  7
SIMPLEX
  0
TEXT
  8
1
 62
7
 10
-366.2486326243599
 20
157.0315490836095
 30
0
 40
7
  1
TMAP 1.2
 41
0.9
  7
SIMPLEX
  0
TEXT
  8
1
 62
7
 10
-104.35
 20
-12.49999999999999
 30
0
 40
3.5
  1
BR
 41
0.8910000000000004
  7
SIMPLEX
  0
TEXT
  8
1
 62
7
 10
-124.35
 20
-12.49999999999999
 30
0
 40
3.5
  1
CL
 41
0.8910000000000004
  7
SIMPLEX
  0
ENDSEC
  0
EOF
