  0
SECTION
  2
HEADER
  9
$ACADVER
  1
AC1009
  9
$INSBASE
 10
0
 20
0
  9
$EXTMIN
 10
-447.0159500225368
 20
-83
  9
$EXTMAX
 10
1.72181760186408
 20
267
  9
$LIMMIN
 10
-447.0159500225368
 20
-83
  9
$LIMMAX
 10
1.72181760186408
 20
267
  9
$VIEWCTR
 10
10
 20
10
  9
$VIEWSIZE
 40
10
  9
$SNAPMODE
 70
0
  9
$SNAPUNIT
 10
1
 20
1
  9
$SNAPBASE
 10
0
 20
0
  9
$SNAPANG
 50
0
  9
$SNAPSTYLE
 70
0
  9
$SNAPISOPAIR
 70
0
  9
$GRIDMODE
 70
0
  9
$GRIDUNIT
 10
0
 20
0
  9
$ORTHOMODE
 70
0
  9
$REGENMODE
 70
1
  9
$FILLMODE
 70
1
  9
$QTEXTMODE
 70
0
  9
$DRAGMODE
 70
2
  9
$LTSCALE
 40
1
  9
$OSMODE
 70
0
  9
$ATTMODE
 70
1
  9
$TEXTSIZE
 40
3.5
  9
$TRACEWID
 40
0.5
  9
$TEXTSTYLE
  7
STANDARD
  9
$CLAYER
  8
0
  9
$CELTYPE
  6
BYLAYER
  9
$CECOLOR
 62
256
  9
$DIMSCALE
 40
1
  9
$DIMASZ
 40
0.18
  9
$DIMEXO
 40
0.0625
  9
$DIMDLI
 40
0.38
  9
$DIMRND
 40
0
  9
$DIMDLE
 40
0
  9
$DIMEXE
 40
0.18
  9
$DIMTP
 40
0
  9
$DIMTM
 40
0
  9
$DIMTXT
 40
0.18
  9
$DIMCEN
 40
0.09
  9
$DIMTSZ
 40
0
  9
$DIMTOL
 70
0
  9
$DIMLIM
 70
0
  9
$DIMTIH
 70
1
  9
$DIMTOH
 70
1
  9
$DIMSE1
 70
0
  9
$DIMSE2
 70
0
  9
$DIMTAD
 70
0
  9
$DIMZIN
 70
0
  9
$DIMBLK
  1

  9
$DIMASO
 70
1
  9
$DIMSHO
 70
1
  9
$DIMPOST
  1

  9
$DIMAPOST
  1

  9
$DIMALT
 70
0
  9
$DIMALTD
 70
2
  9
$DIMALTF
 40
25.4
  9
$DIMLFAC
 40
1
  9
$DIMTOFL
 70
0
  9
$DIMTVP
 40
0
  9
$DIMTIX
 70
0
  9
$DIMSOXD
 70
0
  9
$DIMSAH
 70
0
  9
$DIMBLK1
  1

  9
$DIMBLK2
  1

  9
$DIMSTYLE
  2
*UNNAMED
  9
$DIMCLRD
 70
0
  9
$DIMCLRE
 70
0
  9
$DIMCLRT
 70
0
  9
$DIMTFAC
 40
1
  9
$DIMGAP
 40
0.09
  9
$LUNITS
 70
2
  9
$LUPREC
 70
4
  9
$AXISMODE
 70
0
  9
$AXISUNIT
 10
0
 20
0
  9
$SKETCHINC
 40
0.1
  9
$FILLETRAD
 40
2
  9
$AUNITS
 70
0
  9
$AUPREC
 70
0
  9
$MENU
  1
ACAD
  9
$ELEVATION
 40
0
  9
$THICKNESS
 40
0
  9
$VIEWDIR
 10
0
 20
0
 30
1
  9
$LIMCHECK
 70
0
  9
$BLIPMODE
 70
1
  9
$CHAMFERA
 40
0
  9
$CHAMFERB
 40
0
  9
$FASTZOOM
 70
1
  9
$SKPOLY
 70
0
  9
$ANGBASE
 50
0
  9
$ANGDIR
 70
0
  9
$PDMODE
 70
0
  9
$PDSIZE
 40
0
  9
$PLINEWID
 40
0
  9
$COORDS
 70
2
  0
ENDSEC
  0
SECTION
  2
TABLES
  0
TABLE
  2
DIMSTYLE
 70
0
  0
ENDTAB
  0
TABLE
  2
LTYPE
 70
9
  0
LTYPE
  2
CONTINUOUS
 70
64
  3
Solid line
 72
65
 73
0
 40
0
  0
LTYPE
  2
BORDER
 70
64
  3
__ __ . __ __ .
 72
65
 73
6
 40
20.66555508796583
 49
5.90444431084738
 49
-2.95222215542369
 49
5.90444431084738
 49
-2.95222215542369
 49
0
 49
-2.95222215542369
  0
LTYPE
  2
CENTER
 70
64
  3
____ _ ____ _
 72
65
 73
4
 40
23.61777724338952
 49
14.76111077711845
 49
-2.95222215542369
 49
2.95222215542369
 49
-2.95222215542369
  0
LTYPE
  2
DASHDOT
 70
64
  3
__ . __ . __ .
 72
65
 73
4
 40
11.80888862169476
 49
5.90444431084738
 49
-2.95222215542369
 49
0
 49
-2.95222215542369
  0
LTYPE
  2
DASHED
 70
64
  3
__ __ __ __ __
 72
65
 73
2
 40
8.856666466271069
 49
5.90444431084738
 49
-2.95222215542369
  0
LTYPE
  2
DIVIDE
 70
64
  3
__ . . __ . . 
 72
65
 73
6
 40
14.76111077711845
 49
5.90444431084738
 49
-2.95222215542369
 49
0
 49
-2.95222215542369
 49
0
 49
-2.95222215542369
  0
LTYPE
  2
DOT
 70
64
  3
..............
 72
65
 73
4
 40
5.90444431084738
 49
0
 49
-2.95222215542369
 49
0
 49
-2.95222215542369
  0
LTYPE
  2
HIDDEN
 70
64
  3
_ _ _ _ _ _ _
 72
65
 73
2
 40
4.428333233135534
 49
2.95222215542369
 49
-1.476111077711845
  0
LTYPE
  2
PHANTOM
 70
64
  3
_____ _ _ _____ _ _ 
 72
65
 73
6
 40
29.5222215542369
 49
14.76111077711845
 49
-2.95222215542369
 49
2.95222215542369
 49
-2.95222215542369
 49
2.95222215542369
 49
-2.95222215542369
  0
ENDTAB
  0
TABLE
  2
LAYER
 70
3
  0
LAYER
  2
1
 70
0
 62
7
  6
CONTINUOUS
  0
LAYER
  2
0
 70
0
 62
7
  6
CONTINUOUS
  0
ENDTAB
  0
TABLE
  2
STYLE
 70
4
  0
STYLE
  2
STANDARD
 70
0
 40
0
 41
1
 50
0
 71
0
 42
3.5
  3
txt
  4

  0
STYLE
  2
SIMPLEX
 70
0
 40
0
 41
1
 50
0
 71
0
 42
3.5
  3
simplex
  4

  0
STYLE
  2
COMPLEX
 70
0
 40
0
 41
1
 50
0
 71
0
 42
3.5
  3
complex
  4

  0
STYLE
  2
ITALIC
 70
0
 40
0
 41
1
 50
0
 71
0
 42
3.5
  3
italic
  4

  0
ENDTAB
  0
TABLE
  2
VIEW
 70
0
  0
ENDTAB
  0
ENDSEC
  0
SECTION
  2
BLOCKS
  0
ENDSEC
  0
SECTION
  2
ENTITIES
  0
LINE
  8
1
 62
7
 10
-41.32818239813587
 20
188
 30
0
 11
-39.27818239813592
 21
188
 31
0
  0
LINE
  8
1
 62
7
 10
-41.32818239813587
 20
212
 30
0
 11
-39.27818239813592
 21
212
 31
0
  0
LINE
  8
1
 62
7
 10
-41.32818239813587
 20
186
 30
0
 11
-42.77818239813583
 21
186
 31
0
  0
LINE
  8
1
 62
7
 10
-41.32818239813587
 20
214
 30
0
 11
-41.32818239813587
 21
186
 31
0
  0
LINE
  8
1
 62
7
 10
-42.77818239813583
 20
214
 30
0
 11
-41.32818239813587
 21
214
 31
0
  0
LINE
  8
1
 62
7
 10
-58.97818239813588
 20
150.5030326881273
 30
0
 11
-55.97818239813588
 21
150.5030326881273
 31
0
  0
LINE
  8
1
 62
7
 10
-54.97818239813588
 20
148.5000719722417
 30
0
 11
-47.97818239813588
 21
148.5000719722417
 31
0
  0
LINE
  8
1
 62
7
 10
-47.47818239813588
 20
149.0000719722417
 30
0
 11
-47.47818239813588
 21
234.4619706755163
 31
0
  0
LINE
  8
1
 62
7
 10
-46.97818239813588
 20
150.5030326881273
 30
0
 11
-43.47818239813588
 21
150.5030326881273
 31
0
  0
LINE
  8
1
 62
7
 10
-42.97818239813588
 20
151.0030326881273
 30
0
 11
-42.97818239813588
 21
181
 31
0
  0
LINE
  8
1
 62
7
 10
-42.77818239813583
 20
181
 30
0
 11
-42.77818239813583
 21
223.5
 31
0
  0
LINE
  8
1
 62
7
 10
-47.97818239813588
 20
234.9619706755163
 30
0
 11
-58.97818239813588
 21
234.9619706755163
 31
0
  0
LINE
  8
1
 62
7
 10
-60.17818239813593
 20
156.5
 30
0
 11
-59.47818239813588
 21
156.5
 31
0
  0
LINE
  8
1
 62
7
 10
-60.17818239813593
 20
167.5
 30
0
 11
-59.47818239813588
 21
167.5
 31
0
  0
LINE
  8
1
 62
7
 10
-59.97818239813588
 20
224
 30
0
 11
-60.17818239813593
 21
224
 31
0
  0
LINE
  8
1
 62
7
 10
-59.97818239813588
 20
176
 30
0
 11
-60.17818239813593
 21
176
 31
0
  0
LINE
  8
1
 62
7
 10
-46.97818239813588
 20
224
 30
0
 11
-43.27818239813583
 21
224
 31
0
  0
LINE
  8
1
 62
7
 10
-42.97818239813588
 20
181
 30
0
 11
-42.77818239813583
 21
181
 31
0
  0
LINE
  8
1
 62
7
 10
-90.77818239813587
 20
250
 30
0
 11
-86.87818239813589
 21
250
 31
0
  0
LINE
  8
1
 62
7
 10
-89.27818239813587
 20
150
 30
0
 11
-89.27818239813587
 21
250
 31
0
  0
LINE
  8
1
 62
7
 10
-91.77818239813587
 20
264
 30
0
 11
-91.77818239813587
 21
135.9999999999999
 31
0
  0
LINE
  8
1
 62
7
 10
-86.87818239813589
 20
150
 30
0
 11
-90.77818239813587
 21
150
 31
0
  0
LINE
  8
1
 62
7
 10
-61.5781823981359
 20
146.25
 30
0
 11
-61.57818239813589
 21
253.75
 31
0
  0
LINE
  8
1
 62
7
 10
-60.17818239813593
 20
147
 30
0
 11
-60.17818239813593
 21
238
 31
0
  0
LINE
  8
1
 62
7
 10
-80.87818239813589
 20
253.5
 30
0
 11
-65.87818239813595
 21
253.5
 31
0
  0
LINE
  8
1
 62
7
 10
-86.87818239813589
 20
250
 30
0
 11
-86.87818239813589
 21
150
 31
0
  0
LINE
  8
1
 62
7
 10
-65.87818239813595
 20
253.5
 30
0
 11
-65.87818239813595
 21
146.5000000000001
 31
0
  0
LINE
  8
1
 62
7
 10
-80.87818239813589
 20
146.5000000000001
 30
0
 11
-65.87818239813595
 21
146.5000000000001
 31
0
  0
LINE
  8
1
 62
7
 10
-65.47818239813607
 20
253.75
 30
0
 11
-65.47818239813607
 21
146.25
 31
0
  0
LINE
  8
1
 62
7
 10
-60.87818239813597
 20
147
 30
0
 11
-60.87818239813597
 21
238
 31
0
  0
LINE
  8
1
 62
7
 10
-60.87818239813597
 20
147
 30
0
 11
-60.17818239813593
 21
147
 31
0
  0
LINE
  8
1
 62
7
 10
-61.5781823981359
 20
146.25
 30
0
 11
-65.47818239813607
 21
146.25
 31
0
  0
LINE
  8
1
 62
7
 10
-58.5781823981359
 20
243.5
 30
0
 11
-59.0781823981359
 21
243
 31
0
  0
LINE
  8
1
 62
7
 10
-58.5781823981359
 20
251.5
 30
0
 11
-58.5781823981359
 21
243.5
 31
0
  0
LINE
  8
1
 62
7
 10
-60.87818239813597
 20
243
 30
0
 11
-59.0781823981359
 21
243
 31
0
  0
LINE
  8
1
 62
7
 10
-58.5781823981359
 20
251.5
 30
0
 11
-59.0781823981359
 21
252
 31
0
  0
LINE
  8
1
 62
7
 10
-60.87818239813597
 20
252
 30
0
 11
-59.0781823981359
 21
252
 31
0
  0
LINE
  8
1
 62
7
 10
-60.17818239813593
 20
252
 30
0
 11
-60.17818239813593
 21
243
 31
0
  0
LINE
  8
1
 62
7
 10
-60.87818239813597
 20
253
 30
0
 11
-60.87818239813597
 21
240.5413683660215
 31
0
  0
LINE
  8
1
 62
7
 10
-61.5781823981359
 20
240.6124355652982
 30
0
 11
-60.87818239813597
 21
238
 31
0
  0
LINE
  8
1
 62
7
 10
-60.87818239813597
 20
240.5413683660215
 30
0
 11
-60.17818239813593
 21
238
 31
0
  0
LINE
  8
1
 62
7
 10
-61.5781823981359
 20
253
 30
0
 11
-60.87818239813597
 21
253
 31
0
  0
LINE
  8
1
 62
7
 10
-65.47818239813607
 20
253.75
 30
0
 11
-61.57818239813589
 21
253.75
 31
0
  0
LINE
  8
1
 62
3
  6
DASHDOT
 10
1.72181760186408
 20
200
 30
0
 11
-3.27818239813592
 21
200
 31
0
  0
LINE
  8
1
 62
7
 10
-39.27818239813592
 20
210
 30
0
 11
-3.27818239813592
 21
210
 31
0
  0
LINE
  8
1
 62
7
 10
-3.27818239813592
 20
210
 30
0
 11
-3.27818239813592
 21
190
 31
0
  0
LINE
  8
1
 62
7
 10
-3.27818239813592
 20
190
 30
0
 11
-39.27818239813592
 21
190
 31
0
  0
LINE
  8
1
 62
7
 10
-3.27818239813592
 20
202.5
 30
0
 11
-32.77818239813592
 21
202.5
 31
0
  0
LINE
  8
1
 62
7
 10
-32.77818239813592
 20
197.5
 30
0
 11
-3.27818239813592
 21
197.5
 31
0
  0
LINE
  8
1
 62
7
 10
-39.27818239813592
 20
212
 30
0
 11
-39.27818239813592
 21
188
 31
0
  0
LINE
  8
1
 62
7
 10
-181.2781823981358
 20
250
 30
0
 11
-177.7781823981358
 21
250
 31
0
  0
LINE
  8
1
 62
7
 10
-176.7781823981358
 20
135.9999999999999
 30
0
 11
-176.7781823981358
 21
264
 31
0
  0
LINE
  8
1
 62
7
 10
-179.2781823981358
 20
250
 30
0
 11
-179.2781823981358
 21
150
 31
0
  0
LINE
  8
1
 62
7
 10
-177.7781823981358
 20
150
 30
0
 11
-181.2781823981358
 21
150
 31
0
  0
LINE
  8
1
 62
7
 10
-213.3781823981358
 20
254
 30
0
 11
-213.3781823981358
 21
145.9999999999999
 31
0
  0
LINE
  8
1
 62
7
 10
-209.1781823981359
 20
146.5
 30
0
 11
-209.1781823981359
 21
253.5
 31
0
  0
LINE
  8
1
 62
7
 10
-205.9461315905671
 20
256.5
 30
0
 11
-194.6781823981359
 21
256.5
 31
0
  0
LINE
  8
1
 62
7
 10
-207.6781823981359
 20
253.5
 30
0
 11
-205.9461315905671
 21
256.5
 31
0
  0
LINE
  8
1
 62
7
 10
-209.1781823981359
 20
253.5
 30
0
 11
-207.6781823981359
 21
253.5
 31
0
  0
LINE
  8
1
 62
7
 10
-207.6781823981359
 20
146.5
 30
0
 11
-209.1781823981359
 21
146.5
 31
0
  0
LINE
  8
1
 62
7
 10
-205.9461315905671
 20
143.5
 30
0
 11
-207.6781823981359
 21
146.5
 31
0
  0
LINE
  8
1
 62
7
 10
-194.6781823981359
 20
143.5
 30
0
 11
-205.9461315905671
 21
143.5
 31
0
  0
LINE
  8
1
 62
7
 10
-194.6781823981359
 20
256.5
 30
0
 11
-194.6781823981359
 21
143.5
 31
0
  0
LINE
  8
1
 62
7
 10
-209.3781823981358
 20
145.9999999999999
 30
0
 11
-209.3781823981358
 21
254
 31
0
  0
LINE
  8
1
 62
7
 10
-213.3781823981358
 20
254
 30
0
 11
-209.3781823981358
 21
254
 31
0
  0
LINE
  8
1
 62
7
 10
-214.0781823981359
 20
146.9999999999999
 30
0
 11
-214.0781823981359
 21
238
 31
0
  0
LINE
  8
1
 62
7
 10
-214.0781823981359
 20
253
 30
0
 11
-213.3781823981358
 21
253
 31
0
  0
LINE
  8
1
 62
7
 10
-214.0781823981359
 20
240.5413683660215
 30
0
 11
-214.0781823981359
 21
253
 31
0
  0
LINE
  8
1
 62
7
 10
-214.778182398136
 20
238
 30
0
 11
-214.0781823981359
 21
240.5413683660215
 31
0
  0
LINE
  8
1
 62
7
 10
-214.0781823981359
 20
238
 30
0
 11
-213.3781823981358
 21
240.6124355652982
 31
0
  0
LINE
  8
1
 62
7
 10
-216.3781823981358
 20
243.5
 30
0
 11
-216.3781823981358
 21
251.5
 31
0
  0
LINE
  8
1
 62
7
 10
-215.8781823981358
 20
243
 30
0
 11
-214.0781823981359
 21
243
 31
0
  0
LINE
  8
1
 62
7
 10
-215.8781823981358
 20
252
 30
0
 11
-214.0781823981359
 21
252
 31
0
  0
LINE
  8
1
 62
7
 10
-214.778182398136
 20
243
 30
0
 11
-214.778182398136
 21
252
 31
0
  0
LINE
  8
1
 62
7
 10
-215.8781823981358
 20
252
 30
0
 11
-216.3781823981358
 21
251.5
 31
0
  0
LINE
  8
1
 62
7
 10
-215.8781823981358
 20
243
 30
0
 11
-216.3781823981358
 21
243.5
 31
0
  0
LINE
  8
1
 62
7
 10
-214.778182398136
 20
146.9999999999999
 30
0
 11
-214.778182398136
 21
238
 31
0
  0
LINE
  8
1
 62
7
 10
-209.3781823981358
 20
145.9999999999999
 30
0
 11
-213.3781823981358
 21
145.9999999999999
 31
0
  0
LINE
  8
1
 62
7
 10
-214.778182398136
 20
146.9999999999999
 30
0
 11
-214.0781823981359
 21
146.9999999999999
 31
0
  0
LINE
  8
1
 62
7
 10
-181.2781823981358
 20
150
 30
0
 11
-181.2781823981358
 21
250
 31
0
  0
LINE
  8
1
 62
7
 10
-194.6781823981359
 20
253.5
 30
0
 11
-187.278182398136
 21
253.5
 31
0
  0
LINE
  8
1
 62
7
 10
-205.9461315905671
 20
143.5
 30
0
 11
-205.9461315905671
 21
256.5
 31
0
  0
LINE
  8
1
 62
7
 10
-207.6781823981359
 20
253.5
 30
0
 11
-207.6781823981359
 21
146.5
 31
0
  0
LINE
  8
1
 62
7
 10
-217.3781823981358
 20
167.4953652172431
 30
0
 11
-214.778182398136
 21
167.4999999999999
 31
0
  0
LINE
  8
1
 62
7
 10
-217.3781823981358
 20
156.4953652172431
 30
0
 11
-214.778182398136
 21
156.4999999999999
 31
0
  0
LINE
  8
1
 62
7
 10
-175.7781823981358
 20
252
 30
0
 11
-92.77818239813587
 21
252
 31
0
  0
LINE
  8
1
 62
7
 10
-175.7781823981358
 20
148
 30
0
 11
-92.77818239813587
 21
148
 31
0
  0
LINE
  8
1
 62
7
 10
-200.2781823981358
 20
267
 30
0
 11
-68.27818239813581
 21
267
 31
0
  0
LINE
  8
1
 62
7
 10
-204.2781823981358
 20
263
 30
0
 11
-204.2781823981358
 21
256.5
 31
0
  0
LINE
  8
1
 62
7
 10
-64.27818239813581
 20
263
 30
0
 11
-64.27818239813581
 21
253.75
 31
0
  0
LINE
  8
1
 62
7
 10
-187.278182398136
 20
146.5
 30
0
 11
-194.6781823981359
 21
146.5
 31
0
  0
LINE
  8
1
 62
7
 10
-204.2781823981358
 20
143.5
 30
0
 11
-204.2781823981358
 21
136.9999999999999
 31
0
  0
LINE
  8
1
 62
7
 10
-68.27818239813581
 20
132.9999999999999
 30
0
 11
-106.2781823981358
 21
133
 31
0
  0
LINE
  8
1
 62
7
 10
-64.27818239813581
 20
146.25
 30
0
 11
-64.27818239813581
 21
136.9999999999999
 31
0
  0
LINE
  8
1
 62
7
 10
-162.2781823981358
 20
148
 30
0
 11
-162.2781823981358
 21
131.1420942061371
 31
0
  0
LINE
  8
1
 62
7
 10
-106.2781823981358
 20
148
 30
0
 11
-106.2781823981358
 21
131.1420942061371
 31
0
  0
LINE
  8
1
 62
7
 10
-162.2781823981358
 20
131.1420942061371
 30
0
 11
-106.2781823981358
 21
131.1420942061371
 31
0
  0
LINE
  8
1
 62
7
 10
-162.2781823981358
 20
132.9999999999999
 30
0
 11
-200.2781823981358
 21
132.9999999999999
 31
0
  0
LINE
  8
1
 62
3
  6
DASHDOT
 10
-259.2781823981358
 20
200
 30
0
 11
-254.2781823981358
 21
200
 31
0
  0
LINE
  8
1
 62
7
 10
-244.7781823981358
 20
174.9999999999999
 30
0
 11
-244.7781823981358
 21
225
 31
0
  0
LINE
  8
1
 62
7
 10
-244.7781823981358
 20
213
 30
0
 11
-247.664933744084
 21
218
 31
0
  0
LINE
  8
1
 62
7
 10
-247.664933744084
 20
218
 30
0
 11
-247.664933744084
 21
181.9999999999999
 31
0
  0
LINE
  8
1
 62
7
 10
-249.7781823981358
 20
215.8745078663875
 30
0
 11
-249.7781823981358
 21
184.1254921336124
 31
0
  0
LINE
  8
1
 62
7
 10
-254.2781823981358
 20
210
 30
0
 11
-254.2781823981358
 21
190
 31
0
  0
LINE
  8
1
 62
7
 10
-249.7781823981358
 20
210
 30
0
 11
-254.2781823981358
 21
210
 31
0
  0
LINE
  8
1
 62
3
 10
-249.7781823981358
 20
208.5
 30
0
 11
-254.2781823981358
 21
208.5
 31
0
  0
LINE
  8
1
 62
7
 10
-249.7781823981358
 20
215.8745078663875
 30
0
 11
-247.664933744084
 21
215.8745078663875
 31
0
  0
LINE
  8
1
 62
7
 10
-247.664933744084
 20
181.9999999999999
 30
0
 11
-244.7781823981358
 21
186.9999999999999
 31
0
  0
LINE
  8
1
 62
7
 10
-249.7781823981358
 20
190
 30
0
 11
-254.2781823981358
 21
190
 31
0
  0
LINE
  8
1
 62
3
 10
-249.7781823981358
 20
191.5
 30
0
 11
-254.2781823981358
 21
191.5
 31
0
  0
LINE
  8
1
 62
7
 10
-247.664933744084
 20
184.1254921336124
 30
0
 11
-249.7781823981358
 21
184.1254921336124
 31
0
  0
LINE
  8
1
 62
7
 10
-231.7781823981358
 20
248.5
 30
0
 11
-231.7781823981358
 21
151.5
 31
0
  0
LINE
  8
1
 62
7
 10
-231.7781823981358
 20
175
 30
0
 11
-244.7781823981358
 21
174.9999999999999
 31
0
  0
LINE
  8
1
 62
7
 10
-244.7781823981358
 20
225
 30
0
 11
-231.7781823981358
 21
225
 31
0
  0
LINE
  8
1
 62
7
 10
-231.7781823981358
 20
151.5
 30
0
 11
-217.2781823981358
 21
151.5
 31
0
  0
LINE
  8
1
 62
7
 10
-217.2781823981358
 20
248.5
 30
0
 11
-231.7781823981358
 21
248.5
 31
0
  0
LINE
  8
1
 62
7
 10
-217.2781823981358
 20
151.5
 30
0
 11
-217.2781823981358
 21
248.5
 31
0
  0
LINE
  8
1
 62
3
  6
DASHDOT
 10
-191.7781823981358
 20
262.5
 30
0
 11
-191.7781823981357
 21
247.5000000000001
 31
0
  0
LINE
  8
1
 62
3
  6
DASHDOT
 10
-199.2781823981357
 20
255
 30
0
 11
-184.2781823981358
 21
255
 31
0
  0
LINE
  8
1
 62
3
  6
DASHDOT
 10
-191.7781823981357
 20
152.4999999999999
 30
0
 11
-191.7781823981358
 21
137.5
 31
0
  0
LINE
  8
1
 62
3
  6
DASHDOT
 10
-184.2781823981358
 20
145
 30
0
 11
-199.2781823981357
 21
145
 31
0
  0
LINE
  8
1
 62
3
  6
DASHDOT
 10
-76.77818239813581
 20
262.4999999999999
 30
0
 11
-76.77818239813581
 21
247.5000000000001
 31
0
  0
LINE
  8
1
 62
3
  6
DASHDOT
 10
-84.27818239813571
 20
255
 30
0
 11
-69.27818239813588
 21
255
 31
0
  0
LINE
  8
1
 62
3
  6
DASHDOT
 10
-76.77818239813581
 20
152.5
 30
0
 11
-76.77818239813581
 21
137.5000000000001
 31
0
  0
LINE
  8
1
 62
3
  6
DASHDOT
 10
-69.27818239813588
 20
145
 30
0
 11
-84.27818239813571
 21
145
 31
0
  0
LINE
  8
1
 62
7
 10
-59.47818239813588
 20
224.5
 30
0
 11
-59.47818239813588
 21
234.4619706755163
 31
0
  0
LINE
  8
1
 62
7
 10
-59.47818239813588
 20
175.5
 30
0
 11
-59.47818239813588
 21
151.0030326881273
 31
0
  0
LINE
  8
1
 62
7
 10
-55.47818239813588
 20
150.0030326881273
 30
0
 11
-55.47818239813588
 21
149.0000719722417
 31
0
  0
LINE
  8
1
 62
7
  6
DASHED
 10
-320.5159500225369
 20
-80
 30
0
 11
-320.5159500225369
 21
-68
 31
0
  0
LINE
  8
1
 62
7
  6
DASHED
 10
-329.5159500225369
 20
-68
 30
0
 11
-329.5159500225369
 21
-80
 31
0
  0
LINE
  8
1
 62
7
  6
DASHED
 10
-430.5159500225368
 20
-80
 30
0
 11
-430.5159500225368
 21
-68
 31
0
  0
LINE
  8
1
 62
7
  6
DASHED
 10
-439.5159500225368
 20
-68
 30
0
 11
-439.5159500225368
 21
-80
 31
0
  0
LINE
  8
1
 62
3
  6
DASHDOT
 10
-345.3749338711592
 20
-20
 30
0
 11
-357.4992895241413
 21
-13
 31
0
  0
LINE
  8
1
 62
3
  6
DASHDOT
 10
-414.6569661739143
 20
-20
 30
0
 11
-402.5326105209322
 21
-13
 31
0
  0
LINE
  8
1
 62
3
  6
DASHDOT
 10
-380.0159500225368
 20
39.99999999999999
 30
0
 11
-380.0159500225368
 21
25.99999999999999
 31
0
  0
LINE
  8
1
 62
3
  6
DASHDOT
 10
-375.0159500225368
 20
0
 30
0
 11
-385.0159500225368
 21
0
 31
0
  0
LINE
  8
1
 62
3
  6
DASHDOT
 10
-380.0159500225368
 20
5
 30
0
 11
-380.0159500225368
 21
-5
 31
0
  0
LINE
  8
1
 62
7
 10
-342.4835092957484
 20
22.82406529533431
 30
0
 11
-345.6226711954298
 21
21.01166932752351
 31
0
  0
LINE
  8
1
 62
7
 10
-344.6226711954298
 20
19.2796185199545
 30
0
 11
-341.4835092957484
 21
21.09201448776538
 31
0
  0
LINE
  8
1
 62
7
 10
-348.5912981620266
 20
16.98833067247669
 30
0
 11
-351.730460061708
 21
15.17593470466579
 31
0
  0
LINE
  8
1
 62
7
 10
-352.730460061708
 20
16.9079855122347
 30
0
 11
-349.5912981620266
 21
18.7203814800455
 31
0
  0
LINE
  8
1
 62
7
 10
-418.5483907493253
 20
21.09201448776538
 30
0
 11
-415.4092288496439
 21
19.2796185199545
 31
0
  0
LINE
  8
1
 62
7
 10
-414.4092288496439
 20
21.01166932752351
 30
0
 11
-417.5483907493253
 21
22.82406529533431
 31
0
  0
LINE
  8
1
 62
7
 10
-410.4406018830471
 20
18.7203814800455
 30
0
 11
-407.3014399833658
 21
16.90798551223479
 31
0
  0
LINE
  8
1
 62
7
 10
-408.3014399833658
 20
15.17593470466579
 30
0
 11
-411.4406018830471
 21
16.98833067247669
 31
0
  0
LINE
  8
1
 62
7
 10
-379.0159500225368
 20
-43.91607978309956
 30
0
 11
-379.0159500225368
 21
-40.29128784747785
 31
0
  0
LINE
  8
1
 62
7
 10
-381.0159500225368
 20
-40.29128784747785
 30
0
 11
-381.0159500225368
 21
-43.91607978309956
 31
0
  0
LINE
  8
1
 62
7
 10
-381.0159500225368
 20
-35.70871215252207
 30
0
 11
-381.0159500225368
 21
-32.08392021690035
 31
0
  0
LINE
  8
1
 62
7
 10
-379.0159500225368
 20
-32.08392021690035
 30
0
 11
-379.0159500225368
 21
-35.70871215252207
 31
0
  0
LINE
  8
1
 62
7
 10
-325.5278796121752
 20
-14.94323201169912
 30
0
 11
-310.0159500225369
 21
-14.94323201169912
 31
0
  0
LINE
  8
1
 62
7
 10
-308.0159500225369
 20
-22.44323201169912
 30
0
 11
-310.0159500225369
 21
-22.44323201169912
 31
0
  0
LINE
  8
1
 62
7
 10
-308.0159500225369
 20
-17.44323201169912
 30
0
 11
-310.0159500225369
 21
-17.44323201169912
 31
0
  0
LINE
  8
1
 62
7
 10
-311.0159500225369
 20
-14.94323201169912
 30
0
 11
-311.0159500225369
 21
-34.94323201169912
 31
0
  0
LINE
  8
1
 62
7
 10
-328.0159500225369
 20
-34.94323201169912
 30
0
 11
-310.0159500225369
 21
-34.94323201169912
 31
0
  0
LINE
  8
1
 62
7
 10
-308.0159500225369
 20
-17.44323201169912
 30
0
 11
-308.0159500225369
 21
-22.44323201169912
 31
0
  0
LINE
  8
1
 62
7
 10
-310.0159500225369
 20
-14.94323201169912
 30
0
 11
-310.0159500225369
 21
-34.94323201169912
 31
0
  0
LINE
  8
1
 62
3
  6
DASHDOT
 10
-325.0159500225369
 20
-83
 30
0
 11
-325.0159500225369
 21
-65
 31
0
  0
LINE
  8
1
 62
3
  6
DASHDOT
 10
-435.0159500225368
 20
-65
 30
0
 11
-435.0159500225368
 21
-83
 31
0
  0
LINE
  8
1
 62
7
 10
-366.0159500225368
 20
-2
 30
0
 11
-364.1414421561493
 21
-2
 31
0
  0
LINE
  8
1
 62
7
 10
-366.0159500225368
 20
2
 30
0
 11
-366.0159500225368
 21
-2
 31
0
  0
LINE
  8
1
 62
7
 10
-364.1414421561493
 20
2
 30
0
 11
-366.0159500225368
 21
2
 31
0
  0
LINE
  8
1
 62
7
 10
-382.0159500225368
 20
-14.00000000000003
 30
0
 11
-382.0159500225368
 21
-15.87450786638755
 31
0
  0
LINE
  8
1
 62
7
 10
-378.0159500225368
 20
-14.00000000000003
 30
0
 11
-382.0159500225368
 21
-14.00000000000003
 31
0
  0
LINE
  8
1
 62
7
 10
-378.0159500225368
 20
-15.87450786638755
 30
0
 11
-378.0159500225368
 21
-14.00000000000003
 31
0
  0
LINE
  8
1
 62
7
 10
-394.0159500225368
 20
2
 30
0
 11
-395.8904578889244
 21
2
 31
0
  0
LINE
  8
1
 62
7
 10
-394.0159500225368
 20
-2
 30
0
 11
-394.0159500225368
 21
2
 31
0
  0
LINE
  8
1
 62
7
 10
-395.8904578889244
 20
-2
 30
0
 11
-394.0159500225368
 21
-2
 31
0
  0
LINE
  8
1
 62
7
 10
-378.0159500225368
 20
14
 30
0
 11
-378.0159500225368
 21
15.8745078663875
 31
0
  0
LINE
  8
1
 62
7
 10
-382.0159500225368
 20
14
 30
0
 11
-378.0159500225368
 21
14
 31
0
  0
LINE
  8
1
 62
7
 10
-382.0159500225368
 20
15.8745078663875
 30
0
 11
-382.0159500225368
 21
14
 31
0
  0
LINE
  8
1
 62
7
 10
-313.0159500225369
 20
-80
 30
0
 11
-313.0159500225369
 21
-70.8679622641132
 31
0
  0
LINE
  8
1
 62
7
 10
-313.0159500225369
 20
-80
 30
0
 11
-345.0159500225368
 21
-80
 31
0
  0
LINE
  8
1
 62
7
 10
-345.0159500225368
 20
-72
 30
0
 11
-345.0159500225368
 21
-80
 31
0
  0
LINE
  8
1
 62
7
 10
-317.0159500225369
 20
-68
 30
0
 11
-341.0159500225368
 21
-68
 31
0
  0
LINE
  8
1
 62
7
 10
-328.0159500225369
 20
-44
 30
0
 11
-314.535966982486
 21
-65.56797286408141
 31
0
  0
LINE
  8
1
 62
7
 10
-328.0159500225369
 20
-44
 30
0
 11
-314.535966982486
 21
-65.56797286408141
 31
0
  0
LINE
  8
1
 62
7
 10
-328.0159500225369
 20
-22.09637979398435
 30
0
 11
-328.0159500225369
 21
-44
 31
0
  0
LINE
  8
1
 62
7
 10
-328.0159500225369
 20
47.99999999999999
 30
0
 11
-328.0159500225369
 21
22.09637979398438
 31
0
  0
LINE
  8
1
 62
7
 10
-357.9195702285525
 20
51.99999999999999
 30
0
 11
-332.0159500225369
 21
51.99999999999999
 31
0
  0
LINE
  8
1
 62
7
 10
-428.0159500225368
 20
51.99999999999999
 30
0
 11
-402.1123298165213
 21
51.99999999999999
 31
0
  0
LINE
  8
1
 62
7
 10
-432.0159500225368
 20
22.09637979398438
 30
0
 11
-432.0159500225368
 21
47.99999999999999
 31
0
  0
LINE
  8
1
 62
7
 10
-447.0159500225368
 20
-70.8679622641132
 30
0
 11
-447.0159500225368
 21
-80
 31
0
  0
LINE
  8
1
 62
7
 10
-419.0159500225368
 20
-68
 30
0
 11
-443.0159500225368
 21
-68
 31
0
  0
LINE
  8
1
 62
7
 10
-415.0159500225368
 20
-80
 30
0
 11
-415.0159500225368
 21
-72
 31
0
  0
LINE
  8
1
 62
7
 10
-432.0159500225368
 20
-44
 30
0
 11
-432.0159500225368
 21
-22.09637979398435
 31
0
  0
LINE
  8
1
 62
7
 10
-445.4959330625877
 20
-65.56797286408141
 30
0
 11
-432.0159500225368
 21
-44
 31
0
  0
LINE
  8
1
 62
7
 10
-415.0159500225368
 20
-80
 30
0
 11
-447.0159500225368
 21
-80
 31
0
  0
LINE
  8
1
 62
7
 10
-349.0159500225368
 20
-76
 30
0
 11
-411.0159500225368
 21
-76
 31
0
  0
LINE
  8
1
 62
7
 10
-353.7053057886913
 20
-50.00000000000004
 30
0
 11
-334.6700571544942
 21
-50.00000000000004
 31
0
  0
LINE
  8
1
 62
7
 10
-330.0159500225369
 20
-26.31064423384575
 30
0
 11
-330.0159500225369
 21
-45.34589286804265
 31
0
  0
LINE
  8
1
 62
7
 10
-337.6295825969642
 20
-45.92190133150547
 30
0
 11
-334.8411949178382
 21
-45.17475510469876
 31
0
  0
LINE
  8
1
 62
7
 10
-339.6708240492835
 20
-43.88065987918614
 30
0
 11
-337.6295825969642
 21
-45.92190133150547
 31
0
  0
LINE
  8
1
 62
7
 10
-338.9236778224769
 20
-41.09227220006011
 30
0
 11
-339.6708240492835
 21
-43.88065987918614
 31
0
  0
LINE
  8
1
 62
7
 10
-336.1352901433508
 20
-40.3451259732534
 30
0
 11
-338.9236778224769
 21
-41.09227220006011
 31
0
  0
LINE
  8
1
 62
7
 10
-334.0940486910315
 20
-42.38636742557273
 30
0
 11
-336.1352901433508
 21
-40.3451259732534
 31
0
  0
LINE
  8
1
 62
7
 10
-334.8411949178382
 20
-45.17475510469876
 30
0
 11
-334.0940486910315
 21
-42.38636742557273
 31
0
  0
LINE
  8
1
 62
7
 10
-430.0159500225368
 20
-26.31064423384565
 30
0
 11
-430.0159500225368
 21
-45.34589286804258
 31
0
  0
LINE
  8
1
 62
7
 10
-406.3265942563826
 20
-49.99999999999999
 30
0
 11
-425.3618428905795
 21
-49.99999999999999
 31
0
  0
LINE
  8
1
 62
7
 10
-425.9378513540424
 20
-42.38636742557266
 30
0
 11
-425.1907051272357
 21
-45.17475510469869
 31
0
  0
LINE
  8
1
 62
7
 10
-423.896609901723
 20
-40.34512597325333
 30
0
 11
-425.9378513540424
 21
-42.38636742557266
 31
0
  0
LINE
  8
1
 62
7
 10
-421.108222222597
 20
-41.09227220006004
 30
0
 11
-423.896609901723
 21
-40.34512597325333
 31
0
  0
LINE
  8
1
 62
7
 10
-420.3610759957902
 20
-43.88065987918607
 30
0
 11
-421.108222222597
 21
-41.09227220006004
 31
0
  0
LINE
  8
1
 62
7
 10
-422.4023174481096
 20
-45.9219013315054
 30
0
 11
-420.3610759957902
 21
-43.88065987918607
 31
0
  0
LINE
  8
1
 62
7
 10
-425.1907051272357
 20
-45.17475510469869
 30
0
 11
-422.4023174481096
 21
-45.9219013315054
 31
0
  0
LINE
  8
1
 62
7
 10
-406.3265942563826
 20
49.99999999999999
 30
0
 11
-425.3618428905795
 21
49.99999999999999
 31
0
  0
LINE
  8
1
 62
7
 10
-430.0159500225368
 20
26.31064423384571
 30
0
 11
-430.0159500225368
 21
45.34589286804258
 31
0
  0
LINE
  8
1
 62
7
 10
-422.4023174481096
 20
45.92190133150548
 30
0
 11
-425.1907051272356
 21
45.1747551046988
 31
0
  0
LINE
  8
1
 62
7
 10
-420.3610759957902
 20
43.8806598791861
 30
0
 11
-422.4023174481096
 21
45.92190133150548
 31
0
  0
LINE
  8
1
 62
7
 10
-421.1082222225969
 20
41.09227220006009
 30
0
 11
-420.3610759957902
 21
43.8806598791861
 31
0
  0
LINE
  8
1
 62
7
 10
-423.896609901723
 20
40.34512597325339
 30
0
 11
-421.1082222225969
 21
41.09227220006009
 31
0
  0
LINE
  8
1
 62
7
 10
-425.9378513540422
 20
42.38636742557269
 30
0
 11
-423.896609901723
 21
40.34512597325339
 31
0
  0
LINE
  8
1
 62
7
 10
-425.1907051272356
 20
45.1747551046988
 30
0
 11
-425.9378513540422
 21
42.38636742557269
 31
0
  0
LINE
  8
1
 62
7
 10
-330.0159500225369
 20
26.31064423384571
 30
0
 11
-330.0159500225369
 21
45.34589286804258
 31
0
  0
LINE
  8
1
 62
7
 10
-353.7053057886912
 20
49.99999999999999
 30
0
 11
-334.6700571544942
 21
49.99999999999999
 31
0
  0
LINE
  8
1
 62
7
 10
-334.0940486910315
 20
42.38636742557269
 30
0
 11
-334.8411949178382
 21
45.17475510469869
 31
0
  0
LINE
  8
1
 62
7
 10
-336.1352901433508
 20
40.34512597325339
 30
0
 11
-334.0940486910315
 21
42.38636742557269
 31
0
  0
LINE
  8
1
 62
7
 10
-338.9236778224768
 20
41.09227220006009
 30
0
 11
-336.1352901433508
 21
40.34512597325339
 31
0
  0
LINE
  8
1
 62
7
 10
-339.6708240492835
 20
43.8806598791861
 30
0
 11
-338.9236778224768
 21
41.09227220006009
 31
0
  0
LINE
  8
1
 62
7
 10
-337.6295825969642
 20
45.9219013315054
 30
0
 11
-339.6708240492835
 21
43.8806598791861
 31
0
  0
LINE
  8
1
 62
7
 10
-334.8411949178382
 20
45.17475510469869
 30
0
 11
-337.6295825969642
 21
45.9219013315054
 31
0
  0
LINE
  8
1
 62
3
  6
DASHED
 10
-15.27818239813592
 20
3.000000000000001
 30
0
 11
-16.31741288267725
 21
2.400000000000002
 31
0
  0
LINE
  8
1
 62
3
  6
DASHED
 10
-15.27818239813592
 20
-2.999999999999999
 30
0
 11
-16.31741288267725
 21
-2.399999999999999
 31
0
  0
LINE
  8
1
 62
3
  6
DASHED
 10
-15.27818239813592
 20
3.000000000000001
 30
0
 11
-3.27818239813592
 21
3
 31
0
  0
LINE
  8
1
 62
7
  6
DASHED
 10
-15.27818239813592
 20
-2.999999999999999
 30
0
 11
-15.27818239813592
 21
3.000000000000001
 31
0
  0
LINE
  8
1
 62
3
  6
DASHED
 10
-3.27818239813592
 20
-3
 30
0
 11
-15.27818239813592
 21
-2.999999999999999
 31
0
  0
LINE
  8
1
 62
7
  6
DASHED
 10
-21.8102332057048
 20
2.269446716830797e-015
 30
0
 11
-20.07818239813592
 21
2.400000000000003
 31
0
  0
LINE
  8
1
 62
7
  6
DASHED
 10
-20.07818239813592
 20
-2.399999999999998
 30
0
 11
-21.8102332057048
 21
2.269446716830797e-015
 31
0
  0
LINE
  8
1
 62
7
  6
DASHED
 10
-20.07818239813592
 20
2.400000000000003
 30
0
 11
-3.27818239813592
 21
2.4
 31
0
  0
LINE
  8
1
 62
7
  6
DASHED
 10
-20.07818239813592
 20
-2.399999999999998
 30
0
 11
-20.07818239813592
 21
2.400000000000003
 31
0
  0
LINE
  8
1
 62
7
  6
DASHED
 10
-3.27818239813592
 20
-2.4
 30
0
 11
-20.07818239813592
 21
-2.399999999999998
 31
0
  0
LINE
  8
1
 62
7
  6
DASHED
 10
-72.27818239813581
 20
-80
 30
0
 11
-72.27818239813581
 21
-68
 31
0
  0
LINE
  8
1
 62
7
  6
DASHED
 10
-81.27818239813581
 20
-68
 30
0
 11
-81.27818239813581
 21
-80
 31
0
  0
LINE
  8
1
 62
7
  6
DASHED
 10
-187.2781823981358
 20
-80
 30
0
 11
-187.2781823981358
 21
-68
 31
0
  0
LINE
  8
1
 62
7
  6
DASHED
 10
-196.2781823981358
 20
-68
 30
0
 11
-196.2781823981358
 21
-80
 31
0
  0
LINE
  8
1
 62
3
  6
DASHDOT
 10
-234.7781823981358
 20
33
 30
0
 11
-214.2781823981358
 21
33
 31
0
  0
LINE
  8
1
 62
7
  6
DASHED
 10
-217.2781823981358
 20
29.8
 30
0
 11
-231.7781823981358
 21
29.8
 31
0
  0
LINE
  8
1
 62
7
  6
DASHED
 10
-231.7781823981358
 20
36.2
 30
0
 11
-217.2781823981358
 21
36.2
 31
0
  0
LINE
  8
1
 62
3
  6
DASHED
 10
-217.2781823981358
 20
29
 30
0
 11
-231.7781823981358
 21
29
 31
0
  0
LINE
  8
1
 62
3
  6
DASHED
 10
-231.7781823981358
 20
37
 30
0
 11
-217.2781823981358
 21
37
 31
0
  0
LINE
  8
1
 62
7
 10
-42.97818239813588
 20
-19.00000000000002
 30
0
 11
-42.77818239813583
 21
-19.00000000000001
 31
0
  0
LINE
  8
1
 62
7
 10
-55.47818239813588
 20
-49.99696731187262
 30
0
 11
-55.47818239813588
 21
-50.99992802775822
 31
0
  0
LINE
  8
1
 62
7
 10
-59.47818239813588
 20
-24.50000000000001
 30
0
 11
-59.47818239813588
 21
-48.99696731187262
 31
0
  0
LINE
  8
1
 62
7
 10
-59.47818239813588
 20
24.49999999999999
 30
0
 11
-59.47818239813588
 21
34.4619706755163
 31
0
  0
LINE
  8
1
 62
7
 10
-244.7781823981358
 20
24.99999999999999
 30
0
 11
-231.7781823981358
 21
24.99999999999999
 31
0
  0
LINE
  8
1
 62
7
 10
-231.7781823981358
 20
-25.00000000000001
 30
0
 11
-244.7781823981358
 21
-25.00000000000004
 31
0
  0
LINE
  8
1
 62
7
 10
-217.2781823981358
 20
-48.5
 30
0
 11
-217.2781823981358
 21
48.49999999999999
 31
0
  0
LINE
  8
1
 62
7
 10
-231.7781823981358
 20
-48.5
 30
0
 11
-217.2781823981358
 21
-48.5
 31
0
  0
LINE
  8
1
 62
7
 10
-231.7781823981358
 20
48.49999999999999
 30
0
 11
-231.7781823981358
 21
-48.5
 31
0
  0
LINE
  8
1
 62
7
 10
-217.2781823981358
 20
48.49999999999999
 30
0
 11
-231.7781823981358
 21
48.49999999999999
 31
0
  0
LINE
  8
1
 62
7
 10
-118.2781823981357
 20
-14.94323201169912
 30
0
 11
-118.2781823981357
 21
-12
 31
0
  0
LINE
  8
1
 62
7
 10
-120.2781823981357
 20
-14.94323201169912
 30
0
 11
-120.2781823981357
 21
-12
 31
0
  0
LINE
  8
1
 62
7
 10
-127.2781823981357
 20
-3
 30
0
 11
-133.2781823981358
 21
-3
 31
0
  0
LINE
  8
1
 62
7
 10
-127.2781823981357
 20
-5
 30
0
 11
-133.2781823981358
 21
-5
 31
0
  0
LINE
  8
1
 62
7
 10
-128.2781823981357
 20
-9.900000000000006
 30
0
 11
-128.2781823981357
 21
-14.94323201169912
 31
0
  0
LINE
  8
1
 62
7
 10
-130.2781823981357
 20
-10
 30
0
 11
-130.2781823981357
 21
-14.94323201169912
 31
0
  0
LINE
  8
1
 62
7
 10
-150.2781823981358
 20
-12
 30
0
 11
-150.2781823981358
 21
-14.94323201169912
 31
0
  0
LINE
  8
1
 62
7
 10
-148.2781823981358
 20
-12
 30
0
 11
-148.2781823981358
 21
-14.94323201169912
 31
0
  0
LINE
  8
1
 62
7
 10
-135.2781823981358
 20
-3
 30
0
 11
-141.2781823981358
 21
-3
 31
0
  0
LINE
  8
1
 62
7
 10
-135.2781823981358
 20
-5
 30
0
 11
-141.2781823981358
 21
-5
 31
0
  0
LINE
  8
1
 62
7
 10
-135.2758314850954
 20
-7
 30
0
 11
-135.2781823981358
 21
-7
 31
0
  0
LINE
  8
1
 62
7
 10
-140.2781823981358
 20
-14.94323201169912
 30
0
 11
-140.2781823981358
 21
-9.900000000000006
 31
0
  0
LINE
  8
1
 62
7
 10
-138.2781823981358
 20
-14.94323201169912
 30
0
 11
-138.2781823981358
 21
-10
 31
0
  0
LINE
  8
1
 62
3
  6
DASHDOT
 10
-24.8102332057048
 20
2.269446716830797e-015
 30
0
 11
0.7415417589829243
 21
0
 31
0
  0
LINE
  8
1
 62
7
 10
-35.27818239813592
 20
12
 30
0
 11
-3.27818239813592
 21
12
 31
0
  0
LINE
  8
1
 62
7
 10
-35.27818239813592
 20
10
 30
0
 11
-35.27818239813592
 21
12
 31
0
  0
LINE
  8
1
 62
7
 10
-247.664933744084
 20
-15.87450786638756
 30
0
 11
-249.7781823981358
 21
-15.87450786638756
 31
0
  0
LINE
  8
1
 62
3
 10
-249.7781823981358
 20
-8.5
 30
0
 11
-254.2781823981358
 21
-8.5
 31
0
  0
LINE
  8
1
 62
7
 10
-249.7781823981358
 20
-10
 30
0
 11
-254.2781823981358
 21
-10
 31
0
  0
LINE
  8
1
 62
7
 10
-247.664933744084
 20
-18.00000000000004
 30
0
 11
-244.7781823981358
 21
-13.00000000000003
 31
0
  0
LINE
  8
1
 62
7
 10
-249.7781823981358
 20
15.8745078663875
 30
0
 11
-247.664933744084
 21
15.8745078663875
 31
0
  0
LINE
  8
1
 62
3
 10
-249.7781823981358
 20
8.5
 30
0
 11
-254.2781823981358
 21
8.5
 31
0
  0
LINE
  8
1
 62
7
 10
-249.7781823981358
 20
10
 30
0
 11
-254.2781823981358
 21
10
 31
0
  0
LINE
  8
1
 62
7
 10
-254.2781823981358
 20
10
 30
0
 11
-254.2781823981358
 21
-10
 31
0
  0
LINE
  8
1
 62
7
 10
-249.7781823981358
 20
15.8745078663875
 30
0
 11
-249.7781823981358
 21
-15.87450786638756
 31
0
  0
LINE
  8
1
 62
7
 10
-247.664933744084
 20
17.99999999999999
 30
0
 11
-247.664933744084
 21
-18.00000000000004
 31
0
  0
LINE
  8
1
 62
7
 10
-244.7781823981358
 20
13
 30
0
 11
-247.664933744084
 21
17.99999999999999
 31
0
  0
LINE
  8
1
 62
7
 10
-217.2781823981358
 20
-43.50463478275687
 30
0
 11
-214.778182398136
 21
-43.50000000000004
 31
0
  0
LINE
  8
1
 62
7
 10
-217.2781823981358
 20
-32.50463478275687
 30
0
 11
-214.778182398136
 21
-32.50000000000004
 31
0
  0
LINE
  8
1
 62
7
 10
-244.7781823981358
 20
-25.00000000000004
 30
0
 11
-244.7781823981358
 21
24.99999999999999
 31
0
  0
LINE
  8
1
 62
7
 10
-41.3281823981361
 20
-12
 30
0
 11
-39.27818239813592
 21
-12
 31
0
  0
LINE
  8
1
 62
7
 10
-39.27818239813592
 20
12
 30
0
 11
-39.27818239813592
 21
-12
 31
0
  0
LINE
  8
1
 62
7
 10
-41.3281823981361
 20
12
 30
0
 11
-39.27818239813592
 21
12
 31
0
  0
LINE
  8
1
 62
7
 10
-3.27818239813592
 20
-10
 30
0
 11
-39.27818239813592
 21
-10
 31
0
  0
LINE
  8
1
 62
7
 10
-3.27818239813592
 20
12
 30
0
 11
-3.27818239813592
 21
-10
 31
0
  0
LINE
  8
1
 62
7
 10
-39.27818239813592
 20
10
 30
0
 11
-3.27818239813592
 21
10
 31
0
  0
LINE
  8
1
 62
7
 10
-207.6781823981359
 20
53.49999999999999
 30
0
 11
-207.6781823981359
 21
-53.49999999999996
 31
0
  0
LINE
  8
1
 62
7
 10
-205.9461315905671
 20
-56.49999999999996
 30
0
 11
-205.9461315905671
 21
56.49999999999999
 31
0
  0
LINE
  8
1
 62
7
 10
-187.278182398136
 20
-53.49999999999996
 30
0
 11
-194.6781823981359
 21
-53.49999999999996
 31
0
  0
LINE
  8
1
 62
7
 10
-194.6781823981359
 20
53.49999999999999
 30
0
 11
-187.278182398136
 21
53.49999999999999
 31
0
  0
LINE
  8
1
 62
3
  6
DASHDOT
 10
-258.2339212159004
 20
0
 30
0
 11
-254.2781823981358
 21
0
 31
0
  0
LINE
  8
1
 62
7
 10
-181.2781823981358
 20
49.99999999999999
 30
0
 11
-181.2781823981358
 21
-50.00000000000001
 31
0
  0
LINE
  8
1
 62
7
 10
-214.778182398136
 20
-53.00000000000004
 30
0
 11
-214.0781823981359
 21
-53.00000000000004
 31
0
  0
LINE
  8
1
 62
7
 10
-209.3781823981358
 20
-54.00000000000004
 30
0
 11
-213.3781823981358
 21
-54.00000000000004
 31
0
  0
LINE
  8
1
 62
7
 10
-214.778182398136
 20
-53.00000000000004
 30
0
 11
-214.778182398136
 21
37.99999999999999
 31
0
  0
LINE
  8
1
 62
7
 10
-215.8781823981358
 20
42.99999999999999
 30
0
 11
-216.3781823981358
 21
43.49999999999999
 31
0
  0
LINE
  8
1
 62
7
 10
-215.8781823981358
 20
51.99999999999999
 30
0
 11
-216.3781823981358
 21
51.49999999999999
 31
0
  0
LINE
  8
1
 62
7
 10
-214.778182398136
 20
42.99999999999999
 30
0
 11
-214.778182398136
 21
51.99999999999999
 31
0
  0
LINE
  8
1
 62
7
 10
-215.8781823981358
 20
51.99999999999999
 30
0
 11
-214.0781823981359
 21
51.99999999999999
 31
0
  0
LINE
  8
1
 62
7
 10
-215.8781823981358
 20
42.99999999999999
 30
0
 11
-214.0781823981359
 21
42.99999999999999
 31
0
  0
LINE
  8
1
 62
7
 10
-216.3781823981358
 20
43.49999999999999
 30
0
 11
-216.3781823981358
 21
51.49999999999999
 31
0
  0
LINE
  8
1
 62
7
 10
-214.0781823981359
 20
37.99999999999999
 30
0
 11
-213.3781823981358
 21
40.61243556529818
 31
0
  0
LINE
  8
1
 62
7
 10
-214.778182398136
 20
37.99999999999999
 30
0
 11
-214.0781823981359
 21
40.5413683660215
 31
0
  0
LINE
  8
1
 62
7
 10
-214.0781823981359
 20
40.5413683660215
 30
0
 11
-214.0781823981359
 21
52.99999999999999
 31
0
  0
LINE
  8
1
 62
7
 10
-214.0781823981359
 20
52.99999999999999
 30
0
 11
-213.3781823981358
 21
52.99999999999999
 31
0
  0
LINE
  8
1
 62
7
 10
-214.0781823981359
 20
-53.00000000000004
 30
0
 11
-214.0781823981359
 21
37.99999999999999
 31
0
  0
LINE
  8
1
 62
7
 10
-213.3781823981358
 20
53.99999999999999
 30
0
 11
-209.3781823981358
 21
53.99999999999999
 31
0
  0
LINE
  8
1
 62
7
 10
-209.3781823981358
 20
-54.00000000000004
 30
0
 11
-209.3781823981358
 21
53.99999999999999
 31
0
  0
LINE
  8
1
 62
7
 10
-194.6781823981359
 20
56.49999999999999
 30
0
 11
-194.6781823981359
 21
-56.49999999999996
 31
0
  0
LINE
  8
1
 62
7
 10
-194.6781823981359
 20
-56.49999999999996
 30
0
 11
-205.9461315905671
 21
-56.49999999999996
 31
0
  0
LINE
  8
1
 62
7
 10
-205.9461315905671
 20
-56.49999999999996
 30
0
 11
-207.6781823981359
 21
-53.49999999999996
 31
0
  0
LINE
  8
1
 62
7
 10
-207.6781823981359
 20
-53.49999999999996
 30
0
 11
-209.1781823981359
 21
-53.49999999999996
 31
0
  0
LINE
  8
1
 62
7
 10
-209.1781823981359
 20
53.49999999999999
 30
0
 11
-207.6781823981359
 21
53.49999999999999
 31
0
  0
LINE
  8
1
 62
7
 10
-207.6781823981359
 20
53.49999999999999
 30
0
 11
-205.9461315905671
 21
56.49999999999999
 31
0
  0
LINE
  8
1
 62
7
 10
-205.9461315905671
 20
56.49999999999999
 30
0
 11
-194.6781823981359
 21
56.49999999999999
 31
0
  0
LINE
  8
1
 62
7
 10
-209.1781823981359
 20
-53.49999999999996
 30
0
 11
-209.1781823981359
 21
53.49999999999999
 31
0
  0
LINE
  8
1
 62
7
 10
-179.2781823981358
 20
49.99999999999999
 30
0
 11
-179.2781823981358
 21
-50.00000000000001
 31
0
  0
LINE
  8
1
 62
7
 10
-213.3781823981358
 20
53.99999999999999
 30
0
 11
-213.3781823981358
 21
-54.00000000000004
 31
0
  0
LINE
  8
1
 62
7
 10
-65.47818239813607
 20
53.75
 30
0
 11
-61.57818239813589
 21
53.75000000000001
 31
0
  0
LINE
  8
1
 62
7
 10
-61.5781823981359
 20
52.99999999999999
 30
0
 11
-60.87818239813597
 21
52.99999999999999
 31
0
  0
LINE
  8
1
 62
7
 10
-60.87818239813597
 20
40.5413683660215
 30
0
 11
-60.17818239813593
 21
37.99999999999999
 31
0
  0
LINE
  8
1
 62
7
 10
-61.5781823981359
 20
40.6124355652983
 30
0
 11
-60.87818239813597
 21
37.99999999999999
 31
0
  0
LINE
  8
1
 62
7
 10
-60.87818239813597
 20
52.99999999999999
 30
0
 11
-60.87818239813597
 21
40.5413683660215
 31
0
  0
LINE
  8
1
 62
7
 10
-60.17818239813593
 20
51.99999999999999
 30
0
 11
-60.17818239813593
 21
42.99999999999999
 31
0
  0
LINE
  8
1
 62
7
 10
-60.87818239813597
 20
51.99999999999999
 30
0
 11
-59.0781823981359
 21
51.99999999999999
 31
0
  0
LINE
  8
1
 62
7
 10
-58.5781823981359
 20
51.49999999999999
 30
0
 11
-59.0781823981359
 21
51.99999999999999
 31
0
  0
LINE
  8
1
 62
7
 10
-60.87818239813597
 20
42.99999999999999
 30
0
 11
-59.0781823981359
 21
42.99999999999999
 31
0
  0
LINE
  8
1
 62
7
 10
-58.5781823981359
 20
51.49999999999999
 30
0
 11
-58.5781823981359
 21
43.49999999999999
 31
0
  0
LINE
  8
1
 62
7
 10
-58.5781823981359
 20
43.49999999999999
 30
0
 11
-59.0781823981359
 21
42.99999999999999
 31
0
  0
LINE
  8
1
 62
7
 10
-61.5781823981359
 20
-53.75
 30
0
 11
-65.47818239813606
 21
-53.74999999999999
 31
0
  0
LINE
  8
1
 62
7
 10
-60.87818239813597
 20
-52.99999999999996
 30
0
 11
-60.17818239813593
 21
-52.99999999999996
 31
0
  0
LINE
  8
1
 62
7
 10
-60.87818239813597
 20
-52.99999999999996
 30
0
 11
-60.87818239813597
 21
37.99999999999999
 31
0
  0
LINE
  8
1
 62
7
 10
-65.47818239813607
 20
53.75
 30
0
 11
-65.47818239813606
 21
-53.74999999999999
 31
0
  0
LINE
  8
1
 62
7
 10
-80.87818239813589
 20
-53.49999999999987
 30
0
 11
-65.87818239813595
 21
-53.49999999999987
 31
0
  0
LINE
  8
1
 62
7
 10
-65.87818239813595
 20
53.49999999999999
 30
0
 11
-65.87818239813595
 21
-53.49999999999987
 31
0
  0
LINE
  8
1
 62
7
 10
-86.87818239813589
 20
49.99999999999999
 30
0
 11
-86.87818239813589
 21
-49.99999999999996
 31
0
  0
LINE
  8
1
 62
7
 10
-80.87818239813589
 20
53.49999999999999
 30
0
 11
-65.87818239813595
 21
53.49999999999999
 31
0
  0
LINE
  8
1
 62
7
 10
-60.17818239813593
 20
-52.99999999999996
 30
0
 11
-60.17818239813593
 21
37.99999999999999
 31
0
  0
LINE
  8
1
 62
7
 10
-61.5781823981359
 20
-53.75
 30
0
 11
-61.57818239813589
 21
53.75000000000001
 31
0
  0
LINE
  8
1
 62
3
  6
DASHDOT
 10
-76.77818239813581
 20
-83
 30
0
 11
-76.77818239813581
 21
-65
 31
0
  0
LINE
  8
1
 62
7
 10
-64.27818239813581
 20
-72
 30
0
 11
-64.27818239813581
 21
-80
 31
0
  0
LINE
  8
1
 62
7
 10
-64.27818239813581
 20
-80
 30
0
 11
-104.2781823981358
 21
-80
 31
0
  0
LINE
  8
1
 62
7
 10
-86.87818239813589
 20
-49.99999999999996
 30
0
 11
-90.77818239813587
 21
-50.00000000000001
 31
0
  0
LINE
  8
1
 62
7
 10
-89.27818239813587
 20
-50.00000000000001
 30
0
 11
-89.27818239813587
 21
49.99999999999999
 31
0
  0
LINE
  8
1
 62
7
 10
-91.77818239813587
 20
50.99999999999999
 30
0
 11
-91.77818239813587
 21
-66
 31
0
  0
LINE
  8
1
 62
7
 10
-90.77818239813587
 20
49.99999999999999
 30
0
 11
-86.87818239813589
 21
49.99999999999999
 31
0
  0
LINE
  8
1
 62
7
 10
-177.7781823981358
 20
-50.00000000000001
 30
0
 11
-181.2781823981358
 21
-50.00000000000001
 31
0
  0
LINE
  8
1
 62
7
 10
-181.2781823981358
 20
49.99999999999999
 30
0
 11
-177.7781823981358
 21
49.99999999999999
 31
0
  0
LINE
  8
1
 62
7
 10
-176.7781823981358
 20
50.99999999999999
 30
0
 11
-176.7781823981358
 21
-66
 31
0
  0
LINE
  8
1
 62
7
 10
-175.7781823981358
 20
51.99999999999999
 30
0
 11
-92.77818239813587
 21
51.99999999999999
 31
0
  0
LINE
  8
1
 62
7
 10
-200.2781823981358
 20
-68
 30
0
 11
-68.27818239813581
 21
-68
 31
0
  0
LINE
  8
1
 62
7
 10
-204.2781823981358
 20
-80
 30
0
 11
-204.2781823981358
 21
-72
 31
0
  0
LINE
  8
1
 62
7
 10
-164.2781823981358
 20
-80
 30
0
 11
-204.2781823981358
 21
-80
 31
0
  0
LINE
  8
1
 62
7
 10
-108.2781823981358
 20
-76
 30
0
 11
-160.2781823981358
 21
-76
 31
0
  0
LINE
  8
1
 62
7
 10
-162.2781823981358
 20
-34.94323201169912
 30
0
 11
-162.2781823981358
 21
-14.94323201169912
 31
0
  0
LINE
  8
1
 62
7
 10
-158.0156823981357
 20
-18.19323201169912
 30
0
 11
-158.5406823981359
 21
-18.19323201169912
 31
0
  0
LINE
  8
1
 62
7
 10
-160.0281823981358
 20
-19.68073201169913
 30
0
 11
-160.0281823981358
 21
-20.20573201169911
 31
0
  0
LINE
  8
1
 62
7
 10
-158.5406823981359
 20
-21.69323201169912
 30
0
 11
-158.0156823981357
 21
-21.69323201169912
 31
0
  0
LINE
  8
1
 62
7
 10
-156.5281823981358
 20
-20.20573201169911
 30
0
 11
-156.5281823981358
 21
-19.68073201169913
 31
0
  0
LINE
  8
1
 62
7
 10
-137.8551300009979
 20
-28.89141067468414
 30
0
 11
-138.2263610611207
 21
-28.52017961456123
 31
0
  0
LINE
  8
1
 62
7
 10
-140.3300037351509
 20
-28.52017961456123
 30
0
 11
-140.7012347952739
 21
-28.89141067468414
 31
0
  0
LINE
  8
1
 62
7
 10
-140.7012347952739
 20
-30.99505334871411
 30
0
 11
-140.3300037351509
 21
-31.36628440883705
 31
0
  0
LINE
  8
1
 62
7
 10
-138.2263610611207
 20
-31.36628440883705
 30
0
 11
-137.8551300009979
 21
-30.99505334871411
 31
0
  0
LINE
  8
1
 62
7
 10
-147.8551300009979
 20
-28.89141067468414
 30
0
 11
-148.2263610611207
 21
-28.52017961456123
 31
0
  0
LINE
  8
1
 62
7
 10
-150.3300037351509
 20
-28.52017961456123
 30
0
 11
-150.7012347952739
 21
-28.89141067468414
 31
0
  0
LINE
  8
1
 62
7
 10
-150.7012347952739
 20
-30.99505334871411
 30
0
 11
-150.3300037351509
 21
-31.36628440883705
 31
0
  0
LINE
  8
1
 62
7
 10
-148.2263610611207
 20
-31.36628440883705
 30
0
 11
-147.8551300009979
 21
-30.99505334871411
 31
0
  0
LINE
  8
1
 62
7
 10
-143.2781823981358
 20
-34.94323201169912
 30
0
 11
-143.2781823981358
 21
-25.94323201169912
 31
0
  0
LINE
  8
1
 62
7
 10
-143.2781823981358
 20
-25.94323201169912
 30
0
 11
-135.2781823981358
 21
-25.94323201169912
 31
0
  0
LINE
  8
1
 62
7
 10
-135.2781823981358
 20
-25.94323201169912
 30
0
 11
-135.2781823981358
 21
-34.94323201169912
 31
0
  0
LINE
  8
1
 62
7
 10
-145.2781823981358
 20
-34.94323201169912
 30
0
 11
-145.2781823981358
 21
-25.94323201169912
 31
0
  0
LINE
  8
1
 62
7
 10
-145.2781823981358
 20
-25.94323201169912
 30
0
 11
-153.2781823981358
 21
-25.94323201169912
 31
0
  0
LINE
  8
1
 62
7
 10
-153.2781823981358
 20
-25.94323201169912
 30
0
 11
-153.2781823981358
 21
-34.94323201169912
 31
0
  0
LINE
  8
1
 62
7
 10
-106.2781823981358
 20
-34.94323201169912
 30
0
 11
-162.2781823981358
 21
-34.94323201169912
 31
0
  0
LINE
  8
1
 62
7
 10
-106.2781823981358
 20
-14.94323201169912
 30
0
 11
-106.2781823981358
 21
-34.94323201169912
 31
0
  0
LINE
  8
1
 62
7
 10
-162.2781823981358
 20
-14.94323201169912
 30
0
 11
-106.2781823981358
 21
-14.94323201169912
 31
0
  0
LINE
  8
1
 62
7
 10
-110.0156823981357
 20
-18.19323201169912
 30
0
 11
-110.5406823981359
 21
-18.19323201169912
 31
0
  0
LINE
  8
1
 62
7
 10
-108.5281823981358
 20
-20.20573201169911
 30
0
 11
-108.5281823981358
 21
-19.68073201169913
 31
0
  0
LINE
  8
1
 62
7
 10
-110.5406823981359
 20
-21.69323201169912
 30
0
 11
-110.0156823981357
 21
-21.69323201169912
 31
0
  0
LINE
  8
1
 62
7
 10
-112.0281823981358
 20
-19.68073201169913
 30
0
 11
-112.0281823981358
 21
-20.20573201169911
 31
0
  0
LINE
  8
1
 62
7
 10
-130.3300037351508
 20
-28.52017961456123
 30
0
 11
-130.7012347952739
 21
-28.89141067468414
 31
0
  0
LINE
  8
1
 62
7
 10
-127.8551300009979
 20
-28.89141067468414
 30
0
 11
-128.2263610611207
 21
-28.52017961456123
 31
0
  0
LINE
  8
1
 62
7
 10
-128.2263610611207
 20
-31.36628440883705
 30
0
 11
-127.8551300009979
 21
-30.99505334871411
 31
0
  0
LINE
  8
1
 62
7
 10
-130.7012347952739
 20
-30.99505334871411
 30
0
 11
-130.3300037351508
 21
-31.36628440883705
 31
0
  0
LINE
  8
1
 62
7
 10
-120.3300037351507
 20
-28.52017961456123
 30
0
 11
-120.7012347952739
 21
-28.89141067468414
 31
0
  0
LINE
  8
1
 62
7
 10
-117.8551300009979
 20
-28.89141067468414
 30
0
 11
-118.2263610611207
 21
-28.52017961456123
 31
0
  0
LINE
  8
1
 62
7
 10
-118.2263610611207
 20
-31.36628440883705
 30
0
 11
-117.8551300009979
 21
-30.99505334871411
 31
0
  0
LINE
  8
1
 62
7
 10
-120.7012347952739
 20
-30.99505334871411
 30
0
 11
-120.3300037351507
 21
-31.36628440883705
 31
0
  0
LINE
  8
1
 62
7
 10
-125.2781823981358
 20
-25.94323201169912
 30
0
 11
-125.2781823981358
 21
-34.94323201169912
 31
0
  0
LINE
  8
1
 62
7
 10
-133.2781823981358
 20
-25.94323201169912
 30
0
 11
-125.2781823981358
 21
-25.94323201169912
 31
0
  0
LINE
  8
1
 62
7
 10
-133.2781823981358
 20
-34.94323201169912
 30
0
 11
-133.2781823981358
 21
-25.94323201169912
 31
0
  0
LINE
  8
1
 62
7
 10
-123.2781823981358
 20
-25.94323201169912
 30
0
 11
-123.2781823981358
 21
-34.94323201169912
 31
0
  0
LINE
  8
1
 62
7
 10
-115.2781823981358
 20
-25.94323201169912
 30
0
 11
-123.2781823981358
 21
-25.94323201169912
 31
0
  0
LINE
  8
1
 62
7
 10
-115.2781823981358
 20
-34.94323201169912
 30
0
 11
-115.2781823981358
 21
-25.94323201169912
 31
0
  0
LINE
  8
1
 62
7
 10
-46.97818239813588
 20
23.99999999999997
 30
0
 11
-43.27818239813583
 21
23.99999999999997
 31
0
  0
LINE
  8
1
 62
7
 10
-59.97818239813588
 20
-24.00000000000001
 30
0
 11
-60.17818239813593
 21
-24.00000000000001
 31
0
  0
LINE
  8
1
 62
7
 10
-59.97818239813588
 20
23.99999999999999
 30
0
 11
-60.17818239813593
 21
23.99999999999999
 31
0
  0
LINE
  8
1
 62
7
 10
-60.17818239813593
 20
-32.49999999999991
 30
0
 11
-59.47818239813588
 21
-32.49999999999991
 31
0
  0
LINE
  8
1
 62
7
 10
-60.17818239813593
 20
-43.49999999999996
 30
0
 11
-59.47818239813588
 21
-43.49999999999991
 31
0
  0
LINE
  8
1
 62
7
 10
-42.77818239813583
 20
-19.00000000000001
 30
0
 11
-42.77818239813583
 21
23.49999999999998
 31
0
  0
LINE
  8
1
 62
7
 10
-42.97818239813588
 20
-48.99696731187262
 30
0
 11
-42.97818239813588
 21
-19.00000000000002
 31
0
  0
LINE
  8
1
 62
7
 10
-46.97818239813588
 20
-49.49696731187262
 30
0
 11
-43.47818239813588
 21
-49.49696731187262
 31
0
  0
LINE
  8
1
 62
7
 10
-47.47818239813588
 20
-50.99992802775822
 30
0
 11
-47.47818239813588
 21
34.4619706755163
 31
0
  0
LINE
  8
1
 62
7
 10
-54.97818239813588
 20
-51.49992802775822
 30
0
 11
-47.97818239813588
 21
-51.49992802775822
 31
0
  0
LINE
  8
1
 62
7
 10
-47.97818239813588
 20
34.9619706755163
 30
0
 11
-58.97818239813588
 21
34.9619706755163
 31
0
  0
LINE
  8
1
 62
7
 10
-58.97818239813588
 20
-49.49696731187262
 30
0
 11
-55.97818239813588
 21
-49.49696731187262
 31
0
  0
LINE
  8
1
 62
7
 10
-42.77818239813583
 20
14
 30
0
 11
-41.3281823981361
 21
14
 31
0
  0
LINE
  8
1
 62
7
 10
-41.3281823981361
 20
14
 30
0
 11
-41.3281823981361
 21
-14
 31
0
  0
LINE
  8
1
 62
7
 10
-41.3281823981361
 20
-14
 30
0
 11
-42.77818239813583
 21
-14
 31
0
  0
LINE
  8
1
 62
3
  6
DASHDOT
 10
-191.7781823981358
 20
-65
 30
0
 11
-191.7781823981358
 21
-83
 31
0
  0
ARC
  8
1
 62
7
 10
-47.97818239813588
 20
234.4619706755163
 30
0
 40
0.5
 50
0
 51
90
  0
ARC
  8
1
 62
7
 10
-58.97818239813588
 20
234.4619706755163
 30
0
 40
0.5
 50
90
 51
180
  0
ARC
  8
1
 62
7
 10
-59.97818239813588
 20
224.5
 30
0
 40
0.5
 50
270
 51
0
  0
ARC
  8
1
 62
7
 10
-59.97818239813588
 20
175.5
 30
0
 40
0.5
 50
0
 51
90
  0
ARC
  8
1
 62
7
 10
-58.97818239813588
 20
151.0030326881273
 30
0
 40
0.5
 50
180
 51
270
  0
ARC
  8
1
 62
7
 10
-55.97818239813588
 20
150.0030326881273
 30
0
 40
0.5
 50
0
 51
90
  0
ARC
  8
1
 62
7
 10
-54.97818239813588
 20
149.0000719722417
 30
0
 40
0.5
 50
180
 51
270
  0
ARC
  8
1
 62
7
 10
-47.97818239813588
 20
149.0000719722417
 30
0
 40
0.5
 50
270
 51
0
  0
ARC
  8
1
 62
7
 10
-46.97818239813588
 20
150.0030326881273
 30
0
 40
0.5
 50
90
 51
180
  0
ARC
  8
1
 62
7
 10
-43.47818239813588
 20
151.0030326881273
 30
0
 40
0.5
 50
270
 51
0
  0
ARC
  8
1
 62
7
 10
-46.97818239813588
 20
224.5
 30
0
 40
0.5
 50
180
 51
270
  0
ARC
  8
1
 62
7
 10
-43.27818239813583
 20
223.5
 30
0
 40
0.5
 50
0
 51
90
  0
ARC
  8
1
 62
7
 10
-90.77818239813587
 20
251
 30
0
 40
1
 50
180
 51
270
  0
ARC
  8
1
 62
7
 10
-92.77818239813587
 20
251
 30
0
 40
1
 50
0
 51
90
  0
ARC
  8
1
 62
7
 10
-90.77818239813587
 20
251
 30
0
 40
1
 50
180
 51
270
  0
ARC
  8
1
 62
7
 10
-90.77818239813587
 20
149
 30
0
 40
1
 50
90
 51
180
  0
ARC
  8
1
 62
7
 10
-80.87818239813589
 20
247.5
 30
0
 40
6
 50
90
 51
180
  0
ARC
  8
1
 62
7
 10
-80.87818239813589
 20
152.5
 30
0
 40
6
 50
180
 51
270
  0
ARC
  8
1
 62
7
 10
-32.77818239813592
 20
200
 30
0
 40
2.5
 50
90
 51
270
  0
ARC
  8
1
 62
7
 10
-175.7781823981358
 20
251
 30
0
 40
1
 50
90
 51
180
  0
ARC
  8
1
 62
7
 10
-177.7781823981358
 20
251
 30
0
 40
1
 50
270
 51
0
  0
ARC
  8
1
 62
7
 10
-177.7781823981358
 20
149
 30
0
 40
1
 50
0
 51
90
  0
ARC
  8
1
 62
7
 10
-187.278182398136
 20
247.5
 30
0
 40
6
 50
0
 51
90
  0
ARC
  8
1
 62
7
 10
-187.278182398136
 20
152.5
 30
0
 40
6
 50
270
 51
0
  0
ARC
  8
1
 62
7
 10
-175.7781823981358
 20
149
 30
0
 40
1
 50
180
 51
270
  0
ARC
  8
1
 62
7
 10
-92.77818239813587
 20
149
 30
0
 40
1
 50
270
 51
0
  0
ARC
  8
1
 62
7
 10
-68.27818239813581
 20
263
 30
0
 40
4
 50
0
 51
90
  0
ARC
  8
1
 62
7
 10
-200.2781823981358
 20
263
 30
0
 40
4
 50
90
 51
180
  0
ARC
  8
1
 62
7
 10
-200.2781823981358
 20
136.9999999999999
 30
0
 40
4
 50
180
 51
270
  0
ARC
  8
1
 62
7
 10
-68.27818239813581
 20
136.9999999999999
 30
0
 40
4
 50
270
 51
0
  0
ARC
  8
1
 62
7
 10
-179.7781823981358
 20
264
 30
0
 40
3
 50
0
 51
90
  0
ARC
  8
1
 62
7
 10
-88.77818239813587
 20
264
 30
0
 40
3
 50
90
 51
180
  0
ARC
  8
1
 62
7
 10
-179.7781823981358
 20
135.9999999999999
 30
0
 40
3
 50
270
 51
0
  0
ARC
  8
1
 62
7
 10
-88.77818239813587
 20
135.9999999999999
 30
0
 40
3
 50
180
 51
270
  0
ARC
  8
1
 62
7
  6
DASHED
 10
-76.77818239813581
 20
144.9999999999999
 30
0
 40
4.499999999999989
 50
19.47122063449227
 51
160.5060674908118
  0
ARC
  8
1
 62
7
 10
-76.77818239813581
 20
255
 30
0
 40
4.499999999999925
 50
340.528779365509
 51
199.4939325091858
  0
ARC
  8
1
 62
7
  6
DASHED
 10
-191.7781823981358
 20
255
 30
0
 40
4.500000000000004
 50
160.5287793655093
 51
340.528779365509
  0
ARC
  8
1
 62
7
 10
-191.7781823981358
 20
255
 30
0
 40
4.499999999999925
 50
340.528779365509
 51
160.5287793655093
  0
ARC
  8
1
 62
7
  6
DASHED
 10
-76.77818239813581
 20
255
 30
0
 40
4.499999999999927
 50
199.4939325091858
 51
340.528779365509
  0
ARC
  8
1
 62
7
  6
DASHED
 10
-191.7781823981358
 20
144.9999999999999
 30
0
 40
4.50000000000007
 50
19.47122063449191
 51
199.4712206344889
  0
ARC
  8
1
 62
7
 10
-191.7781823981358
 20
144.9999999999999
 30
0
 40
4.500000000000048
 50
199.4712206344889
 51
19.47122063449191
  0
ARC
  8
1
 62
7
 10
-76.77818239813581
 20
144.9999999999999
 30
0
 40
4.499999999999994
 50
160.5060674908118
 51
19.47122063449227
  0
ARC
  8
1
 62
3
  6
DASHDOT
 10
-380.0159500225368
 20
0
 30
0
 40
33.00000000000011
 50
315.0000000000002
 51
344.9999999999999
  0
ARC
  8
1
 62
3
  6
DASHDOT
 10
-380.0159500225368
 20
0
 30
0
 40
32.99999999999995
 50
195
 51
225.0000000000001
  0
ARC
  8
1
 62
3
  6
DASHDOT
 10
-380.0159500225368
 20
0
 30
0
 40
33
 50
75.00000000000001
 51
105
  0
ARC
  8
1
 62
7
 10
-380.0159500225368
 20
0
 30
0
 40
15.99999999999996
 50
97.18075578145829
 51
172.8192442185417
  0
ARC
  8
1
 62
7
 10
-380.0159500225368
 20
0
 30
0
 40
16.00000000000006
 50
187.1807557814583
 51
262.8192442185417
  0
ARC
  8
1
 62
7
 10
-380.0159500225368
 20
0
 30
0
 40
16.00000000000001
 50
277.1807557814583
 51
352.8192442185417
  0
ARC
  8
1
 62
7
 10
-380.0159500225368
 20
0
 30
0
 40
15.99999999999995
 50
7.180755781458305
 51
82.8192442185417
  0
ARC
  8
1
 62
7
 10
-380.0159500225368
 20
0
 30
0
 40
67.5
 50
312.2054464037323
 51
317.7945535962676
  0
ARC
  8
1
 62
7
 10
-336.8824363701575
 20
-43.13351365237943
 30
0
 40
4.999999999999989
 50
159.7987150426567
 51
110.2012849573439
  0
ARC
  8
1
 62
7
 10
-380.0159500225368
 20
0
 30
0
 40
67.49999999999996
 50
222.2054464037323
 51
227.7945535962677
  0
ARC
  8
1
 62
7
 10
-423.1494636749162
 20
-43.13351365237936
 30
0
 40
4.999999999999946
 50
69.79871504265779
 51
20.20128495734351
  0
ARC
  8
1
 62
7
 10
-380.0159500225368
 20
0
 30
0
 40
67.50000000000004
 50
132.2054464037323
 51
137.7945535962678
  0
ARC
  8
1
 62
7
 10
-423.1494636749162
 20
43.13351365237939
 30
0
 40
4.999999999999876
 50
339.7987150426564
 51
290.2012849573416
  0
ARC
  8
1
 62
7
 10
-380.0159500225368
 20
0
 30
0
 40
67.49999999999989
 50
42.20544640373233
 51
47.79455359626773
  0
ARC
  8
1
 62
7
 10
-336.8824363701575
 20
43.13351365237939
 30
0
 40
4.999999999999953
 50
249.7987150426578
 51
200.2012849573432
  0
ARC
  8
1
 62
7
 10
-349.0159500225368
 20
-80
 30
0
 40
4
 50
0
 51
90
  0
ARC
  8
1
 62
7
 10
-341.0159500225368
 20
-72
 30
0
 40
4
 50
90
 51
180
  0
ARC
  8
1
 62
7
 10
-323.0159500225369
 20
-70.8679622641132
 30
0
 40
10
 50
0
 51
32.00538320808336
  0
ARC
  8
1
 62
7
 10
-317.0159500225369
 20
-72
 30
0
 40
4
 50
0
 51
90
  0
ARC
  8
1
 62
7
 10
-332.0159500225369
 20
47.99999999999999
 30
0
 40
4
 50
0
 51
90
  0
ARC
  8
1
 62
7
 10
-332.0159500225369
 20
47.99999999999999
 30
0
 40
4
 50
0
 51
90
  0
ARC
  8
1
 62
7
 10
-428.0159500225368
 20
47.99999999999999
 30
0
 40
4
 50
90
 51
180
  0
ARC
  8
1
 62
7
 10
-437.0159500225368
 20
-70.8679622641132
 30
0
 40
10.00000000000002
 50
147.9946167919166
 51
180
  0
ARC
  8
1
 62
7
 10
-443.0159500225368
 20
-72
 30
0
 40
4
 50
90
 51
180
  0
ARC
  8
1
 62
7
 10
-419.0159500225368
 20
-72
 30
0
 40
4
 50
0
 51
90
  0
ARC
  8
1
 62
7
 10
-411.0159500225368
 20
-80
 30
0
 40
4
 50
90
 51
180
  0
ARC
  8
1
 62
7
 10
-135.2781823981358
 20
-4
 30
0
 40
1
 50
270
 51
90
  0
ARC
  8
1
 62
7
 10
-135.2781823981358
 20
-6
 30
0
 40
1
 50
270
 51
90
  0
ARC
  8
1
 62
7
 10
-133.2781823981358
 20
-6
 30
0
 40
1
 50
90
 51
270
  0
ARC
  8
1
 62
7
 10
-133.2781823981358
 20
-4
 30
0
 40
1
 50
90
 51
270
  0
ARC
  8
1
 62
7
 10
-134.2781823981358
 20
-5
 30
0
 40
2.5
 50
53.13010235415598
 51
126.869897645844
  0
ARC
  8
1
 62
7
 10
-134.2781823981358
 20
-5
 30
0
 40
2.500000000000016
 50
234.4649085793088
 51
305.5350914206919
  0
ARC
  8
1
 62
7
 10
-134.2781823981358
 20
-5
 30
0
 40
5.000000000000042
 50
341.1921904482911
 51
0
  0
ARC
  8
1
 62
7
 10
-134.2781823981358
 20
-5
 30
0
 40
5.000000000000046
 50
224.1457432463716
 51
315.8542567536287
  0
ARC
  8
1
 62
7
 10
-134.2781823981358
 20
-5
 30
0
 40
5
 50
180
 51
198.8078095517089
  0
ARC
  8
1
 62
7
 10
-134.2781823981358
 20
-5
 30
0
 40
5.000000000000075
 50
23.57817847820146
 51
156.4218215217986
  0
ARC
  8
1
 62
7
 10
-156.5281823981358
 20
-18.19323201169912
 30
0
 40
1.487499999999898
 50
180
 51
270
  0
ARC
  8
1
 62
7
 10
-160.0281823981358
 20
-18.19323201169912
 30
0
 40
1.487500000000011
 50
270
 51
0
  0
ARC
  8
1
 62
7
 10
-160.0281823981358
 20
-21.69323201169912
 30
0
 40
1.487499999999898
 50
0
 51
90
  0
ARC
  8
1
 62
7
 10
-156.5281823981358
 20
-21.69323201169912
 30
0
 40
1.487500000000011
 50
90
 51
180
  0
ARC
  8
1
 62
7
 10
-136.8033086639828
 20
-29.94323201169912
 30
0
 40
1.487500000000072
 50
135.0000000000032
 51
224.999999999997
  0
ARC
  8
1
 62
7
 10
-139.2781823981358
 20
-27.46835827754624
 30
0
 40
1.487500000000077
 50
224.999999999997
 51
315.000000000003
  0
ARC
  8
1
 62
7
 10
-141.7530561322889
 20
-29.94323201169912
 30
0
 40
1.487499999999997
 50
314.9999999999999
 51
44.9999999999999
  0
ARC
  8
1
 62
7
 10
-139.2781823981358
 20
-32.41810574585203
 30
0
 40
1.487500000000072
 50
44.99999999999681
 51
135.0000000000032
  0
ARC
  8
1
 62
7
 10
-146.8033086639828
 20
-29.94323201169912
 30
0
 40
1.487500000000072
 50
135.0000000000032
 51
224.999999999997
  0
ARC
  8
1
 62
7
 10
-149.2781823981358
 20
-27.46835827754624
 30
0
 40
1.487500000000077
 50
224.999999999997
 51
315.000000000003
  0
ARC
  8
1
 62
7
 10
-151.7530561322889
 20
-29.94323201169912
 30
0
 40
1.487499999999997
 50
314.9999999999999
 51
44.9999999999999
  0
ARC
  8
1
 62
7
 10
-149.2781823981358
 20
-32.41810574585203
 30
0
 40
1.487500000000072
 50
44.99999999999681
 51
135.0000000000032
  0
ARC
  8
1
 62
7
 10
-112.0281823981358
 20
-18.19323201169912
 30
0
 40
1.487500000000011
 50
270
 51
0
  0
ARC
  8
1
 62
7
 10
-108.5281823981358
 20
-18.19323201169912
 30
0
 40
1.487499999999898
 50
180
 51
270
  0
ARC
  8
1
 62
7
 10
-108.5281823981358
 20
-21.69323201169912
 30
0
 40
1.487500000000011
 50
90
 51
180
  0
ARC
  8
1
 62
7
 10
-112.0281823981358
 20
-21.69323201169912
 30
0
 40
1.487499999999898
 50
0
 51
90
  0
ARC
  8
1
 62
7
 10
-131.7530561322889
 20
-29.94323201169912
 30
0
 40
1.487499999999997
 50
314.9999999999999
 51
44.9999999999999
  0
ARC
  8
1
 62
7
 10
-129.2781823981358
 20
-27.46835827754624
 30
0
 40
1.487499999999997
 50
225.0000000000001
 51
315.000000000003
  0
ARC
  8
1
 62
7
 10
-126.8033086639828
 20
-29.94323201169912
 30
0
 40
1.487500000000072
 50
135.0000000000032
 51
224.999999999997
  0
ARC
  8
1
 62
7
 10
-129.2781823981358
 20
-32.41810574585203
 30
0
 40
1.487500000000072
 50
44.99999999999681
 51
135.0000000000001
  0
ARC
  8
1
 62
7
 10
-121.7530561322888
 20
-29.94323201169912
 30
0
 40
1.487499999999936
 50
314.9999999999976
 51
45.00000000000222
  0
ARC
  8
1
 62
7
 10
-119.2781823981358
 20
-27.46835827754624
 30
0
 40
1.487499999999936
 50
225.0000000000024
 51
315.000000000003
  0
ARC
  8
1
 62
7
 10
-116.803308663983
 20
-29.94323201169912
 30
0
 40
1.487499999999931
 50
134.9999999999978
 51
225.0000000000024
  0
ARC
  8
1
 62
7
 10
-119.2781823981358
 20
-32.41810574585203
 30
0
 40
1.487500000000072
 50
44.99999999999681
 51
134.9999999999978
  0
ARC
  8
1
 62
7
 10
-127.2781823981357
 20
-12
 30
0
 40
9
 50
0
 51
90
  0
ARC
  8
1
 62
7
 10
-127.2781823981357
 20
-12
 30
0
 40
7
 50
0
 51
90
  0
ARC
  8
1
 62
7
 10
-133.2281823981357
 20
-9.950000000000117
 30
0
 40
4.95025251881153
 50
0.5787255656090462
 51
90.57872556560919
  0
ARC
  8
1
 62
7
 10
-133.2781823981357
 20
-10
 30
0
 40
3
 50
0
 51
90
  0
ARC
  8
1
 62
7
 10
-141.2781823981358
 20
-12
 30
0
 40
9
 50
90
 51
180
  0
ARC
  8
1
 62
7
 10
-141.2781823981358
 20
-12
 30
0
 40
7
 50
90
 51
180
  0
ARC
  8
1
 62
7
 10
-135.3281823981359
 20
-9.950000000000046
 30
0
 40
4.950252518811587
 50
89.42127443439111
 51
179.4212744343918
  0
ARC
  8
1
 62
7
 10
-135.2781823981358
 20
-10
 30
0
 40
3
 50
90
 51
180
  0
ARC
  8
1
 62
7
 10
-187.278182398136
 20
-47.49999999999996
 30
0
 40
6
 50
270
 51
0
  0
ARC
  8
1
 62
7
 10
-187.278182398136
 20
47.49999999999999
 30
0
 40
6
 50
0
 51
90
  0
ARC
  8
1
 62
7
 10
-80.87818239813589
 20
-47.49999999999996
 30
0
 40
6
 50
180
 51
270
  0
ARC
  8
1
 62
7
 10
-80.87818239813589
 20
47.49999999999999
 30
0
 40
6
 50
90
 51
180
  0
ARC
  8
1
 62
7
 10
-89.77818239813587
 20
-66
 30
0
 40
2
 50
180
 51
270
  0
ARC
  8
1
 62
7
 10
-178.7781823981358
 20
-66
 30
0
 40
2
 50
270
 51
0
  0
ARC
  8
1
 62
7
 10
-68.27818239813581
 20
-72
 30
0
 40
4
 50
0
 51
90
  0
ARC
  8
1
 62
7
 10
-108.2781823981358
 20
-80
 30
0
 40
4
 50
0
 51
90
  0
ARC
  8
1
 62
7
 10
-90.77818239813587
 20
-51.00000000000001
 30
0
 40
1
 50
90
 51
180
  0
ARC
  8
1
 62
7
 10
-90.77818239813587
 20
50.99999999999999
 30
0
 40
1
 50
180
 51
270
  0
ARC
  8
1
 62
7
 10
-92.77818239813587
 20
50.99999999999999
 30
0
 40
1
 50
0
 51
90
  0
ARC
  8
1
 62
7
 10
-90.77818239813587
 20
50.99999999999999
 30
0
 40
1
 50
180
 51
270
  0
ARC
  8
1
 62
7
 10
-177.7781823981358
 20
-51.00000000000001
 30
0
 40
1
 50
0
 51
90
  0
ARC
  8
1
 62
7
 10
-177.7781823981358
 20
50.99999999999999
 30
0
 40
1
 50
270
 51
0
  0
ARC
  8
1
 62
7
 10
-175.7781823981358
 20
50.99999999999999
 30
0
 40
1
 50
90
 51
180
  0
ARC
  8
1
 62
7
 10
-200.2781823981358
 20
-72
 30
0
 40
4
 50
90
 51
180
  0
ARC
  8
1
 62
7
 10
-160.2781823981358
 20
-80
 30
0
 40
4
 50
90
 51
180
  0
ARC
  8
1
 62
7
 10
-43.27818239813583
 20
23.49999999999997
 30
0
 40
0.5
 50
0
 51
90
  0
ARC
  8
1
 62
7
 10
-46.97818239813588
 20
24.49999999999997
 30
0
 40
0.5
 50
180
 51
270
  0
ARC
  8
1
 62
7
 10
-43.47818239813588
 20
-48.99696731187262
 30
0
 40
0.5
 50
270
 51
0
  0
ARC
  8
1
 62
7
 10
-46.97818239813588
 20
-49.99696731187262
 30
0
 40
0.5
 50
90
 51
180
  0
ARC
  8
1
 62
7
 10
-47.97818239813588
 20
-50.99992802775822
 30
0
 40
0.5
 50
270
 51
0
  0
ARC
  8
1
 62
7
 10
-54.97818239813588
 20
-50.99992802775822
 30
0
 40
0.5
 50
180
 51
270
  0
ARC
  8
1
 62
7
 10
-58.97818239813588
 20
-48.99696731187262
 30
0
 40
0.5
 50
180
 51
270
  0
ARC
  8
1
 62
7
 10
-59.97818239813588
 20
-24.50000000000001
 30
0
 40
0.5
 50
0
 51
90
  0
ARC
  8
1
 62
7
 10
-59.97818239813588
 20
24.49999999999999
 30
0
 40
0.5
 50
270
 51
0
  0
ARC
  8
1
 62
7
 10
-47.97818239813588
 20
-50.99992802775822
 30
0
 40
0.5
 50
270
 51
0
  0
ARC
  8
1
 62
7
 10
-54.97818239813588
 20
-50.99992802775822
 30
0
 40
0.5
 50
180
 51
270
  0
ARC
  8
1
 62
7
 10
-55.97818239813588
 20
-49.99696731187262
 30
0
 40
0.5
 50
0
 51
90
  0
ARC
  8
1
 62
7
 10
-58.97818239813588
 20
34.4619706755163
 30
0
 40
0.5
 50
90
 51
180
  0
ARC
  8
1
 62
7
 10
-47.97818239813588
 20
34.4619706755163
 30
0
 40
0.5
 50
0
 51
90
  0
ARC
  8
1
 62
7
 10
-47.97818239813588
 20
-50.99992802775822
 30
0
 40
0.5
 50
270
 51
0
  0
ARC
  8
1
 62
7
 10
-54.97818239813588
 20
-50.99992802775822
 30
0
 40
0.5
 50
180
 51
270
  0
CIRCLE
  8
1
 62
7
 10
-380.0159500225368
 20
-37.99999999999999
 30
0
 40
2.5
  0
CIRCLE
  8
1
 62
7
 10
-380.0159500225368
 20
-37.99999999999999
 30
0
 40
6
  0
CIRCLE
  8
1
 62
7
 10
-412.9249153663455
 20
18.99999999999999
 30
0
 40
5.999999999999773
  0
CIRCLE
  8
1
 62
7
 10
-347.1069846787282
 20
18.99999999999999
 30
0
 40
2.499999999999943
  0
CIRCLE
  8
1
 62
7
 10
-347.1069846787282
 20
18.99999999999999
 30
0
 40
5.999999999999943
  0
CIRCLE
  8
1
 62
7
 10
-412.9249153663455
 20
18.99999999999999
 30
0
 40
2.5
  0
CIRCLE
  8
1
 62
7
 10
-347.1069846787282
 20
18.99999999999999
 30
0
 40
8.5
  0
CIRCLE
  8
1
 62
7
 10
-412.9249153663455
 20
18.99999999999999
 30
0
 40
8.500000000000114
  0
CIRCLE
  8
1
 62
7
 10
-380.0159500225368
 20
-37.99999999999999
 30
0
 40
8.499999999999886
  0
CIRCLE
  8
1
 62
7
 10
-380.0159500225368
 20
0
 30
0
 40
48.49999999999989
  0
CIRCLE
  8
1
 62
3
 10
-380.0159500225368
 20
0
 30
0
 40
8.5
  0
CIRCLE
  8
1
 62
7
 10
-380.0159500225368
 20
0
 30
0
 40
10
  0
CIRCLE
  8
1
 62
7
 10
-380.0159500225368
 20
0
 30
0
 40
53.99999999999989
  0
CIRCLE
  8
1
 62
7
 10
-351.4371116976504
 20
-16.50000000000001
 30
0
 40
3.199999999999989
  0
CIRCLE
  8
1
 62
3
 10
-351.4371116976504
 20
-16.50000000000001
 30
0
 40
4
  0
CIRCLE
  8
1
 62
7
 10
-408.5947883474234
 20
-16.5
 30
0
 40
3.199999999999989
  0
CIRCLE
  8
1
 62
3
 10
-408.5947883474234
 20
-16.5
 30
0
 40
4
  0
CIRCLE
  8
1
 62
7
 10
-380.0159500225368
 20
32.99999999999999
 30
0
 40
3.199999999999875
  0
CIRCLE
  8
1
 62
3
 10
-380.0159500225368
 20
32.99999999999999
 30
0
 40
4
  0
CIRCLE
  8
1
 62
7
 10
-380.0159500225368
 20
0
 30
0
 40
25
  0
CIRCLE
  8
1
 62
7
 10
-380.0159500225368
 20
0
 30
0
 40
56.49999999999989
  0
CIRCLE
  8
1
 62
7
 10
-158.2781823981358
 20
-19.94323201169912
 30
0
 40
2.75
  0
CIRCLE
  8
1
 62
7
 10
-139.2781823981358
 20
-29.94323201169912
 30
0
 40
2.75
  0
CIRCLE
  8
1
 62
7
 10
-149.2781823981358
 20
-29.94323201169912
 30
0
 40
2.75
  0
CIRCLE
  8
1
 62
7
 10
-110.2781823981358
 20
-19.94323201169912
 30
0
 40
2.75
  0
CIRCLE
  8
1
 62
7
 10
-129.2781823981358
 20
-29.94323201169912
 30
0
 40
2.750000000000014
  0
CIRCLE
  8
1
 62
7
 10
-119.2781823981358
 20
-29.94323201169912
 30
0
 40
2.75
  0
TEXT
  8
1
 62
7
 10
-405.2159500225368
 20
204.269921961532
 30
0
 40
7
  1
DC2403
 41
0.9
  7
SIMPLEX
  0
TEXT
  8
1
 62
7
 10
-405.2159500225368
 20
214.769921961532
 30
0
 40
7
  1
TMAP 2.5
 41
0.9
  7
SIMPLEX
  0
TEXT
  8
1
 62
7
 10
-147.4281823981358
 20
-22.44323201169912
 30
0
 40
3.5
  1
CL
 41
0.8910000000000004
  7
SIMPLEX
  0
TEXT
  8
1
 62
7
 10
-127.4281823981358
 20
-22.44323201169912
 30
0
 40
3.5
  1
BR
 41
0.8910000000000004
  7
SIMPLEX
  0
ENDSEC
  0
EOF
