  0
SECTION
  2
HEADER
  9
$ACADVER
  1
AC1009
  9
$INSBASE
 10
0
 20
0
  9
$EXTMIN
 10
-567.652886468138
 20
-93
  9
$EXTMAX
 10
2.585962452725082
 20
332.5
  9
$LIMMIN
 10
-567.652886468138
 20
-93
  9
$LIMMAX
 10
2.585962452725082
 20
332.5
  9
$VIEWCTR
 10
10
 20
10
  9
$VIEWSIZE
 40
10
  9
$SNAPMODE
 70
0
  9
$SNAPUNIT
 10
1
 20
1
  9
$SNAPBASE
 10
0
 20
0
  9
$SNAPANG
 50
0
  9
$SNAPSTYLE
 70
0
  9
$SNAPISOPAIR
 70
0
  9
$GRIDMODE
 70
0
  9
$GRIDUNIT
 10
0
 20
0
  9
$ORTHOMODE
 70
0
  9
$REGENMODE
 70
1
  9
$FILLMODE
 70
1
  9
$QTEXTMODE
 70
0
  9
$DRAGMODE
 70
2
  9
$LTSCALE
 40
1
  9
$OSMODE
 70
0
  9
$ATTMODE
 70
1
  9
$TEXTSIZE
 40
3.5
  9
$TRACEWID
 40
0.5
  9
$TEXTSTYLE
  7
STANDARD
  9
$CLAYER
  8
0
  9
$CELTYPE
  6
BYLAYER
  9
$CECOLOR
 62
256
  9
$DIMSCALE
 40
1
  9
$DIMASZ
 40
0.18
  9
$DIMEXO
 40
0.0625
  9
$DIMDLI
 40
0.38
  9
$DIMRND
 40
0
  9
$DIMDLE
 40
0
  9
$DIMEXE
 40
0.18
  9
$DIMTP
 40
0
  9
$DIMTM
 40
0
  9
$DIMTXT
 40
0.18
  9
$DIMCEN
 40
0.09
  9
$DIMTSZ
 40
0
  9
$DIMTOL
 70
0
  9
$DIMLIM
 70
0
  9
$DIMTIH
 70
1
  9
$DIMTOH
 70
1
  9
$DIMSE1
 70
0
  9
$DIMSE2
 70
0
  9
$DIMTAD
 70
0
  9
$DIMZIN
 70
0
  9
$DIMBLK
  1

  9
$DIMASO
 70
1
  9
$DIMSHO
 70
1
  9
$DIMPOST
  1

  9
$DIMAPOST
  1

  9
$DIMALT
 70
0
  9
$DIMALTD
 70
2
  9
$DIMALTF
 40
25.4
  9
$DIMLFAC
 40
1
  9
$DIMTOFL
 70
0
  9
$DIMTVP
 40
0
  9
$DIMTIX
 70
0
  9
$DIMSOXD
 70
0
  9
$DIMSAH
 70
0
  9
$DIMBLK1
  1

  9
$DIMBLK2
  1

  9
$DIMSTYLE
  2
*UNNAMED
  9
$DIMCLRD
 70
0
  9
$DIMCLRE
 70
0
  9
$DIMCLRT
 70
0
  9
$DIMTFAC
 40
1
  9
$DIMGAP
 40
0.09
  9
$LUNITS
 70
2
  9
$LUPREC
 70
4
  9
$AXISMODE
 70
0
  9
$AXISUNIT
 10
0
 20
0
  9
$SKETCHINC
 40
0.1
  9
$FILLETRAD
 40
2
  9
$AUNITS
 70
0
  9
$AUPREC
 70
0
  9
$MENU
  1
ACAD
  9
$ELEVATION
 40
0
  9
$THICKNESS
 40
0
  9
$VIEWDIR
 10
0
 20
0
 30
1
  9
$LIMCHECK
 70
0
  9
$BLIPMODE
 70
1
  9
$CHAMFERA
 40
0
  9
$CHAMFERB
 40
0
  9
$FASTZOOM
 70
1
  9
$SKPOLY
 70
0
  9
$ANGBASE
 50
0
  9
$ANGDIR
 70
0
  9
$PDMODE
 70
0
  9
$PDSIZE
 40
0
  9
$PLINEWID
 40
0
  9
$COORDS
 70
2
  0
ENDSEC
  0
SECTION
  2
TABLES
  0
TABLE
  2
DIMSTYLE
 70
0
  0
ENDTAB
  0
TABLE
  2
LTYPE
 70
9
  0
LTYPE
  2
CONTINUOUS
 70
64
  3
Solid line
 72
65
 73
0
 40
0
  0
LTYPE
  2
BORDER
 70
64
  3
__ __ . __ __ .
 72
65
 73
6
 40
26.26099962135554
 49
7.503142748958726
 49
-3.751571374479363
 49
7.503142748958726
 49
-3.751571374479363
 49
0
 49
-3.751571374479363
  0
LTYPE
  2
CENTER
 70
64
  3
____ _ ____ _
 72
65
 73
4
 40
30.0125709958349
 49
18.75785687239682
 49
-3.751571374479363
 49
3.751571374479363
 49
-3.751571374479363
  0
LTYPE
  2
DASHDOT
 70
64
  3
__ . __ . __ .
 72
65
 73
4
 40
15.00628549791745
 49
7.503142748958726
 49
-3.751571374479363
 49
0
 49
-3.751571374479363
  0
LTYPE
  2
DASHED
 70
64
  3
__ __ __ __ __
 72
65
 73
2
 40
11.25471412343809
 49
7.503142748958726
 49
-3.751571374479363
  0
LTYPE
  2
DIVIDE
 70
64
  3
__ . . __ . . 
 72
65
 73
6
 40
18.75785687239682
 49
7.503142748958726
 49
-3.751571374479363
 49
0
 49
-3.751571374479363
 49
0
 49
-3.751571374479363
  0
LTYPE
  2
DOT
 70
64
  3
..............
 72
65
 73
4
 40
7.503142748958726
 49
0
 49
-3.751571374479363
 49
0
 49
-3.751571374479363
  0
LTYPE
  2
HIDDEN
 70
64
  3
_ _ _ _ _ _ _
 72
65
 73
2
 40
5.627357061719044
 49
3.751571374479363
 49
-1.875785687239681
  0
LTYPE
  2
PHANTOM
 70
64
  3
_____ _ _ _____ _ _ 
 72
65
 73
6
 40
37.51571374479363
 49
18.75785687239682
 49
-3.751571374479363
 49
3.751571374479363
 49
-3.751571374479363
 49
3.751571374479363
 49
-3.751571374479363
  0
ENDTAB
  0
TABLE
  2
LAYER
 70
3
  0
LAYER
  2
1
 70
0
 62
7
  6
CONTINUOUS
  0
LAYER
  2
0
 70
0
 62
7
  6
CONTINUOUS
  0
ENDTAB
  0
TABLE
  2
STYLE
 70
4
  0
STYLE
  2
STANDARD
 70
0
 40
0
 41
1
 50
0
 71
0
 42
3.5
  3
txt
  4

  0
STYLE
  2
SIMPLEX
 70
0
 40
0
 41
1
 50
0
 71
0
 42
3.5
  3
simplex
  4

  0
STYLE
  2
COMPLEX
 70
0
 40
0
 41
1
 50
0
 71
0
 42
3.5
  3
complex
  4

  0
STYLE
  2
ITALIC
 70
0
 40
0
 41
1
 50
0
 71
0
 42
3.5
  3
italic
  4

  0
ENDTAB
  0
TABLE
  2
VIEW
 70
0
  0
ENDTAB
  0
ENDSEC
  0
SECTION
  2
BLOCKS
  0
ENDSEC
  0
SECTION
  2
ENTITIES
  0
LINE
  8
1
 62
7
 10
-296.9140375472748
 20
-29.99999999999997
 30
0
 11
-278.9140375472748
 21
-29.99999999999997
 31
0
  0
LINE
  8
1
 62
7
 10
-296.9140375472748
 20
29.99999999999996
 30
0
 11
-296.9140375472748
 21
-29.99999999999997
 31
0
  0
LINE
  8
1
 62
7
 10
-278.9140375472748
 20
29.99999999999996
 30
0
 11
-296.9140375472748
 21
29.99999999999996
 31
0
  0
LINE
  8
1
 62
7
 10
-262.4140375472748
 20
-58.50000000000001
 30
0
 11
-262.4140375472748
 21
58.5
 31
0
  0
LINE
  8
1
 62
7
 10
-278.9140375472748
 20
-58.50000000000001
 30
0
 11
-262.4140375472748
 21
-58.50000000000001
 31
0
  0
LINE
  8
1
 62
7
 10
-278.9140375472748
 20
58.5
 30
0
 11
-278.9140375472748
 21
-58.50000000000001
 31
0
  0
LINE
  8
1
 62
7
 10
-262.4140375472748
 20
58.5
 30
0
 11
-278.9140375472748
 21
58.5
 31
0
  0
LINE
  8
1
 62
7
 10
-132.8140375472748
 20
-83
 30
0
 11
-194.8140375472748
 21
-83
 31
0
  0
LINE
  8
1
 62
7
 10
-198.8140375472748
 20
-87
 30
0
 11
-198.8140375472748
 21
-90
 31
0
  0
LINE
  8
1
 62
7
 10
-198.8140375472748
 20
-90
 30
0
 11
-246.3140375472748
 21
-90
 31
0
  0
LINE
  8
1
 62
7
 10
-246.3140375472748
 20
-90
 30
0
 11
-246.3140375472748
 21
-79
 31
0
  0
LINE
  8
1
 62
7
 10
-242.3140375472748
 20
-75
 30
0
 11
-85.31403754727496
 21
-75
 31
0
  0
LINE
  8
1
 62
3
  6
DASHDOT
 10
-231.3140375472748
 20
-72
 30
0
 11
-231.3140375472748
 21
-93
 31
0
  0
LINE
  8
1
 62
7
 10
-111.8140375472748
 20
65.25
 30
0
 11
-215.8140375472748
 21
65.25
 31
0
  0
LINE
  8
1
 62
7
 10
-216.8140375472748
 20
64.25
 30
0
 11
-216.8140375472748
 21
-72
 31
0
  0
LINE
  8
1
 62
7
 10
-217.8140375472748
 20
62.5
 30
0
 11
-221.9140375472747
 21
62.5
 31
0
  0
LINE
  8
1
 62
7
 10
-217.8140375472748
 20
-62.5
 30
0
 11
-221.9140375472747
 21
-62.5
 31
0
  0
LINE
  8
1
 62
7
 10
-110.8140375472748
 20
-72
 30
0
 11
-110.8140375472748
 21
64.25
 31
0
  0
LINE
  8
1
 62
7
 10
-105.914037547275
 20
62.5000000000001
 30
0
 11
-109.8140375472748
 21
62.5
 31
0
  0
LINE
  8
1
 62
7
 10
-105.914037547275
 20
-62.5
 30
0
 11
-109.8140375472748
 21
-62.5
 31
0
  0
LINE
  8
1
 62
7
 10
-81.31403754727496
 20
-79
 30
0
 11
-81.31403754727496
 21
-90
 31
0
  0
LINE
  8
1
 62
7
 10
-81.31403754727496
 20
-90
 30
0
 11
-128.8140375472748
 21
-90
 31
0
  0
LINE
  8
1
 62
7
 10
-128.8140375472748
 20
-90
 30
0
 11
-128.8140375472748
 21
-87
 31
0
  0
LINE
  8
1
 62
7
 10
-81.31403754727496
 20
-90
 30
0
 11
-128.8140375472748
 21
-90
 31
0
  0
LINE
  8
1
 62
3
  6
DASHDOT
 10
-96.31403754727496
 20
-93
 30
0
 11
-96.31403754727496
 21
-72
 31
0
  0
LINE
  8
1
 62
7
 10
-258.414037547275
 20
47.5
 30
0
 11
-258.414037547275
 21
-66.53672573724259
 31
0
  0
LINE
  8
1
 62
7
 10
-250.5140375472749
 20
67.5
 30
0
 11
-250.5140375472749
 21
-67.49999999999989
 31
0
  0
LINE
  8
1
 62
7
 10
-248.4933116051113
 20
-70.99999999999989
 30
0
 11
-248.4933116051113
 21
71
 31
0
  0
LINE
  8
1
 62
7
 10
-252.5140375472749
 20
-67.49999999999989
 30
0
 11
-252.5140375472749
 21
67.5
 31
0
  0
LINE
  8
1
 62
7
 10
-236.5140375472749
 20
-67.35000000000002
 30
0
 11
-234.914037547275
 21
-67.35000000000002
 31
0
  0
LINE
  8
1
 62
7
 10
-236.5140375472749
 20
67.34999999999999
 30
0
 11
-234.914037547275
 21
67.34999999999999
 31
0
  0
LINE
  8
1
 62
7
 10
-236.5140375472749
 20
-70.99999999999989
 30
0
 11
-236.5140375472749
 21
71
 31
0
  0
LINE
  8
1
 62
3
  6
DASHDOT
 10
-312.4140375472748
 20
0
 30
0
 11
-307.4140375472748
 21
0
 31
0
  0
LINE
  8
1
 62
7
 10
-234.914037547275
 20
67.5
 30
0
 11
-234.914037547275
 21
67.34999999999999
 31
0
  0
LINE
  8
1
 62
7
 10
-228.914037547275
 20
67.5
 30
0
 11
-234.914037547275
 21
67.5
 31
0
  0
LINE
  8
1
 62
7
 10
-259.414037547275
 20
-66.53672573724259
 30
0
 11
-259.414037547275
 21
47.63165249758737
 31
0
  0
LINE
  8
1
 62
7
 10
-262.414037547275
 20
-54
 30
0
 11
-259.414037547275
 21
-54
 31
0
  0
LINE
  8
1
 62
7
 10
-262.414037547275
 20
-41
 30
0
 11
-259.414037547275
 21
-41
 31
0
  0
LINE
  8
1
 62
7
 10
-257.6140375472749
 20
68
 30
0
 11
-257.6140375472749
 21
-68
 31
0
  0
LINE
  8
1
 62
7
 10
-259.414037547275
 20
-66.53672573724259
 30
0
 11
-258.414037547275
 21
-66.53672573724259
 31
0
  0
LINE
  8
1
 62
7
 10
-258.6140375472749
 20
50.61729314364243
 30
0
 11
-258.6140375472749
 21
66.5
 31
0
  0
LINE
  8
1
 62
7
 10
-261.414037547275
 20
56
 30
0
 11
-260.914037547275
 21
55.5
 31
0
  0
LINE
  8
1
 62
7
 10
-261.414037547275
 20
65
 30
0
 11
-260.914037547275
 21
65.5
 31
0
  0
LINE
  8
1
 62
7
 10
-259.3140375472748
 20
55.5
 30
0
 11
-259.3140375472748
 21
65.5
 31
0
  0
LINE
  8
1
 62
7
 10
-258.6140375472749
 20
66.5
 30
0
 11
-257.6140375472749
 21
66.5
 31
0
  0
LINE
  8
1
 62
7
 10
-260.914037547275
 20
65.5
 30
0
 11
-258.6140375472749
 21
65.5
 31
0
  0
LINE
  8
1
 62
7
 10
-260.914037547275
 20
55.5
 30
0
 11
-258.6140375472749
 21
55.5
 31
0
  0
LINE
  8
1
 62
7
 10
-261.414037547275
 20
56
 30
0
 11
-261.414037547275
 21
65
 31
0
  0
LINE
  8
1
 62
7
 10
-252.7140375472749
 20
-68
 30
0
 11
-257.6140375472749
 21
-68
 31
0
  0
LINE
  8
1
 62
7
 10
-257.6140375472749
 20
68
 30
0
 11
-252.7140375472749
 21
68
 31
0
  0
LINE
  8
1
 62
7
 10
-252.7140375472749
 20
-68
 30
0
 11
-252.7140375472749
 21
68
 31
0
  0
LINE
  8
1
 62
7
 10
-221.9140375472747
 20
-62.5
 30
0
 11
-221.9140375472747
 21
62.5
 31
0
  0
LINE
  8
1
 62
7
 10
-234.914037547275
 20
-67.35000000000002
 30
0
 11
-234.914037547275
 21
-67.5
 31
0
  0
LINE
  8
1
 62
7
 10
-234.914037547275
 20
-67.5
 30
0
 11
-228.914037547275
 21
-67.5
 31
0
  0
LINE
  8
1
 62
7
 10
-250.5140375472749
 20
67.5
 30
0
 11
-248.4933116051113
 21
71
 31
0
  0
LINE
  8
1
 62
7
 10
-252.5140375472749
 20
67.5
 30
0
 11
-250.5140375472749
 21
67.5
 31
0
  0
LINE
  8
1
 62
7
 10
-248.4933116051113
 20
71
 30
0
 11
-236.5140375472749
 21
71
 31
0
  0
LINE
  8
1
 62
7
 10
-236.5140375472749
 20
-70.99999999999989
 30
0
 11
-248.4933116051113
 21
-70.99999999999989
 31
0
  0
LINE
  8
1
 62
7
 10
-250.5140375472749
 20
-67.49999999999989
 30
0
 11
-252.5140375472749
 21
-67.49999999999989
 31
0
  0
LINE
  8
1
 62
7
 10
-248.4933116051113
 20
-70.99999999999989
 30
0
 11
-250.5140375472749
 21
-67.49999999999989
 31
0
  0
LINE
  8
1
 62
7
 10
-259.414037547275
 20
47.63165249758737
 30
0
 11
-258.6140375472749
 21
50.61729314364243
 31
0
  0
LINE
  8
1
 62
7
 10
-258.414037547275
 20
47.5
 30
0
 11
-257.6140375472749
 21
50.48564064605506
 31
0
  0
LINE
  8
1
 62
7
 10
-219.3140375472748
 20
62.5
 30
0
 11
-219.3140375472748
 21
-62.5
 31
0
  0
LINE
  8
1
 62
7
 10
-82.61403754727475
 20
67.75
 30
0
 11
-82.61403754727475
 21
-67.75
 31
0
  0
LINE
  8
1
 62
7
 10
-82.61403754727475
 20
67.75
 30
0
 11
-77.91403754727499
 21
67.75
 31
0
  0
LINE
  8
1
 62
7
 10
-77.914037547275
 20
-67.75
 30
0
 11
-82.61403754727475
 21
-67.75
 31
0
  0
LINE
  8
1
 62
7
 10
-83.11403754727475
 20
67.5
 30
0
 11
-100.0140375472749
 21
67.5
 31
0
  0
LINE
  8
1
 62
7
 10
-100.0140375472749
 20
-67.5
 30
0
 11
-83.11403754727475
 21
-67.5
 31
0
  0
LINE
  8
1
 62
7
 10
-105.914037547275
 20
64.2669616403675
 30
0
 11
-105.914037547275
 21
-64.26696164036741
 31
0
  0
LINE
  8
1
 62
7
 10
-83.11403754727475
 20
67.5
 30
0
 11
-83.11403754727475
 21
-67.5
 31
0
  0
LINE
  8
1
 62
7
 10
-108.3140375472748
 20
62.5
 30
0
 11
-108.3140375472748
 21
-62.5
 31
0
  0
LINE
  8
1
 62
7
 10
-307.4140375472748
 20
-12.5
 30
0
 11
-307.4140375472748
 21
12.49999999999999
 31
0
  0
LINE
  8
1
 62
7
 10
-307.4140375472748
 20
12.49999999999999
 30
0
 11
-305.4140375472748
 21
12.49999999999999
 31
0
  0
LINE
  8
1
 62
7
 10
-299.7234386240333
 20
21
 30
0
 11
-296.9140375472748
 21
16.13397459621559
 31
0
  0
LINE
  8
1
 62
7
 10
-299.7234386240333
 20
21
 30
0
 11
-300.4181485692379
 21
21
 31
0
  0
LINE
  8
1
 62
7
 10
-300.4181485692379
 20
21
 30
0
 11
-300.4181485692379
 21
-21.00000000000001
 31
0
  0
LINE
  8
1
 62
7
 10
-305.4140375472748
 20
19
 30
0
 11
-300.4181485692379
 21
19
 31
0
  0
LINE
  8
1
 62
7
 10
-305.4140375472748
 20
-19.00000000000001
 30
0
 11
-305.4140375472748
 21
19
 31
0
  0
LINE
  8
1
 62
3
 10
-307.4140375472748
 20
11.49999999999999
 30
0
 11
-305.4140375472748
 21
11.49999999999999
 31
0
  0
LINE
  8
1
 62
7
 10
-305.4140375472748
 20
-12.5
 30
0
 11
-307.4140375472748
 21
-12.5
 31
0
  0
LINE
  8
1
 62
7
 10
-299.7234386240333
 20
-21.00000000000001
 30
0
 11
-296.9140375472748
 21
-16.13397459621561
 31
0
  0
LINE
  8
1
 62
7
 10
-300.4181485692379
 20
-21.00000000000001
 30
0
 11
-299.7234386240333
 21
-21.00000000000001
 31
0
  0
LINE
  8
1
 62
7
 10
-300.4181485692379
 20
-19.00000000000001
 30
0
 11
-305.4140375472748
 21
-19.00000000000001
 31
0
  0
LINE
  8
1
 62
3
 10
-305.4140375472748
 20
-11.5
 30
0
 11
-307.4140375472748
 21
-11.5
 31
0
  0
LINE
  8
1
 62
7
 10
-52.41403754727487
 20
-12.50000000000001
 30
0
 11
-2.414037547274924
 21
-12.50000000000001
 31
0
  0
LINE
  8
1
 62
7
 10
-2.414037547274924
 20
-12.50000000000001
 30
0
 11
-2.414037547274924
 21
15.5
 31
0
  0
LINE
  8
1
 62
7
 10
-2.414037547274924
 20
12.5
 30
0
 11
-52.41403754727487
 21
12.5
 31
0
  0
LINE
  8
1
 62
7
 10
-2.414037547274924
 20
15.5
 30
0
 11
-47.41403754727487
 21
15.5
 31
0
  0
LINE
  8
1
 62
7
 10
-47.41403754727487
 20
15.5
 30
0
 11
-47.41403754727487
 21
12.49999999999999
 31
0
  0
LINE
  8
1
 62
7
 10
-144.8140375472749
 20
-47.73748411339041
 30
0
 11
-144.8140375472749
 21
-38.73748411339041
 31
0
  0
LINE
  8
1
 62
7
 10
-144.8140375472749
 20
-38.73748411339041
 30
0
 11
-152.8140375472749
 21
-38.73748411339041
 31
0
  0
LINE
  8
1
 62
7
 10
-152.8140375472749
 20
-38.73748411339041
 30
0
 11
-152.8140375472749
 21
-47.73748411339041
 31
0
  0
LINE
  8
1
 62
7
 10
-162.8140375472749
 20
-47.73748411339041
 30
0
 11
-162.8140375472749
 21
-38.73748411339041
 31
0
  0
LINE
  8
1
 62
7
 10
-162.8140375472749
 20
-38.73748411339041
 30
0
 11
-154.8140375472749
 21
-38.73748411339041
 31
0
  0
LINE
  8
1
 62
7
 10
-154.8140375472749
 20
-38.73748411339041
 30
0
 11
-154.8140375472749
 21
-47.73748411339041
 31
0
  0
LINE
  8
1
 62
7
 10
-150.2370899444129
 20
-43.78930545040539
 30
0
 11
-149.8658588842897
 21
-44.1605365105283
 31
0
  0
LINE
  8
1
 62
7
 10
-147.7622162102598
 20
-44.1605365105283
 30
0
 11
-147.3909851501369
 21
-43.78930545040539
 31
0
  0
LINE
  8
1
 62
7
 10
-147.3909851501369
 20
-41.68566277637542
 30
0
 11
-147.7622162102598
 21
-41.31443171625251
 31
0
  0
LINE
  8
1
 62
7
 10
-149.8658588842897
 20
-41.31443171625251
 30
0
 11
-150.2370899444129
 21
-41.68566277637542
 31
0
  0
LINE
  8
1
 62
7
 10
-160.2370899444129
 20
-43.78930545040539
 30
0
 11
-159.8658588842899
 21
-44.1605365105283
 31
0
  0
LINE
  8
1
 62
7
 10
-157.7622162102598
 20
-44.1605365105283
 30
0
 11
-157.3909851501369
 21
-43.78930545040539
 31
0
  0
LINE
  8
1
 62
7
 10
-157.3909851501369
 20
-41.68566277637542
 30
0
 11
-157.7622162102598
 21
-41.31443171625251
 31
0
  0
LINE
  8
1
 62
7
 10
-159.8658588842899
 20
-41.31443171625251
 30
0
 11
-160.2370899444129
 21
-41.68566277637542
 31
0
  0
LINE
  8
1
 62
7
 10
-141.5640375472749
 20
-32.47498411339042
 30
0
 11
-141.5640375472749
 21
-32.9999841133904
 31
0
  0
LINE
  8
1
 62
7
 10
-140.0765375472749
 20
-34.48748411339041
 30
0
 11
-139.5515375472748
 21
-34.48748411339041
 31
0
  0
LINE
  8
1
 62
7
 10
-138.0640375472749
 20
-32.9999841133904
 30
0
 11
-138.0640375472749
 21
-32.47498411339042
 31
0
  0
LINE
  8
1
 62
7
 10
-139.5515375472748
 20
-30.98748411339041
 30
0
 11
-140.0765375472749
 21
-30.98748411339041
 31
0
  0
LINE
  8
1
 62
7
 10
-191.8140375472748
 20
-27.73748411339041
 30
0
 11
-135.8140375472749
 21
-27.73748411339041
 31
0
  0
LINE
  8
1
 62
7
 10
-135.8140375472749
 20
-27.73748411339041
 30
0
 11
-135.8140375472749
 21
-47.73748411339041
 31
0
  0
LINE
  8
1
 62
7
 10
-135.8140375472749
 20
-47.73748411339041
 30
0
 11
-191.8140375472748
 21
-47.73748411339041
 31
0
  0
LINE
  8
1
 62
7
 10
-182.8140375472749
 20
-38.73748411339041
 30
0
 11
-182.8140375472749
 21
-47.73748411339041
 31
0
  0
LINE
  8
1
 62
7
 10
-174.8140375472749
 20
-38.73748411339041
 30
0
 11
-182.8140375472749
 21
-38.73748411339041
 31
0
  0
LINE
  8
1
 62
7
 10
-174.8140375472749
 20
-47.73748411339041
 30
0
 11
-174.8140375472749
 21
-38.73748411339041
 31
0
  0
LINE
  8
1
 62
7
 10
-164.8140375472749
 20
-38.73748411339041
 30
0
 11
-164.8140375472749
 21
-47.73748411339041
 31
0
  0
LINE
  8
1
 62
7
 10
-172.8140375472749
 20
-38.73748411339041
 30
0
 11
-164.8140375472749
 21
-38.73748411339041
 31
0
  0
LINE
  8
1
 62
7
 10
-172.8140375472749
 20
-47.73748411339041
 30
0
 11
-172.8140375472749
 21
-38.73748411339041
 31
0
  0
LINE
  8
1
 62
7
 10
-177.7622162102598
 20
-44.1605365105283
 30
0
 11
-177.390985150137
 21
-43.78930545040539
 31
0
  0
LINE
  8
1
 62
7
 10
-180.2370899444129
 20
-43.78930545040539
 30
0
 11
-179.8658588842899
 21
-44.1605365105283
 31
0
  0
LINE
  8
1
 62
7
 10
-179.8658588842899
 20
-41.31443171625251
 30
0
 11
-180.2370899444129
 21
-41.68566277637542
 31
0
  0
LINE
  8
1
 62
7
 10
-177.390985150137
 20
-41.68566277637542
 30
0
 11
-177.7622162102598
 21
-41.31443171625251
 31
0
  0
LINE
  8
1
 62
7
 10
-167.7622162102598
 20
-44.1605365105283
 30
0
 11
-167.390985150137
 21
-43.78930545040539
 31
0
  0
LINE
  8
1
 62
7
 10
-170.2370899444129
 20
-43.78930545040539
 30
0
 11
-169.8658588842899
 21
-44.1605365105283
 31
0
  0
LINE
  8
1
 62
7
 10
-169.8658588842899
 20
-41.31443171625251
 30
0
 11
-170.2370899444129
 21
-41.68566277637542
 31
0
  0
LINE
  8
1
 62
7
 10
-167.390985150137
 20
-41.68566277637542
 30
0
 11
-167.7622162102598
 21
-41.31443171625251
 31
0
  0
LINE
  8
1
 62
7
 10
-186.0640375472749
 20
-32.9999841133904
 30
0
 11
-186.0640375472749
 21
-32.47498411339042
 31
0
  0
LINE
  8
1
 62
7
 10
-188.0765375472749
 20
-34.48748411339041
 30
0
 11
-187.5515375472748
 21
-34.48748411339041
 31
0
  0
LINE
  8
1
 62
7
 10
-189.5640375472749
 20
-32.47498411339042
 30
0
 11
-189.5640375472749
 21
-32.9999841133904
 31
0
  0
LINE
  8
1
 62
7
 10
-187.5515375472748
 20
-30.98748411339041
 30
0
 11
-188.0765375472749
 21
-30.98748411339041
 31
0
  0
LINE
  8
1
 62
7
 10
-191.8140375472748
 20
-47.73748411339041
 30
0
 11
-191.8140375472748
 21
-27.73748411339041
 31
0
  0
LINE
  8
1
 62
7
 10
-164.8140375472748
 20
-9.965815078274758
 30
0
 11
-170.8140375472749
 21
-9.965815078274758
 31
0
  0
LINE
  8
1
 62
7
 10
-164.8140375472748
 20
-7.965815078274758
 30
0
 11
-170.8140375472749
 21
-7.965815078274758
 31
0
  0
LINE
  8
1
 62
7
 10
-177.8140375472748
 20
-16.96581507827477
 30
0
 11
-177.8140375472749
 21
-27.73748411339041
 31
0
  0
LINE
  8
1
 62
7
 10
-179.8140375472748
 20
-16.96581507827477
 30
0
 11
-179.8140375472749
 21
-27.73748411339041
 31
0
  0
LINE
  8
1
 62
7
 10
-159.8140375472748
 20
-14.96581507827476
 30
0
 11
-159.8140375472748
 21
-27.73748411339041
 31
0
  0
LINE
  8
1
 62
7
 10
-157.8140375472748
 20
-14.86581507827476
 30
0
 11
-157.8140375472748
 21
-27.73748411339041
 31
0
  0
LINE
  8
1
 62
7
 10
-156.8140375472748
 20
-9.965815078274758
 30
0
 11
-162.8140375472748
 21
-9.965815078274758
 31
0
  0
LINE
  8
1
 62
7
 10
-156.8140375472748
 20
-7.965815078274758
 30
0
 11
-162.8140375472748
 21
-7.965815078274758
 31
0
  0
LINE
  8
1
 62
7
 10
-169.8140375472749
 20
-27.73748411339041
 30
0
 11
-169.8140375472749
 21
-14.86581507827476
 31
0
  0
LINE
  8
1
 62
7
 10
-167.8140375472749
 20
-27.73748411339041
 30
0
 11
-167.8140375472749
 21
-14.96581507827476
 31
0
  0
LINE
  8
1
 62
7
 10
-149.8140375472748
 20
-27.73748411339041
 30
0
 11
-149.8140375472749
 21
-16.96581507827477
 31
0
  0
LINE
  8
1
 62
7
 10
-147.8140375472748
 20
-27.73748411339041
 30
0
 11
-147.8140375472746
 21
-16.96581507827477
 31
0
  0
LINE
  8
1
 62
3
  6
DASHDOT
 10
-30.12343862403343
 20
3.025928955774395e-015
 30
0
 11
2.585962452725082
 21
0
 31
0
  0
LINE
  8
1
 62
7
 10
-54.61403754727485
 20
14
 30
0
 11
-52.41403754727487
 21
13.99999999999999
 31
0
  0
LINE
  8
1
 62
7
 10
-52.41403754727487
 20
13.99999999999999
 30
0
 11
-52.41403754727487
 21
-14
 31
0
  0
LINE
  8
1
 62
7
 10
-52.41403754727487
 20
-14
 30
0
 11
-54.61403754727485
 21
-14
 31
0
  0
LINE
  8
1
 62
7
 10
-56.31403754727484
 20
17.5
 30
0
 11
-54.61403754727485
 21
17.5
 31
0
  0
LINE
  8
1
 62
7
 10
-54.61403754727485
 20
17.5
 30
0
 11
-54.61403754727485
 21
-17.5
 31
0
  0
LINE
  8
1
 62
7
 10
-54.61403754727485
 20
-17.5
 30
0
 11
-56.31403754727484
 21
-17.5
 31
0
  0
LINE
  8
1
 62
7
 10
-77.11403754727469
 20
47.5
 30
0
 11
-77.91403754727476
 21
47.5
 31
0
  0
LINE
  8
1
 62
7
 10
-74.51403754727478
 20
42.99999999999994
 30
0
 11
-63.0140375472749
 21
43
 31
0
  0
LINE
  8
1
 62
7
 10
-62.0140375472749
 20
42
 30
0
 11
-62.0140375472749
 21
-62
 31
0
  0
LINE
  8
1
 62
7
 10
-56.31403754727484
 20
28
 30
0
 11
-56.31403754727484
 21
-27.5
 31
0
  0
LINE
  8
1
 62
7
 10
-61.51403754727477
 20
28.5
 30
0
 11
-56.81403754727484
 21
28.5
 31
0
  0
LINE
  8
1
 62
7
 10
-77.914037547275
 20
-67.75
 30
0
 11
-77.91403754727499
 21
67.75
 31
0
  0
LINE
  8
1
 62
7
 10
-76.11403754727469
 20
47.63165249758737
 30
0
 11
-76.11403754727469
 21
-66.53672573724259
 31
0
  0
LINE
  8
1
 62
7
 10
-77.11403754727469
 20
47.5
 30
0
 11
-77.11403754727469
 21
-66.53672573724259
 31
0
  0
LINE
  8
1
 62
7
 10
-77.11403754727469
 20
-66.53672573724259
 30
0
 11
-76.11403754727469
 21
-66.53672573724259
 31
0
  0
LINE
  8
1
 62
7
 10
-76.91403754727499
 20
50.61729314364243
 30
0
 11
-76.11403754727469
 21
47.63165249758737
 31
0
  0
LINE
  8
1
 62
7
 10
-77.91403754727476
 20
50.48564064605506
 30
0
 11
-77.11403754727469
 21
47.5
 31
0
  0
LINE
  8
1
 62
7
 10
-76.91403754727499
 20
66.5
 30
0
 11
-76.91403754727499
 21
50.61729314364243
 31
0
  0
LINE
  8
1
 62
7
 10
-74.61403754727469
 20
55.5
 30
0
 11
-74.11403754727469
 21
56
 31
0
  0
LINE
  8
1
 62
7
 10
-74.61403754727475
 20
65.5
 30
0
 11
-74.11403754727475
 21
65
 31
0
  0
LINE
  8
1
 62
7
 10
-76.21403754727488
 20
65.5
 30
0
 11
-76.21403754727466
 21
55.5
 31
0
  0
LINE
  8
1
 62
7
 10
-77.91403754727499
 20
66.5
 30
0
 11
-76.91403754727499
 21
66.5
 31
0
  0
LINE
  8
1
 62
7
 10
-76.91403754727476
 20
65.5
 30
0
 11
-74.61403754727475
 21
65.5
 31
0
  0
LINE
  8
1
 62
7
 10
-76.91403754727499
 20
55.5
 30
0
 11
-74.61403754727469
 21
55.5
 31
0
  0
LINE
  8
1
 62
7
 10
-74.11403754727475
 20
65
 30
0
 11
-74.11403754727469
 21
56
 31
0
  0
LINE
  8
1
 62
7
 10
-76.91403754727499
 20
50.61729314364243
 30
0
 11
-76.11403754727469
 21
47.63165249758737
 31
0
  0
LINE
  8
1
 62
7
 10
-75.01403754727478
 20
-59.00000000000006
 30
0
 11
-75.0140375472749
 21
-29.5
 31
0
  0
LINE
  8
1
 62
7
 10
-75.01403754727478
 20
-59.00000000000006
 30
0
 11
-75.0140375472749
 21
-29.5
 31
0
  0
LINE
  8
1
 62
7
 10
-72.01403754727478
 20
-60.00000000000006
 30
0
 11
-74.01403754727478
 21
-60.00000000000006
 31
0
  0
LINE
  8
1
 62
7
 10
-71.01403754727478
 20
-62.00000000000006
 30
0
 11
-71.01403754727478
 21
-61.00000000000006
 31
0
  0
LINE
  8
1
 62
7
 10
-63.01403754727477
 20
-63.00000000000006
 30
0
 11
-70.01403754727478
 21
-63.00000000000006
 31
0
  0
LINE
  8
1
 62
7
 10
-57.51403754727477
 20
-60.00000000000006
 30
0
 11
-61.01403754727477
 21
-60.00000000000006
 31
0
  0
LINE
  8
1
 62
7
 10
-56.51403754727477
 20
-36.00000000000006
 30
0
 11
-56.51403754727477
 21
-59.00000000000006
 31
0
  0
LINE
  8
1
 62
7
 10
-56.51403754727477
 20
-36.00000000000006
 30
0
 11
-56.51403754727477
 21
-59.00000000000006
 31
0
  0
LINE
  8
1
 62
7
 10
-56.51403754727477
 20
-36.00000000000006
 30
0
 11
-56.51403754727477
 21
-59.00000000000006
 31
0
  0
LINE
  8
1
 62
7
 10
-57.31403754727484
 20
-28.5
 30
0
 11
-61.0140375472749
 21
-28.5
 31
0
  0
LINE
  8
1
 62
7
 10
-61.01403754727477
 20
-35.00000000000006
 30
0
 11
-57.5140375472749
 21
-35
 31
0
  0
LINE
  8
1
 62
7
 10
-76.11403754727469
 20
-40.66260283441136
 30
0
 11
-75.01403754727478
 21
-40.66260283441136
 31
0
  0
LINE
  8
1
 62
7
 10
-76.11403754727469
 20
-54.3373971655887
 30
0
 11
-75.01403754727478
 21
-54.3373971655887
 31
0
  0
LINE
  8
1
 62
7
 10
-77.91403754727476
 20
-47.5
 30
0
 11
-77.11403754727469
 21
-47.5
 31
0
  0
LINE
  8
1
 62
7
 10
-76.0140375472749
 20
-28.5
 30
0
 11
-76.11403754727469
 21
-28.5
 31
0
  0
LINE
  8
1
 62
7
  6
DASHED
 10
-90.81403754727496
 20
-75
 30
0
 11
-90.81403754727496
 21
-90
 31
0
  0
LINE
  8
1
 62
7
  6
DASHED
 10
-101.814037547275
 20
-75
 30
0
 11
-101.814037547275
 21
-90
 31
0
  0
LINE
  8
1
 62
7
  6
DASHED
 10
-225.8140375472748
 20
-75
 30
0
 11
-225.8140375472748
 21
-90
 31
0
  0
LINE
  8
1
 62
7
  6
DASHED
 10
-236.8140375472748
 20
-90
 30
0
 11
-236.8140375472748
 21
-75
 31
0
  0
LINE
  8
1
 62
7
 10
-76.01403754727478
 20
28.5
 30
0
 11
-76.11403754727469
 21
28.5
 31
0
  0
LINE
  8
1
 62
7
 10
-75.01403754727478
 20
29.5
 30
0
 11
-75.01403754727478
 21
42.49999999999994
 31
0
  0
LINE
  8
1
 62
7
  6
DASHED
 10
-2.414037547274925
 20
-3.2
 30
0
 11
-24.81403754727492
 21
-3.199999999999998
 31
0
  0
LINE
  8
1
 62
7
  6
DASHED
 10
-24.81403754727492
 20
-3.199999999999998
 30
0
 11
-24.81403754727492
 21
3.200000000000003
 31
0
  0
LINE
  8
1
 62
7
  6
DASHED
 10
-24.81403754727492
 20
3.200000000000003
 30
0
 11
-2.414037547274924
 21
3.2
 31
0
  0
LINE
  8
1
 62
7
  6
DASHED
 10
-24.81403754727492
 20
-3.199999999999998
 30
0
 11
-27.12343862403343
 21
3.025928955774395e-015
 31
0
  0
LINE
  8
1
 62
7
  6
DASHED
 10
-27.12343862403343
 20
3.025928955774395e-015
 30
0
 11
-24.81403754727492
 21
3.200000000000003
 31
0
  0
LINE
  8
1
 62
3
  6
DASHED
 10
-2.414037547274925
 20
-4
 30
0
 11
-18.41403754727492
 21
-3.999999999999998
 31
0
  0
LINE
  8
1
 62
7
  6
DASHED
 10
-18.41403754727492
 20
-3.999999999999998
 30
0
 11
-18.41403754727492
 21
4.000000000000002
 31
0
  0
LINE
  8
1
 62
3
  6
DASHED
 10
-18.41403754727492
 20
4.000000000000002
 30
0
 11
-2.414037547274924
 21
4
 31
0
  0
LINE
  8
1
 62
3
  6
DASHED
 10
-18.41403754727492
 20
-3.999999999999998
 30
0
 11
-19.79967819333002
 21
-3.199999999999998
 31
0
  0
LINE
  8
1
 62
3
  6
DASHED
 10
-18.41403754727492
 20
4.000000000000002
 30
0
 11
-19.79967819333002
 21
3.200000000000002
 31
0
  0
LINE
  8
1
 62
3
  6
DASHED
 10
-278.9140375472748
 20
42
 30
0
 11
-262.4140375472748
 21
42
 31
0
  0
LINE
  8
1
 62
3
  6
DASHED
 10
-262.4140375472748
 20
34
 30
0
 11
-278.9140375472748
 21
34
 31
0
  0
LINE
  8
1
 62
7
  6
DASHED
 10
-278.9140375472748
 20
41.2
 30
0
 11
-262.4140375472748
 21
41.2
 31
0
  0
LINE
  8
1
 62
7
  6
DASHED
 10
-262.4140375472748
 20
34.8
 30
0
 11
-278.9140375472748
 21
34.8
 31
0
  0
LINE
  8
1
 62
3
  6
DASHDOT
 10
-281.9140375472748
 20
38
 30
0
 11
-259.4140375472748
 21
38
 31
0
  0
LINE
  8
1
 62
7
 10
-262.4140375472748
 20
191.5
 30
0
 11
-262.4140375472748
 21
308.5
 31
0
  0
LINE
  8
1
 62
7
 10
-262.4140375472748
 20
308.5
 30
0
 11
-278.9140375472748
 21
308.5
 31
0
  0
LINE
  8
1
 62
7
 10
-278.9140375472748
 20
191.5
 30
0
 11
-262.4140375472748
 21
191.5
 31
0
  0
LINE
  8
1
 62
7
 10
-296.9140375472748
 20
220
 30
0
 11
-278.9140375472748
 21
220
 31
0
  0
LINE
  8
1
 62
7
 10
-296.9140375472748
 20
279.9999999999999
 30
0
 11
-296.9140375472748
 21
220
 31
0
  0
LINE
  8
1
 62
7
 10
-278.9140375472748
 20
279.9999999999999
 30
0
 11
-296.9140375472748
 21
279.9999999999999
 31
0
  0
LINE
  8
1
 62
7
 10
-278.9140375472748
 20
308.5
 30
0
 11
-278.9140375472748
 21
191.5
 31
0
  0
LINE
  8
1
 62
7
 10
-299.7234386240333
 20
271
 30
0
 11
-296.9140375472748
 21
266.1339745962156
 31
0
  0
LINE
  8
1
 62
7
 10
-299.7234386240333
 20
271
 30
0
 11
-300.4181485692379
 21
271
 31
0
  0
LINE
  8
1
 62
7
 10
-300.4181485692379
 20
271
 30
0
 11
-300.4181485692379
 21
229
 31
0
  0
LINE
  8
1
 62
7
 10
-299.7234386240333
 20
229
 30
0
 11
-296.9140375472748
 21
233.8660254037843
 31
0
  0
LINE
  8
1
 62
7
 10
-300.4181485692379
 20
229
 30
0
 11
-299.7234386240333
 21
229
 31
0
  0
LINE
  8
1
 62
7
 10
-111.8140375472748
 20
315.25
 30
0
 11
-215.8140375472748
 21
315.25
 31
0
  0
LINE
  8
1
 62
7
 10
-216.8140375472748
 20
329.5
 30
0
 11
-216.8140375472748
 21
170.5
 31
0
  0
LINE
  8
1
 62
7
 10
-217.8140375472748
 20
312.5
 30
0
 11
-221.9140375472747
 21
312.5
 31
0
  0
LINE
  8
1
 62
7
 10
-217.8140375472748
 20
187.5
 30
0
 11
-221.9140375472747
 21
187.5
 31
0
  0
LINE
  8
1
 62
7
 10
-105.914037547275
 20
312.5000000000001
 30
0
 11
-109.8140375472748
 21
312.5
 31
0
  0
LINE
  8
1
 62
7
 10
-105.914037547275
 20
187.5
 30
0
 11
-109.8140375472748
 21
187.5
 31
0
  0
LINE
  8
1
 62
7
 10
-258.414037547275
 20
297.5
 30
0
 11
-258.414037547275
 21
183.4632742627574
 31
0
  0
LINE
  8
1
 62
7
 10
-250.5140375472749
 20
317.5
 30
0
 11
-250.5140375472749
 21
182.5000000000001
 31
0
  0
LINE
  8
1
 62
7
 10
-248.4933116051113
 20
179.0000000000001
 30
0
 11
-248.4933116051113
 21
321
 31
0
  0
LINE
  8
1
 62
7
 10
-252.5140375472749
 20
182.5000000000001
 30
0
 11
-252.5140375472749
 21
317.5
 31
0
  0
LINE
  8
1
 62
7
 10
-236.5140375472749
 20
182.65
 30
0
 11
-234.914037547275
 21
182.65
 31
0
  0
LINE
  8
1
 62
7
 10
-236.5140375472749
 20
179.0000000000001
 30
0
 11
-236.5140375472749
 21
321
 31
0
  0
LINE
  8
1
 62
3
  6
DASHDOT
 10
-312.4140375472748
 20
250
 30
0
 11
-307.4140375472748
 21
250
 31
0
  0
LINE
  8
1
 62
7
 10
-259.414037547275
 20
183.4632742627574
 30
0
 11
-259.414037547275
 21
297.6316524975873
 31
0
  0
LINE
  8
1
 62
7
 10
-262.414037547275
 20
196
 30
0
 11
-259.414037547275
 21
196
 31
0
  0
LINE
  8
1
 62
7
 10
-262.414037547275
 20
209
 30
0
 11
-259.414037547275
 21
209
 31
0
  0
LINE
  8
1
 62
7
 10
-257.6140375472749
 20
318
 30
0
 11
-257.6140375472749
 21
182
 31
0
  0
LINE
  8
1
 62
7
 10
-259.414037547275
 20
183.4632742627574
 30
0
 11
-258.414037547275
 21
183.4632742627574
 31
0
  0
LINE
  8
1
 62
7
 10
-258.6140375472749
 20
300.6172931436424
 30
0
 11
-258.6140375472749
 21
316.5
 31
0
  0
LINE
  8
1
 62
7
 10
-261.414037547275
 20
306
 30
0
 11
-260.914037547275
 21
305.5
 31
0
  0
LINE
  8
1
 62
7
 10
-261.414037547275
 20
315
 30
0
 11
-260.914037547275
 21
315.5
 31
0
  0
LINE
  8
1
 62
7
 10
-259.3140375472748
 20
305.5
 30
0
 11
-259.3140375472748
 21
315.5
 31
0
  0
LINE
  8
1
 62
7
 10
-258.6140375472749
 20
316.5
 30
0
 11
-257.6140375472749
 21
316.5
 31
0
  0
LINE
  8
1
 62
7
 10
-260.914037547275
 20
315.5
 30
0
 11
-258.6140375472749
 21
315.5
 31
0
  0
LINE
  8
1
 62
7
 10
-260.914037547275
 20
305.5
 30
0
 11
-258.6140375472749
 21
305.5
 31
0
  0
LINE
  8
1
 62
7
 10
-261.414037547275
 20
306
 30
0
 11
-261.414037547275
 21
315
 31
0
  0
LINE
  8
1
 62
7
 10
-252.7140375472749
 20
182
 30
0
 11
-257.6140375472749
 21
182
 31
0
  0
LINE
  8
1
 62
7
 10
-257.6140375472749
 20
318
 30
0
 11
-252.7140375472749
 21
318
 31
0
  0
LINE
  8
1
 62
7
 10
-252.7140375472749
 20
182
 30
0
 11
-252.7140375472749
 21
318
 31
0
  0
LINE
  8
1
 62
7
 10
-221.9140375472747
 20
187.5
 30
0
 11
-221.9140375472747
 21
312.5
 31
0
  0
LINE
  8
1
 62
7
 10
-234.914037547275
 20
182.65
 30
0
 11
-234.914037547275
 21
182.5
 31
0
  0
LINE
  8
1
 62
7
 10
-234.914037547275
 20
182.5
 30
0
 11
-228.914037547275
 21
182.5
 31
0
  0
LINE
  8
1
 62
7
 10
-250.5140375472749
 20
317.5
 30
0
 11
-248.4933116051113
 21
321
 31
0
  0
LINE
  8
1
 62
7
 10
-252.5140375472749
 20
317.5
 30
0
 11
-250.5140375472749
 21
317.5
 31
0
  0
LINE
  8
1
 62
7
 10
-248.4933116051113
 20
321
 30
0
 11
-236.5140375472749
 21
321
 31
0
  0
LINE
  8
1
 62
7
 10
-236.5140375472749
 20
179.0000000000001
 30
0
 11
-248.4933116051113
 21
179.0000000000001
 31
0
  0
LINE
  8
1
 62
7
 10
-250.5140375472749
 20
182.5000000000001
 30
0
 11
-252.5140375472749
 21
182.5000000000001
 31
0
  0
LINE
  8
1
 62
7
 10
-248.4933116051113
 20
179.0000000000001
 30
0
 11
-250.5140375472749
 21
182.5000000000001
 31
0
  0
LINE
  8
1
 62
7
 10
-259.414037547275
 20
297.6316524975873
 30
0
 11
-258.6140375472749
 21
300.6172931436424
 31
0
  0
LINE
  8
1
 62
7
 10
-258.414037547275
 20
297.5
 30
0
 11
-257.6140375472749
 21
300.485640646055
 31
0
  0
LINE
  8
1
 62
7
 10
-219.3140375472748
 20
312.5
 30
0
 11
-219.3140375472748
 21
187.5
 31
0
  0
LINE
  8
1
 62
7
 10
-82.61403754727475
 20
317.75
 30
0
 11
-82.61403754727473
 21
182.25
 31
0
  0
LINE
  8
1
 62
7
 10
-82.61403754727475
 20
317.75
 30
0
 11
-77.91403754727499
 21
317.75
 31
0
  0
LINE
  8
1
 62
7
 10
-77.91403754727499
 20
182.25
 30
0
 11
-82.61403754727473
 21
182.25
 31
0
  0
LINE
  8
1
 62
7
 10
-100.0140375472749
 20
182.5
 30
0
 11
-83.11403754727475
 21
182.5
 31
0
  0
LINE
  8
1
 62
7
 10
-105.914037547275
 20
314.2669616403675
 30
0
 11
-105.914037547275
 21
185.7330383596326
 31
0
  0
LINE
  8
1
 62
7
 10
-83.11403754727475
 20
317.5
 30
0
 11
-83.11403754727475
 21
182.5
 31
0
  0
LINE
  8
1
 62
7
 10
-108.3140375472748
 20
312.5
 30
0
 11
-108.3140375472748
 21
187.5
 31
0
  0
LINE
  8
1
 62
3
  6
DASHDOT
 10
2.585962452725076
 20
250
 30
0
 11
-2.414037547274924
 21
250
 31
0
  0
LINE
  8
1
 62
7
 10
-307.4140375472748
 20
237.5
 30
0
 11
-307.4140375472748
 21
262.5
 31
0
  0
LINE
  8
1
 62
7
 10
-307.4140375472748
 20
262.5
 30
0
 11
-305.4140375472748
 21
262.5
 31
0
  0
LINE
  8
1
 62
7
 10
-299.7234386240333
 20
271
 30
0
 11
-300.4181485692379
 21
271
 31
0
  0
LINE
  8
1
 62
7
 10
-305.4140375472748
 20
269
 30
0
 11
-300.4181485692379
 21
269
 31
0
  0
LINE
  8
1
 62
7
 10
-305.4140375472748
 20
231
 30
0
 11
-305.4140375472748
 21
269
 31
0
  0
LINE
  8
1
 62
3
 10
-307.4140375472748
 20
261.5
 30
0
 11
-305.4140375472748
 21
261.5
 31
0
  0
LINE
  8
1
 62
7
 10
-305.4140375472748
 20
237.5
 30
0
 11
-307.4140375472748
 21
237.5
 31
0
  0
LINE
  8
1
 62
7
 10
-300.4181485692379
 20
229
 30
0
 11
-299.7234386240333
 21
229
 31
0
  0
LINE
  8
1
 62
7
 10
-300.4181485692379
 20
231
 30
0
 11
-305.4140375472748
 21
231
 31
0
  0
LINE
  8
1
 62
3
 10
-305.4140375472748
 20
238.5
 30
0
 11
-307.4140375472748
 21
238.5
 31
0
  0
LINE
  8
1
 62
7
 10
-52.41403754727487
 20
237.5
 30
0
 11
-2.414037547274924
 21
237.5
 31
0
  0
LINE
  8
1
 62
7
 10
-2.414037547274924
 20
237.5
 30
0
 11
-2.414037547274924
 21
262.5
 31
0
  0
LINE
  8
1
 62
7
 10
-2.414037547274924
 20
262.5
 30
0
 11
-52.41403754727487
 21
262.5
 31
0
  0
LINE
  8
1
 62
7
 10
-54.61403754727485
 20
264
 30
0
 11
-52.41403754727487
 21
264
 31
0
  0
LINE
  8
1
 62
7
 10
-52.41403754727487
 20
264
 30
0
 11
-52.41403754727487
 21
236
 31
0
  0
LINE
  8
1
 62
7
 10
-52.41403754727487
 20
236
 30
0
 11
-54.61403754727485
 21
236
 31
0
  0
LINE
  8
1
 62
7
 10
-215.8140375472748
 20
185
 30
0
 11
-111.8140375472748
 21
185
 31
0
  0
LINE
  8
1
 62
7
 10
-246.3140375472748
 20
179.0000000000001
 30
0
 11
-246.3140375472748
 21
171.5
 31
0
  0
LINE
  8
1
 62
7
 10
-81.31403754727496
 20
171.5
 30
0
 11
-81.31403754727496
 21
182.25
 31
0
  0
LINE
  8
1
 62
7
 10
-85.31403754727496
 20
332.5
 30
0
 11
-242.3140375472748
 21
332.5
 31
0
  0
LINE
  8
1
 62
7
 10
-81.31403754727496
 20
328.5
 30
0
 11
-81.31403754727496
 21
317.75
 31
0
  0
LINE
  8
1
 62
7
 10
-246.3140375472748
 20
328.5
 30
0
 11
-246.3140375472748
 21
321
 31
0
  0
LINE
  8
1
 62
7
 10
-85.31403754727496
 20
167.5
 30
0
 11
-242.3140375472748
 21
167.5
 31
0
  0
LINE
  8
1
 62
7
 10
-234.914037547275
 20
317.35
 30
0
 11
-236.5140375472749
 21
317.35
 31
0
  0
LINE
  8
1
 62
7
 10
-234.914037547275
 20
317.5
 30
0
 11
-234.914037547275
 21
317.35
 31
0
  0
LINE
  8
1
 62
7
 10
-228.914037547275
 20
317.5
 30
0
 11
-234.914037547275
 21
317.5
 31
0
  0
LINE
  8
1
 62
7
 10
-83.11403754727475
 20
317.5
 30
0
 11
-100.0140375472749
 21
317.5
 31
0
  0
LINE
  8
1
 62
7
 10
-2.414037547274924
 20
253.5
 30
0
 11
-43.91403754727487
 21
253.5
 31
0
  0
LINE
  8
1
 62
7
 10
-43.91403754727487
 20
246.5
 30
0
 11
-2.414037547274924
 21
246.5
 31
0
  0
LINE
  8
1
 62
7
 10
-191.8140375472748
 20
185
 30
0
 11
-191.8140375472748
 21
168.142094206137
 31
0
  0
LINE
  8
1
 62
7
 10
-191.8140375472748
 20
168.142094206137
 30
0
 11
-135.8140375472749
 21
168.142094206137
 31
0
  0
LINE
  8
1
 62
7
 10
-135.8140375472749
 20
185
 30
0
 11
-135.8140375472749
 21
168.142094206137
 31
0
  0
LINE
  8
1
 62
7
 10
-56.31403754727484
 20
267.5
 30
0
 11
-54.61403754727485
 21
267.5
 31
0
  0
LINE
  8
1
 62
7
 10
-54.61403754727485
 20
267.5
 30
0
 11
-54.61403754727485
 21
232.5
 31
0
  0
LINE
  8
1
 62
7
 10
-54.61403754727485
 20
232.5
 30
0
 11
-56.31403754727484
 21
232.5
 31
0
  0
LINE
  8
1
 62
7
 10
-77.11403754727469
 20
297.5
 30
0
 11
-77.91403754727476
 21
297.5
 31
0
  0
LINE
  8
1
 62
7
 10
-74.51403754727478
 20
292.9999999999999
 30
0
 11
-63.0140375472749
 21
293
 31
0
  0
LINE
  8
1
 62
7
 10
-62.0140375472749
 20
292
 30
0
 11
-62.0140375472749
 21
188
 31
0
  0
LINE
  8
1
 62
7
 10
-56.31403754727484
 20
278
 30
0
 11
-56.31403754727484
 21
222.5
 31
0
  0
LINE
  8
1
 62
7
 10
-61.51403754727477
 20
278.5
 30
0
 11
-56.81403754727484
 21
278.5
 31
0
  0
LINE
  8
1
 62
7
 10
-77.91403754727499
 20
182.25
 30
0
 11
-77.91403754727499
 21
317.75
 31
0
  0
LINE
  8
1
 62
7
 10
-77.11403754727469
 20
297.5
 30
0
 11
-77.11403754727469
 21
183.4632742627574
 31
0
  0
LINE
  8
1
 62
7
 10
-76.11403754727469
 20
297.6316524975873
 30
0
 11
-76.11403754727469
 21
183.4632742627574
 31
0
  0
LINE
  8
1
 62
7
 10
-77.11403754727469
 20
183.4632742627574
 30
0
 11
-76.11403754727469
 21
183.4632742627574
 31
0
  0
LINE
  8
1
 62
7
 10
-76.91403754727499
 20
300.6172931436424
 30
0
 11
-76.11403754727469
 21
297.6316524975873
 31
0
  0
LINE
  8
1
 62
7
 10
-77.91403754727476
 20
300.485640646055
 30
0
 11
-77.11403754727469
 21
297.5
 31
0
  0
LINE
  8
1
 62
7
 10
-76.91403754727499
 20
316.4999999999999
 30
0
 11
-76.91403754727499
 21
300.6172931436424
 31
0
  0
LINE
  8
1
 62
7
 10
-74.61403754727469
 20
305.5
 30
0
 11
-74.11403754727469
 21
306
 31
0
  0
LINE
  8
1
 62
7
 10
-74.61403754727475
 20
315.4999999999999
 30
0
 11
-74.11403754727475
 21
314.9999999999999
 31
0
  0
LINE
  8
1
 62
7
 10
-76.21403754727488
 20
315.4999999999999
 30
0
 11
-76.21403754727466
 21
305.5
 31
0
  0
LINE
  8
1
 62
7
 10
-77.91403754727499
 20
316.4999999999999
 30
0
 11
-76.91403754727499
 21
316.4999999999999
 31
0
  0
LINE
  8
1
 62
7
 10
-76.91403754727476
 20
315.5
 30
0
 11
-74.61403754727475
 21
315.4999999999999
 31
0
  0
LINE
  8
1
 62
7
 10
-76.91403754727499
 20
305.4999999999999
 30
0
 11
-74.61403754727469
 21
305.5
 31
0
  0
LINE
  8
1
 62
7
 10
-74.11403754727475
 20
314.9999999999999
 30
0
 11
-74.11403754727469
 21
306
 31
0
  0
LINE
  8
1
 62
7
 10
-76.91403754727499
 20
300.6172931436424
 30
0
 11
-76.11403754727469
 21
297.6316524975873
 31
0
  0
LINE
  8
1
 62
7
 10
-75.01403754727478
 20
190.9999999999999
 30
0
 11
-75.0140375472749
 21
220.5
 31
0
  0
LINE
  8
1
 62
7
 10
-72.01403754727478
 20
189.9999999999999
 30
0
 11
-74.01403754727478
 21
189.9999999999999
 31
0
  0
LINE
  8
1
 62
7
 10
-71.01403754727478
 20
187.9999999999999
 30
0
 11
-71.01403754727478
 21
188.9999999999999
 31
0
  0
LINE
  8
1
 62
7
 10
-63.01403754727477
 20
186.9999999999999
 30
0
 11
-70.01403754727478
 21
186.9999999999999
 31
0
  0
LINE
  8
1
 62
7
 10
-57.51403754727477
 20
189.9999999999999
 30
0
 11
-61.01403754727477
 21
189.9999999999999
 31
0
  0
LINE
  8
1
 62
7
 10
-56.51403754727477
 20
213.9999999999999
 30
0
 11
-56.51403754727477
 21
190.9999999999999
 31
0
  0
LINE
  8
1
 62
7
 10
-56.51403754727477
 20
213.9999999999999
 30
0
 11
-56.51403754727477
 21
190.9999999999999
 31
0
  0
LINE
  8
1
 62
7
 10
-56.51403754727477
 20
213.9999999999999
 30
0
 11
-56.51403754727477
 21
190.9999999999999
 31
0
  0
LINE
  8
1
 62
7
 10
-57.31403754727484
 20
221.5
 30
0
 11
-61.0140375472749
 21
221.5
 31
0
  0
LINE
  8
1
 62
7
 10
-61.01403754727477
 20
214.9999999999999
 30
0
 11
-57.5140375472749
 21
215
 31
0
  0
LINE
  8
1
 62
7
 10
-76.11403754727469
 20
209.3373971655886
 30
0
 11
-75.01403754727478
 21
209.3373971655886
 31
0
  0
LINE
  8
1
 62
7
 10
-76.11403754727469
 20
195.6626028344113
 30
0
 11
-75.01403754727478
 21
195.6626028344113
 31
0
  0
LINE
  8
1
 62
7
 10
-77.91403754727476
 20
202.5
 30
0
 11
-77.11403754727469
 21
202.5
 31
0
  0
LINE
  8
1
 62
7
 10
-76.0140375472749
 20
221.5
 30
0
 11
-76.11403754727469
 21
221.5
 31
0
  0
LINE
  8
1
 62
3
  6
DASHDOT
 10
-231.3140375472747
 20
308.9999999999999
 30
0
 11
-231.3140375472748
 21
326.0000000000001
 31
0
  0
LINE
  8
1
 62
3
  6
DASHDOT
 10
-234.914037547275
 20
317.5
 30
0
 11
-239.8140375472748
 21
317.4999999999999
 31
0
  0
LINE
  8
1
 62
3
  6
DASHDOT
 10
-228.914037547275
 20
317.5
 30
0
 11
-222.8140375472746
 21
317.5000000000001
 31
0
  0
LINE
  8
1
 62
3
  6
DASHDOT
 10
-231.3140375472748
 20
174.0000000000001
 30
0
 11
-231.3140375472747
 21
191.0000000000002
 31
0
  0
LINE
  8
1
 62
3
  6
DASHDOT
 10
-239.8140375472748
 20
182.5000000000002
 30
0
 11
-234.914037547275
 21
182.5
 31
0
  0
LINE
  8
1
 62
3
  6
DASHDOT
 10
-222.8140375472746
 20
182.5000000000001
 30
0
 11
-228.914037547275
 21
182.5
 31
0
  0
LINE
  8
1
 62
3
  6
DASHDOT
 10
-96.31403754727485
 20
326.0000000000001
 30
0
 11
-96.31403754727481
 21
308.9999999999999
 31
0
  0
LINE
  8
1
 62
3
  6
DASHDOT
 10
-104.8140375472749
 20
317.4999999999999
 30
0
 11
-100.0140375472749
 21
317.5
 31
0
  0
LINE
  8
1
 62
7
 10
-110.8140375472748
 20
170.5
 30
0
 11
-110.8140375472748
 21
329.5
 31
0
  0
LINE
  8
1
 62
3
  6
DASHDOT
 10
-96.31403754727481
 20
191.0000000000001
 30
0
 11
-96.31403754727485
 21
173.9999999999999
 31
0
  0
LINE
  8
1
 62
3
  6
DASHDOT
 10
-100.0140375472749
 20
182.5
 30
0
 11
-104.8140375472749
 21
182.5000000000001
 31
0
  0
LINE
  8
1
 62
7
 10
-76.01403754727478
 20
278.5
 30
0
 11
-76.11403754727469
 21
278.5
 31
0
  0
LINE
  8
1
 62
7
 10
-75.01403754727478
 20
279.5
 30
0
 11
-75.01403754727478
 21
292.4999999999999
 31
0
  0
LINE
  8
1
 62
7
 10
-523.2890931478987
 20
23.75000000000006
 30
0
 11
-519.6177335067351
 21
21.63033952288231
 31
0
  0
LINE
  8
1
 62
7
 10
-524.7890931478987
 20
21.15192378864674
 30
0
 11
-521.1177335067351
 21
19.03226331152905
 31
0
  0
LINE
  8
1
 62
7
 10
-531.4604527890622
 20
28.46773668847101
 30
0
 11
-527.7890931478987
 21
26.34807621135337
 31
0
  0
LINE
  8
1
 62
7
 10
-532.9604527890622
 20
25.86966047711769
 30
0
 11
-529.2890931478987
 21
23.75
 31
0
  0
LINE
  8
1
 62
7
 10
-445.5166797883771
 20
21.15192378864657
 30
0
 11
-449.1880394295408
 21
19.03226331152882
 31
0
  0
LINE
  8
1
 62
7
 10
-447.0166797883771
 20
23.74999999999989
 30
0
 11
-450.6880394295407
 21
21.6303395228822
 31
0
  0
LINE
  8
1
 62
7
 10
-437.3453201472137
 20
25.86966047711758
 30
0
 11
-441.0166797883771
 21
23.74999999999989
 31
0
  0
LINE
  8
1
 62
7
 10
-438.8453201472137
 20
28.46773668847084
 30
0
 11
-442.5166797883772
 21
26.3480762113532
 31
0
  0
LINE
  8
1
 62
7
 10
-486.652886468138
 20
-44.90192378864668
 30
0
 11
-486.652886468138
 21
-40.66260283441119
 31
0
  0
LINE
  8
1
 62
7
 10
-483.652886468138
 20
-44.90192378864668
 30
0
 11
-483.6528864681381
 21
-40.66260283441125
 31
0
  0
LINE
  8
1
 62
7
 10
-486.652886468138
 20
-54.33739716558864
 30
0
 11
-486.652886468138
 21
-50.09807621135332
 31
0
  0
LINE
  8
1
 62
7
 10
-483.652886468138
 20
-54.33739716558858
 30
0
 11
-483.652886468138
 21
-50.09807621135326
 31
0
  0
LINE
  8
1
 62
3
  6
DASHDOT
 10
-485.1528864681381
 20
45
 30
0
 11
-485.1528864681381
 21
31
 31
0
  0
LINE
  8
1
 62
3
  6
DASHDOT
 10
-485.1528864681381
 20
5
 30
0
 11
-485.1528864681381
 21
-5
 31
0
  0
LINE
  8
1
 62
3
  6
DASHDOT
 10
-490.1528864681381
 20
0
 30
0
 11
-480.1528864681381
 21
0
 31
0
  0
LINE
  8
1
 62
7
  6
DASHED
 10
-413.402886468138
 20
-90
 30
0
 11
-413.402886468138
 21
-75
 31
0
  0
LINE
  8
1
 62
7
  6
DASHED
 10
-424.402886468138
 20
-75
 30
0
 11
-424.402886468138
 21
-90
 31
0
  0
LINE
  8
1
 62
7
  6
DASHED
 10
-559.402886468138
 20
-90
 30
0
 11
-559.402886468138
 21
-75
 31
0
  0
LINE
  8
1
 62
7
  6
DASHED
 10
-548.402886468138
 20
-75
 30
0
 11
-548.402886468138
 21
-90
 31
0
  0
LINE
  8
1
 62
7
 10
-400.152886468138
 20
-35.48680853362147
 30
0
 11
-402.152886468138
 21
-35.48680853362147
 31
0
  0
LINE
  8
1
 62
7
 10
-400.152886468138
 20
-29.98819727082156
 30
0
 11
-400.152886468138
 21
-35.48680853362147
 31
0
  0
LINE
  8
1
 62
7
 10
-402.152886468138
 20
-29.98819727082156
 30
0
 11
-400.152886468138
 21
-29.98819727082156
 31
0
  0
LINE
  8
1
 62
7
 10
-402.152886468138
 20
-27.73748411339041
 30
0
 11
-402.152886468138
 21
-47.00000000000001
 31
0
  0
LINE
  8
1
 62
7
 10
-402.152886468138
 20
-47.00000000000001
 30
0
 11
-420.152886468138
 21
-47.00000000000001
 31
0
  0
LINE
  8
1
 62
7
 10
-402.152886468138
 20
-27.73748411339041
 30
0
 11
-420.152886468138
 21
-27.73748411339041
 31
0
  0
LINE
  8
1
 62
3
  6
DASHDOT
 10
-553.902886468138
 20
-72
 30
0
 11
-553.902886468138
 21
-93
 31
0
  0
LINE
  8
1
 62
3
  6
DASHDOT
 10
-418.902886468138
 20
-72
 30
0
 11
-418.902886468138
 21
-93
 31
0
  0
LINE
  8
1
 62
7
 10
-468.152886468138
 20
-2.500000000000007
 30
0
 11
-466.3180782663007
 21
-2.500000000000007
 31
0
  0
LINE
  8
1
 62
7
 10
-468.152886468138
 20
2.499999999999993
 30
0
 11
-468.152886468138
 21
-2.500000000000007
 31
0
  0
LINE
  8
1
 62
7
 10
-466.3180782663007
 20
2.499999999999993
 30
0
 11
-468.152886468138
 21
2.499999999999993
 31
0
  0
LINE
  8
1
 62
7
 10
-487.652886468138
 20
-17.00000000000002
 30
0
 11
-487.652886468138
 21
-18.83480820183738
 31
0
  0
LINE
  8
1
 62
7
 10
-482.652886468138
 20
-17.00000000000002
 30
0
 11
-487.652886468138
 21
-17.00000000000002
 31
0
  0
LINE
  8
1
 62
7
 10
-482.652886468138
 20
-18.83480820183738
 30
0
 11
-482.652886468138
 21
-17.00000000000002
 31
0
  0
LINE
  8
1
 62
7
 10
-502.1528864681381
 20
2.499999999999993
 30
0
 11
-503.9876946699754
 21
2.499999999999993
 31
0
  0
LINE
  8
1
 62
7
 10
-502.1528864681381
 20
-2.500000000000007
 30
0
 11
-502.1528864681381
 21
2.499999999999993
 31
0
  0
LINE
  8
1
 62
7
 10
-503.9876946699754
 20
-2.500000000000007
 30
0
 11
-502.1528864681381
 21
-2.500000000000007
 31
0
  0
LINE
  8
1
 62
7
 10
-482.652886468138
 20
17
 30
0
 11
-482.652886468138
 21
18.83480820183736
 31
0
  0
LINE
  8
1
 62
7
 10
-487.652886468138
 20
17
 30
0
 11
-482.652886468138
 21
17
 31
0
  0
LINE
  8
1
 62
7
 10
-487.652886468138
 20
18.83480820183736
 30
0
 11
-487.652886468138
 21
17
 31
0
  0
LINE
  8
1
 62
7
 10
-432.152886468138
 20
65.25
 30
0
 11
-457.1629329133356
 21
65.25
 31
0
  0
LINE
  8
1
 62
7
 10
-420.152886468138
 20
28.56571371417139
 30
0
 11
-420.152886468138
 21
53.25
 31
0
  0
LINE
  8
1
 62
7
 10
-420.152886468138
 20
-47.00000000000001
 30
0
 11
-420.152886468138
 21
-28.56571371417141
 31
0
  0
LINE
  8
1
 62
7
 10
-403.5912411203678
 20
-76.42583454990225
 30
0
 11
-420.152886468138
 21
-47.00000000000001
 31
0
  0
LINE
  8
1
 62
7
 10
-433.652886468138
 20
-75
 30
0
 11
-406.652886468138
 21
-75
 31
0
  0
LINE
  8
1
 62
7
 10
-402.6528864681381
 20
-79.00000000000006
 30
0
 11
-402.652886468138
 21
-90
 31
0
  0
LINE
  8
1
 62
7
 10
-402.652886468138
 20
-90
 30
0
 11
-437.652886468138
 21
-90
 31
0
  0
LINE
  8
1
 62
7
 10
-437.652886468138
 20
-90
 30
0
 11
-437.652886468138
 21
-79
 31
0
  0
LINE
  8
1
 62
7
 10
-550.152886468138
 20
-47.00000000000001
 30
0
 11
-566.7145318159083
 21
-76.42583454990225
 31
0
  0
LINE
  8
1
 62
7
 10
-550.152886468138
 20
-28.56571371417141
 30
0
 11
-550.152886468138
 21
-47.00000000000001
 31
0
  0
LINE
  8
1
 62
7
 10
-550.152886468138
 20
53.25
 30
0
 11
-550.152886468138
 21
28.56571371417139
 31
0
  0
LINE
  8
1
 62
7
 10
-513.1428400229405
 20
65.25
 30
0
 11
-538.152886468138
 21
65.25
 31
0
  0
LINE
  8
1
 62
7
 10
-563.652886468138
 20
-75
 30
0
 11
-536.652886468138
 21
-75
 31
0
  0
LINE
  8
1
 62
7
 10
-567.652886468138
 20
-90
 30
0
 11
-567.652886468138
 21
-79
 31
0
  0
LINE
  8
1
 62
7
 10
-532.652886468138
 20
-90
 30
0
 11
-567.652886468138
 21
-90
 31
0
  0
LINE
  8
1
 62
7
 10
-532.652886468138
 20
-79
 30
0
 11
-532.652886468138
 21
-90
 31
0
  0
LINE
  8
1
 62
7
 10
-441.652886468138
 20
-83
 30
0
 11
-528.652886468138
 21
-83
 31
0
  0
LINE
  8
1
 62
7
 10
-431.3012383967929
 20
-62.50000000000001
 30
0
 11
-451.4668359427351
 21
-62.5
 31
0
  0
LINE
  8
1
 62
7
 10
-422.652886468138
 20
-33.68605052540295
 30
0
 11
-422.652886468138
 21
-53.85164807134505
 31
0
  0
LINE
  8
1
 62
7
 10
-432.8670241059536
 20
-55.82139626811711
 30
0
 11
-430.0786364268276
 21
-55.07425004131039
 31
0
  0
LINE
  8
1
 62
7
 10
-434.9082655582729
 20
-53.7801548157978
 30
0
 11
-432.8670241059536
 21
-55.82139626811711
 31
0
  0
LINE
  8
1
 62
7
 10
-434.1611193314662
 20
-50.99176713667177
 30
0
 11
-434.9082655582729
 21
-53.7801548157978
 31
0
  0
LINE
  8
1
 62
7
 10
-431.3727316523402
 20
-50.24462090986505
 30
0
 11
-434.1611193314662
 21
-50.99176713667177
 31
0
  0
LINE
  8
1
 62
7
 10
-429.3314902000209
 20
-52.28586236218436
 30
0
 11
-431.3727316523402
 21
-50.24462090986505
 31
0
  0
LINE
  8
1
 62
7
 10
-430.0786364268276
 20
-55.07425004131039
 30
0
 11
-429.3314902000209
 21
-52.28586236218436
 31
0
  0
LINE
  8
1
 62
7
 10
-547.652886468138
 20
-53.85164807134504
 30
0
 11
-547.652886468138
 21
-33.68605052540295
 31
0
  0
LINE
  8
1
 62
7
 10
-518.838936993541
 20
-62.50000000000001
 30
0
 11
-539.0045345394831
 21
-62.50000000000001
 31
0
  0
LINE
  8
1
 62
7
 10
-540.9742827362551
 20
-52.28586236218435
 30
0
 11
-540.2271365094484
 21
-55.07425004131037
 31
0
  0
LINE
  8
1
 62
7
 10
-538.9330412839358
 20
-50.24462090986504
 30
0
 11
-540.9742827362551
 21
-52.28586236218435
 31
0
  0
LINE
  8
1
 62
7
 10
-536.1446536048098
 20
-50.99176713667175
 30
0
 11
-538.9330412839358
 21
-50.24462090986504
 31
0
  0
LINE
  8
1
 62
7
 10
-535.3975073780031
 20
-53.78015481579776
 30
0
 11
-536.1446536048098
 21
-50.99176713667175
 31
0
  0
LINE
  8
1
 62
7
 10
-537.4387488303224
 20
-55.82139626811708
 30
0
 11
-535.3975073780031
 21
-53.78015481579776
 31
0
  0
LINE
  8
1
 62
7
 10
-540.2271365094484
 20
-55.07425004131037
 30
0
 11
-537.4387488303224
 21
-55.82139626811708
 31
0
  0
LINE
  8
1
 62
7
 10
-539.0045345394831
 20
62.5
 30
0
 11
-518.838936993541
 21
62.5
 31
0
  0
LINE
  8
1
 62
7
 10
-547.652886468138
 20
33.68605052540293
 30
0
 11
-547.652886468138
 21
53.851648071345
 31
0
  0
LINE
  8
1
 62
7
 10
-537.4387488303224
 20
55.8213962681171
 30
0
 11
-540.2271365094484
 21
55.07425004131039
 31
0
  0
LINE
  8
1
 62
7
 10
-535.3975073780031
 20
53.78015481579779
 30
0
 11
-537.4387488303224
 21
55.8213962681171
 31
0
  0
LINE
  8
1
 62
7
 10
-536.1446536048097
 20
50.99176713667175
 30
0
 11
-535.3975073780031
 21
53.78015481579779
 31
0
  0
LINE
  8
1
 62
7
 10
-538.9330412839358
 20
50.24462090986503
 30
0
 11
-536.1446536048097
 21
50.99176713667175
 31
0
  0
LINE
  8
1
 62
7
 10
-540.9742827362551
 20
52.28586236218439
 30
0
 11
-538.9330412839358
 21
50.24462090986503
 31
0
  0
LINE
  8
1
 62
7
 10
-540.2271365094484
 20
55.07425004131039
 30
0
 11
-540.9742827362551
 21
52.28586236218439
 31
0
  0
LINE
  8
1
 62
7
 10
-422.652886468138
 20
53.851648071345
 30
0
 11
-422.652886468138
 21
33.68605052540295
 31
0
  0
LINE
  8
1
 62
7
 10
-451.4668359427351
 20
62.5
 30
0
 11
-431.301238396793
 21
62.5
 31
0
  0
LINE
  8
1
 62
7
 10
-429.3314902000209
 20
52.28586236218439
 30
0
 11
-430.0786364268276
 21
55.07425004131039
 31
0
  0
LINE
  8
1
 62
7
 10
-431.3727316523402
 20
50.24462090986503
 30
0
 11
-429.3314902000209
 21
52.28586236218439
 31
0
  0
LINE
  8
1
 62
7
 10
-434.1611193314662
 20
50.99176713667174
 30
0
 11
-431.3727316523402
 21
50.24462090986503
 31
0
  0
LINE
  8
1
 62
7
 10
-434.9082655582729
 20
53.78015481579769
 30
0
 11
-434.1611193314662
 21
50.99176713667174
 31
0
  0
LINE
  8
1
 62
7
 10
-432.8670241059536
 20
55.8213962681171
 30
0
 11
-434.9082655582729
 21
53.78015481579769
 31
0
  0
LINE
  8
1
 62
7
 10
-430.0786364268276
 20
55.07425004131039
 30
0
 11
-432.8670241059536
 21
55.8213962681171
 31
0
  0
LINE
  8
1
 62
3
  6
DASHDOT
 10
-445.7387619582047
 20
-22.75575539568348
 30
0
 11
-457.6116587241599
 21
-15.90093525179856
 31
0
  0
LINE
  8
1
 62
3
  6
DASHDOT
 10
-524.5670109780714
 20
-22.75575539568345
 30
0
 11
-512.6941142121162
 21
-15.90093525179855
 31
0
  0
ARC
  8
1
 62
7
 10
-194.8140375472748
 20
-87
 30
0
 40
4
 50
90
 51
180
  0
ARC
  8
1
 62
7
 10
-242.3140375472748
 20
-79
 30
0
 40
4
 50
90
 51
180
  0
ARC
  8
1
 62
7
 10
-215.8140375472748
 20
64.25
 30
0
 40
1
 50
90
 51
180
  0
ARC
  8
1
 62
7
 10
-219.8140375472748
 20
-72
 30
0
 40
3
 50
270
 51
0
  0
ARC
  8
1
 62
7
 10
-217.8140375472748
 20
63.5
 30
0
 40
1
 50
270
 51
0
  0
ARC
  8
1
 62
7
 10
-217.8140375472748
 20
-63.5
 30
0
 40
1
 50
0
 51
90
  0
ARC
  8
1
 62
7
 10
-111.8140375472748
 20
64.25
 30
0
 40
1
 50
0
 51
90
  0
ARC
  8
1
 62
7
 10
-107.8140375472748
 20
-72
 30
0
 40
3
 50
180
 51
270
  0
ARC
  8
1
 62
7
 10
-109.8140375472748
 20
63.5
 30
0
 40
1
 50
180
 51
270
  0
ARC
  8
1
 62
7
 10
-109.8140375472748
 20
-63.5
 30
0
 40
1
 50
90
 51
180
  0
ARC
  8
1
 62
7
 10
-85.31403754727496
 20
-79
 30
0
 40
4
 50
0
 51
90
  0
ARC
  8
1
 62
7
 10
-132.8140375472748
 20
-87
 30
0
 40
4
 50
0
 51
90
  0
ARC
  8
1
 62
7
 10
-100.0140375472749
 20
-60.5
 30
0
 40
7.000000000000056
 50
212.5569318374535
 51
270
  0
ARC
  8
1
 62
7
 10
-100.0140375472749
 20
60.5
 30
0
 40
7
 50
90
 51
147.443068162546
  0
ARC
  8
1
 62
7
 10
-164.8140375472749
 20
-14.96581507827476
 30
0
 40
3
 50
90
 51
180
  0
ARC
  8
1
 62
7
 10
-164.8640375472749
 20
-14.91581507827486
 30
0
 40
4.950252518811643
 50
89.42127443439114
 51
179.4212744343911
  0
ARC
  8
1
 62
7
 10
-170.8140375472749
 20
-16.96581507827476
 30
0
 40
7
 50
90
 51
180
  0
ARC
  8
1
 62
7
 10
-170.8140375472749
 20
-16.96581507827476
 30
0
 40
9
 50
90
 51
180
  0
ARC
  8
1
 62
7
 10
-162.8140375472748
 20
-14.96581507827476
 30
0
 40
3
 50
0
 51
90
  0
ARC
  8
1
 62
7
 10
-162.7640375472747
 20
-14.91581507827481
 30
0
 40
4.950252518811444
 50
0.5787255656083367
 51
90.57872556560888
  0
ARC
  8
1
 62
7
 10
-156.8140375472748
 20
-16.96581507827476
 30
0
 40
6.999999999999915
 50
0
 51
90
  0
ARC
  8
1
 62
7
 10
-156.8140375472748
 20
-16.96581507827476
 30
0
 40
9.000000000000199
 50
0
 51
90
  0
ARC
  8
1
 62
7
 10
-74.51403754727478
 20
42.49999999999994
 30
0
 40
0.5
 50
90
 51
180
  0
ARC
  8
1
 62
7
 10
-56.81403754727484
 20
28
 30
0
 40
0.5
 50
0
 51
90
  0
ARC
  8
1
 62
7
 10
-61.51403754727477
 20
29
 30
0
 40
0.5
 50
180
 51
270
  0
ARC
  8
1
 62
7
 10
-63.0140375472749
 20
42
 30
0
 40
1
 50
0
 51
90
  0
ARC
  8
1
 62
7
 10
-74.01403754727478
 20
-59.00000000000006
 30
0
 40
1
 50
180
 51
270
  0
ARC
  8
1
 62
7
 10
-72.01403754727478
 20
-61.00000000000006
 30
0
 40
1
 50
0
 51
90
  0
ARC
  8
1
 62
7
 10
-70.01403754727478
 20
-62.00000000000006
 30
0
 40
1
 50
180
 51
270
  0
ARC
  8
1
 62
7
 10
-57.51403754727477
 20
-59.00000000000006
 30
0
 40
1
 50
270
 51
0
  0
ARC
  8
1
 62
7
 10
-61.01403754727477
 20
-61.00000000000006
 30
0
 40
1
 50
90
 51
180
  0
ARC
  8
1
 62
7
 10
-63.0140375472749
 20
-62
 30
0
 40
1.000000000000057
 50
270
 51
0
  0
ARC
  8
1
 62
7
 10
-57.51403754727477
 20
-36.00000000000006
 30
0
 40
1
 50
0
 51
90
  0
ARC
  8
1
 62
7
 10
-61.01403754727477
 20
-29.5
 30
0
 40
1
 50
90
 51
180
  0
ARC
  8
1
 62
7
 10
-57.31403754727484
 20
-27.5
 30
0
 40
1
 50
270
 51
0
  0
ARC
  8
1
 62
7
 10
-61.0140375472749
 20
-34
 30
0
 40
0.999999999999865
 50
180
 51
270
  0
ARC
  8
1
 62
7
 10
-76.01403754727478
 20
29.5
 30
0
 40
1
 50
270
 51
0
  0
ARC
  8
1
 62
7
 10
-76.0140375472749
 20
-29.5
 30
0
 40
1
 50
0
 51
90
  0
ARC
  8
1
 62
7
 10
-228.914037547275
 20
-60.5
 30
0
 40
7
 50
270
 51
0.1974568809510991
  0
ARC
  8
1
 62
7
 10
-148.8140375472749
 20
-45.21235784754329
 30
0
 40
1.487500000000074
 50
44.9999999999969
 51
134.9999999999953
  0
ARC
  8
1
 62
7
 10
-146.3391638131221
 20
-42.73748411339041
 30
0
 40
1.487499999999873
 50
134.9999999999953
 51
225.0000000000044
  0
ARC
  8
1
 62
7
 10
-148.8140375472749
 20
-40.26261037923753
 30
0
 40
1.487499999999868
 50
225.0000000000044
 51
315.0000000000033
  0
ARC
  8
1
 62
7
 10
-151.2889112814279
 20
-42.73748411339041
 30
0
 40
1.487499999999989
 50
315.0000000000002
 51
45
  0
ARC
  8
1
 62
7
 10
-158.8140375472749
 20
-45.21235784754329
 30
0
 40
1.487500000000074
 50
44.9999999999969
 51
135.0000000000008
  0
ARC
  8
1
 62
7
 10
-156.3391638131219
 20
-42.73748411339041
 30
0
 40
1.487500000000014
 50
135.0000000000008
 51
224.999999999999
  0
ARC
  8
1
 62
7
 10
-158.8140375472749
 20
-40.26261037923753
 30
0
 40
1.487500000000009
 50
224.999999999999
 51
315.0000000000033
  0
ARC
  8
1
 62
7
 10
-161.2889112814279
 20
-42.73748411339041
 30
0
 40
1.487499999999989
 50
315.0000000000002
 51
45
  0
ARC
  8
1
 62
7
 10
-141.5640375472749
 20
-34.48748411339041
 30
0
 40
1.487499999999983
 50
0
 51
90
  0
ARC
  8
1
 62
7
 10
-138.0640375472749
 20
-34.48748411339041
 30
0
 40
1.487500000000011
 50
90
 51
180
  0
ARC
  8
1
 62
7
 10
-138.0640375472749
 20
-30.98748411339041
 30
0
 40
1.487499999999898
 50
180
 51
270
  0
ARC
  8
1
 62
7
 10
-141.5640375472749
 20
-30.98748411339041
 30
0
 40
1.487500000000011
 50
270
 51
0
  0
ARC
  8
1
 62
7
 10
-178.8140375472749
 20
-45.21235784754329
 30
0
 40
1.487500000000074
 50
44.9999999999969
 51
135.0000000000008
  0
ARC
  8
1
 62
7
 10
-181.2889112814279
 20
-42.73748411339041
 30
0
 40
1.487499999999989
 50
315.0000000000002
 51
45
  0
ARC
  8
1
 62
7
 10
-178.8140375472749
 20
-40.26261037923753
 30
0
 40
1.487500000000009
 50
224.999999999999
 51
315.0000000000033
  0
ARC
  8
1
 62
7
 10
-176.3391638131219
 20
-42.73748411339041
 30
0
 40
1.487500000000074
 50
135.0000000000031
 51
224.9999999999967
  0
ARC
  8
1
 62
7
 10
-168.8140375472749
 20
-45.21235784754329
 30
0
 40
1.487500000000074
 50
44.9999999999969
 51
135.0000000000008
  0
ARC
  8
1
 62
7
 10
-171.2889112814279
 20
-42.73748411339041
 30
0
 40
1.487499999999989
 50
315.0000000000002
 51
45
  0
ARC
  8
1
 62
7
 10
-168.8140375472749
 20
-40.26261037923753
 30
0
 40
1.487500000000009
 50
224.999999999999
 51
315.0000000000033
  0
ARC
  8
1
 62
7
 10
-166.3391638131219
 20
-42.73748411339041
 30
0
 40
1.487500000000074
 50
135.0000000000031
 51
224.9999999999967
  0
ARC
  8
1
 62
7
 10
-186.0640375472749
 20
-34.48748411339041
 30
0
 40
1.487500000000011
 50
90
 51
180
  0
ARC
  8
1
 62
7
 10
-189.5640375472749
 20
-34.48748411339041
 30
0
 40
1.487499999999983
 50
0
 51
90
  0
ARC
  8
1
 62
7
 10
-189.5640375472749
 20
-30.98748411339041
 30
0
 40
1.487500000000011
 50
270
 51
0
  0
ARC
  8
1
 62
7
 10
-186.0640375472749
 20
-30.98748411339041
 30
0
 40
1.487499999999898
 50
180
 51
270
  0
ARC
  8
1
 62
7
 10
-163.8140375472748
 20
-9.965815078274758
 30
0
 40
5.000000000000075
 50
23.57817847820146
 51
156.421821521799
  0
ARC
  8
1
 62
7
 10
-163.8140375472748
 20
-9.965815078274758
 30
0
 40
5.000000000000085
 50
180
 51
198.8078095517093
  0
ARC
  8
1
 62
7
 10
-163.8140375472748
 20
-9.965815078274758
 30
0
 40
5.000000000000039
 50
224.1457432463715
 51
315.8542567536287
  0
ARC
  8
1
 62
7
 10
-163.8140375472748
 20
-9.965815078274758
 30
0
 40
4.999999999999936
 50
341.1921904482906
 51
0
  0
ARC
  8
1
 62
7
 10
-163.8140375472748
 20
-9.965815078274758
 30
0
 40
2.500000000000022
 50
234.4649085793089
 51
305.5350914206911
  0
ARC
  8
1
 62
7
 10
-163.8140375472748
 20
-9.965815078274758
 30
0
 40
2.5
 50
53.13010235415598
 51
126.869897645844
  0
ARC
  8
1
 62
7
 10
-228.914037547275
 20
60.5
 30
0
 40
7.000000000000313
 50
0
 51
90
  0
ARC
  8
1
 62
7
 10
-162.8140375472748
 20
-10.96581507827476
 30
0
 40
1.000000000000002
 50
90
 51
270
  0
ARC
  8
1
 62
7
 10
-164.8140375472748
 20
-10.96581507827476
 30
0
 40
1
 50
270
 51
90
  0
ARC
  8
1
 62
7
 10
-162.8140375472748
 20
-8.965815078274758
 30
0
 40
1
 50
90
 51
270
  0
ARC
  8
1
 62
7
 10
-164.8140375472748
 20
-8.965815078274758
 30
0
 40
1
 50
270
 51
90
  0
ARC
  8
1
 62
7
 10
-215.8140375472748
 20
314.25
 30
0
 40
1
 50
90
 51
180
  0
ARC
  8
1
 62
7
 10
-217.8140375472748
 20
313.5
 30
0
 40
1
 50
270
 51
0
  0
ARC
  8
1
 62
7
 10
-217.8140375472748
 20
186.5
 30
0
 40
1
 50
0
 51
90
  0
ARC
  8
1
 62
7
 10
-111.8140375472748
 20
314.25
 30
0
 40
1
 50
0
 51
90
  0
ARC
  8
1
 62
7
 10
-109.8140375472748
 20
313.5
 30
0
 40
1
 50
180
 51
270
  0
ARC
  8
1
 62
7
 10
-109.8140375472748
 20
186.5
 30
0
 40
1
 50
90
 51
180
  0
ARC
  8
1
 62
7
 10
-100.0140375472749
 20
189.5
 30
0
 40
7.000000000000056
 50
212.5569318374535
 51
270
  0
ARC
  8
1
 62
7
 10
-100.0140375472749
 20
310.5
 30
0
 40
7
 50
90
 51
147.4430681625458
  0
ARC
  8
1
 62
7
 10
-111.8140375472748
 20
186
 30
0
 40
1
 50
270
 51
0
  0
ARC
  8
1
 62
7
 10
-215.8140375472748
 20
186
 30
0
 40
1
 50
180
 51
270
  0
ARC
  8
1
 62
7
 10
-85.31403754727496
 20
171.5
 30
0
 40
4
 50
270
 51
0
  0
ARC
  8
1
 62
7
 10
-242.3140375472748
 20
171.5
 30
0
 40
4
 50
180
 51
270
  0
ARC
  8
1
 62
7
 10
-85.31403754727496
 20
328.5
 30
0
 40
4
 50
0
 51
90
  0
ARC
  8
1
 62
7
 10
-242.3140375472748
 20
328.5
 30
0
 40
4
 50
90
 51
180
  0
ARC
  8
1
 62
7
 10
-219.8140375472748
 20
329.5
 30
0
 40
3
 50
0
 51
90
  0
ARC
  8
1
 62
7
 10
-219.8140375472748
 20
170.5
 30
0
 40
3
 50
270
 51
0
  0
ARC
  8
1
 62
7
 10
-107.8140375472748
 20
170.5
 30
0
 40
3
 50
180
 51
270
  0
ARC
  8
1
 62
7
 10
-107.8140375472748
 20
329.5
 30
0
 40
3
 50
90
 51
180
  0
ARC
  8
1
 62
7
 10
-43.91403754727487
 20
250
 30
0
 40
3.5
 50
90
 51
270
  0
ARC
  8
1
 62
7
 10
-74.51403754727478
 20
292.4999999999999
 30
0
 40
0.5
 50
90
 51
180
  0
ARC
  8
1
 62
7
 10
-56.81403754727484
 20
278
 30
0
 40
0.5
 50
0
 51
90
  0
ARC
  8
1
 62
7
 10
-61.51403754727477
 20
279
 30
0
 40
0.5
 50
180
 51
270
  0
ARC
  8
1
 62
7
 10
-63.0140375472749
 20
292
 30
0
 40
1
 50
0
 51
90
  0
ARC
  8
1
 62
7
 10
-74.01403754727478
 20
190.9999999999999
 30
0
 40
1
 50
180
 51
270
  0
ARC
  8
1
 62
7
 10
-72.01403754727478
 20
188.9999999999999
 30
0
 40
1
 50
0
 51
90
  0
ARC
  8
1
 62
7
 10
-70.01403754727478
 20
187.9999999999999
 30
0
 40
1
 50
180
 51
270
  0
ARC
  8
1
 62
7
 10
-57.51403754727477
 20
190.9999999999999
 30
0
 40
1
 50
270
 51
0
  0
ARC
  8
1
 62
7
 10
-61.01403754727477
 20
188.9999999999999
 30
0
 40
1
 50
90
 51
180
  0
ARC
  8
1
 62
7
 10
-63.0140375472749
 20
188
 30
0
 40
1.000000000000114
 50
270
 51
0
  0
ARC
  8
1
 62
7
 10
-57.51403754727477
 20
213.9999999999999
 30
0
 40
1
 50
0
 51
90
  0
ARC
  8
1
 62
7
 10
-61.0140375472749
 20
216
 30
0
 40
0.999999999999865
 50
180
 51
270
  0
ARC
  8
1
 62
7
 10
-61.01403754727477
 20
220.5
 30
0
 40
1
 50
90
 51
180
  0
ARC
  8
1
 62
7
 10
-57.31403754727484
 20
222.5
 30
0
 40
1
 50
270
 51
0
  0
ARC
  8
1
 62
7
 10
-61.0140375472749
 20
216
 30
0
 40
0.999999999999865
 50
180
 51
270
  0
ARC
  8
1
 62
7
 10
-76.01403754727478
 20
279.5
 30
0
 40
1
 50
270
 51
0
  0
ARC
  8
1
 62
7
 10
-76.0140375472749
 20
220.5
 30
0
 40
1
 50
0
 51
90
  0
ARC
  8
1
 62
7
 10
-228.914037547275
 20
189.5
 30
0
 40
7
 50
270
 51
0.1974568809513317
  0
ARC
  8
1
 62
7
 10
-231.3140375472748
 20
182.5
 30
0
 40
5.499999999999877
 50
199.0112652601366
 51
7.33139930173262
  0
ARC
  8
1
 62
7
 10
-231.3140375472748
 20
317.5
 30
0
 40
5.500000000000092
 50
352.6686006982656
 51
160.9887347398629
  0
ARC
  8
1
 62
7
  6
DASHED
 10
-231.3140375472748
 20
317.5
 30
0
 40
5.500000000000102
 50
160.9887347398629
 51
352.6686006982656
  0
ARC
  8
1
 62
7
  6
DASHED
 10
-231.3140375472748
 20
182.5
 30
0
 40
5.499999999999869
 50
7.33139930173262
 51
199.0112652601366
  0
ARC
  8
1
 62
7
 10
-228.914037547275
 20
310.5
 30
0
 40
7.000000000000068
 50
359.8025431190494
 51
90
  0
ARC
  8
1
 62
7
 10
-96.31403754727485
 20
317.5
 30
0
 40
5.500000000000057
 50
0
 51
182.4390605680687
  0
ARC
  8
1
 62
7
  6
DASHED
 10
-96.31403754727485
 20
317.5
 30
0
 40
5.500000000000094
 50
182.4390605680687
 51
0
  0
ARC
  8
1
 62
7
  6
DASHED
 10
-96.31403754727489
 20
182.4999999999986
 30
0
 40
5.500000000001066
 50
0
 51
177.560939431914
  0
ARC
  8
1
 62
7
 10
-96.31403754727489
 20
182.4999999999986
 30
0
 40
5.500000000001018
 50
177.560939431914
 51
0
  0
ARC
  8
1
 62
3
  6
DASHDOT
 10
-485.152886468138
 20
-7.105427357601002e-015
 30
0
 40
38
 50
75.00000000000003
 51
105
  0
ARC
  8
1
 62
7
 10
-485.152886468138
 20
-7.105427357601002e-015
 30
0
 40
19.00000000000001
 50
277.5608431766721
 51
352.4391568233278
  0
ARC
  8
1
 62
7
 10
-485.152886468138
 20
-7.105427357601002e-015
 30
0
 40
19.00000000000004
 50
187.5608431766721
 51
262.439156823328
  0
ARC
  8
1
 62
7
 10
-485.152886468138
 20
-7.105427357601002e-015
 30
0
 40
19.00000000000001
 50
97.56084317667208
 51
172.4391568233279
  0
ARC
  8
1
 62
7
 10
-485.152886468138
 20
-7.105427357601002e-015
 30
0
 40
18.99999999999993
 50
7.560843176672125
 51
82.43915682332791
  0
ARC
  8
1
 62
7
 10
-485.152886468138
 20
-7.105427357601002e-015
 30
0
 40
82.50000000000004
 50
310.7490543774704
 51
319.2509456225296
  0
ARC
  8
1
 62
7
 10
-432.1198778791469
 20
-53.03300858899108
 30
0
 40
5.000000000000097
 50
170.7082003836935
 51
99.29179961630729
  0
ARC
  8
1
 62
7
 10
-485.152886468138
 20
-7.105427357601002e-015
 30
0
 40
82.50000000000004
 50
220.7490543774703
 51
229.2509456225296
  0
ARC
  8
1
 62
7
 10
-538.1858950571292
 20
-53.03300858899106
 30
0
 40
5.000000000000015
 50
80.7082003836921
 51
9.291799616306552
  0
ARC
  8
1
 62
7
 10
-485.152886468138
 20
-7.105427357601002e-015
 30
0
 40
82.50000000000004
 50
130.7490543774704
 51
139.2509456225297
  0
ARC
  8
1
 62
7
 10
-538.1858950571291
 20
53.03300858899109
 30
0
 40
5.000000000000046
 50
350.7082003836929
 51
279.2917996163066
  0
ARC
  8
1
 62
7
 10
-485.152886468138
 20
-7.105427357601002e-015
 30
0
 40
82.49999999999997
 50
40.74905437747037
 51
49.25094562252965
  0
ARC
  8
1
 62
7
 10
-432.1198778791469
 20
53.03300858899109
 30
0
 40
5.000000000000035
 50
260.7082003836928
 51
189.291799616307
  0
ARC
  8
1
 62
3
  6
DASHDOT
 10
-485.152886468138
 20
-7.105427357601002e-015
 30
0
 40
37.99999999999994
 50
318.6239061471728
 51
340.8403054543304
  0
ARC
  8
1
 62
3
  6
DASHDOT
 10
-485.152886468138
 20
-7.105427357601002e-015
 30
0
 40
38.00000000000004
 50
198.6239061471728
 51
220.8403054543304
  0
ARC
  8
1
 62
7
 10
-432.152886468138
 20
53.25
 30
0
 40
12
 50
0
 51
90
  0
ARC
  8
1
 62
7
 10
-433.652886468138
 20
-79
 30
0
 40
4
 50
90
 51
180
  0
ARC
  8
1
 62
7
 10
-406.652886468138
 20
-79
 30
0
 40
3.999999999999886
 50
0
 51
90
  0
ARC
  8
1
 62
7
 10
-441.652886468138
 20
-87
 30
0
 40
4
 50
0
 51
90
  0
ARC
  8
1
 62
7
 10
-538.152886468138
 20
53.25
 30
0
 40
12
 50
90
 51
180
  0
ARC
  8
1
 62
7
 10
-536.652886468138
 20
-79
 30
0
 40
4
 50
0
 51
90
  0
ARC
  8
1
 62
7
 10
-563.652886468138
 20
-79
 30
0
 40
4
 50
90
 51
180
  0
ARC
  8
1
 62
7
 10
-528.652886468138
 20
-87
 30
0
 40
4
 50
90
 51
180
  0
CIRCLE
  8
1
 62
7
 10
-148.8140375472749
 20
-42.73748411339041
 30
0
 40
2.75
  0
CIRCLE
  8
1
 62
7
 10
-158.8140375472749
 20
-42.73748411339041
 30
0
 40
2.75
  0
CIRCLE
  8
1
 62
7
 10
-139.8140375472749
 20
-32.73748411339041
 30
0
 40
2.75
  0
CIRCLE
  8
1
 62
7
 10
-178.8140375472749
 20
-42.73748411339041
 30
0
 40
2.75
  0
CIRCLE
  8
1
 62
7
 10
-168.8140375472749
 20
-42.73748411339041
 30
0
 40
2.75
  0
CIRCLE
  8
1
 62
7
 10
-187.8140375472749
 20
-32.73748411339041
 30
0
 40
2.75
  0
CIRCLE
  8
1
 62
7
 10
-526.2890931478989
 20
23.75
 30
0
 40
9.999999999999769
  0
CIRCLE
  8
1
 62
7
 10
-526.2890931478989
 20
23.75
 30
0
 40
6.999999999999774
  0
CIRCLE
  8
1
 62
7
 10
-526.2890931478989
 20
23.75
 30
0
 40
2.999999999999889
  0
CIRCLE
  8
1
 62
7
 10
-444.0166797883772
 20
23.74999999999994
 30
0
 40
9.999999999999831
  0
CIRCLE
  8
1
 62
7
 10
-444.0166797883772
 20
23.74999999999994
 30
0
 40
6.999999999999831
  0
CIRCLE
  8
1
 62
7
 10
-444.0166797883772
 20
23.74999999999994
 30
0
 40
2.999999999999946
  0
CIRCLE
  8
1
 62
7
 10
-485.152886468138
 20
-47.5
 30
0
 40
9.999999999999773
  0
CIRCLE
  8
1
 62
7
 10
-485.152886468138
 20
-47.5
 30
0
 40
6.999999999999773
  0
CIRCLE
  8
1
 62
7
 10
-485.152886468138
 20
-47.5
 30
0
 40
3
  0
CIRCLE
  8
1
 62
7
 10
-485.152886468138
 20
-7.105427357601002e-015
 30
0
 40
29.99999999999989
  0
CIRCLE
  8
1
 62
3
 10
-485.152886468138
 20
-7.105427357601002e-015
 30
0
 40
11.5
  0
CIRCLE
  8
1
 62
7
 10
-485.152886468138
 20
-7.105427357601002e-015
 30
0
 40
12.49999999999989
  0
CIRCLE
  8
1
 62
7
 10
-485.152886468138
 20
-7.105427357601002e-015
 30
0
 40
68
  0
CIRCLE
  8
1
 62
7
 10
-452.2439211243294
 20
-19.00000000000003
 30
0
 40
3.25
  0
CIRCLE
  8
1
 62
3
 10
-452.2439211243294
 20
-19.00000000000003
 30
0
 40
4
  0
CIRCLE
  8
1
 62
7
 10
-518.0618518119467
 20
-19.00000000000001
 30
0
 40
3.25
  0
CIRCLE
  8
1
 62
3
 10
-518.0618518119467
 20
-19.00000000000001
 30
0
 40
4
  0
CIRCLE
  8
1
 62
7
 10
-485.152886468138
 20
38
 30
0
 40
3.249999999999886
  0
CIRCLE
  8
1
 62
3
 10
-485.152886468138
 20
38
 30
0
 40
4
  0
CIRCLE
  8
1
 62
7
 10
-485.152886468138
 20
-7.105427357601002e-015
 30
0
 40
71
  0
CIRCLE
  8
1
 62
7
 10
-485.152886468138
 20
-7.105427357601002e-015
 30
0
 40
58.5
  0
TEXT
  8
1
 62
7
 10
-156.9640375472749
 20
-35.23748411339041
 30
0
 40
3.5
  1
BR
 41
0.8910000000000004
  7
SIMPLEX
  0
TEXT
  8
1
 62
7
 10
-176.9640375472749
 20
-35.23748411339041
 30
0
 40
3.5
  1
CL
 41
0.8910000000000004
  7
SIMPLEX
  0
TEXT
  8
1
 62
7
 10
-512.1528864681379
 20
255.8994295636758
 30
0
 40
10
  1
DC2404
 41
0.9
  7
SIMPLEX
  0
TEXT
  8
1
 62
7
 10
-512.1528864681379
 20
270.8994295636758
 30
0
 40
10
  1
TMAP 5
 41
0.9
  7
SIMPLEX
  0
ENDSEC
  0
EOF
