  0
SECTION
  2
HEADER
  9
$ACADVER
  1
AC1009
  9
$INSBASE
 10
0
 20
0
  9
$EXTMIN
 10
-697.1059344598
 20
-118.0000000000001
  9
$EXTMAX
 10
5.316518736723525
 20
405
  9
$LIMMIN
 10
-697.1059344598
 20
-118.0000000000001
  9
$LIMMAX
 10
5.316518736723525
 20
405
  9
$VIEWCTR
 10
10
 20
10
  9
$VIEWSIZE
 40
10
  9
$SNAPMODE
 70
0
  9
$SNAPUNIT
 10
1
 20
1
  9
$SNAPBASE
 10
0
 20
0
  9
$SNAPANG
 50
0
  9
$SNAPSTYLE
 70
0
  9
$SNAPISOPAIR
 70
0
  9
$GRIDMODE
 70
0
  9
$GRIDUNIT
 10
0
 20
0
  9
$ORTHOMODE
 70
0
  9
$REGENMODE
 70
1
  9
$FILLMODE
 70
1
  9
$QTEXTMODE
 70
0
  9
$DRAGMODE
 70
2
  9
$LTSCALE
 40
1
  9
$OSMODE
 70
0
  9
$ATTMODE
 70
1
  9
$TEXTSIZE
 40
3.5
  9
$TRACEWID
 40
0.5
  9
$TEXTSTYLE
  7
STANDARD
  9
$CLAYER
  8
0
  9
$CELTYPE
  6
BYLAYER
  9
$CECOLOR
 62
256
  9
$DIMSCALE
 40
1
  9
$DIMASZ
 40
0.18
  9
$DIMEXO
 40
0.0625
  9
$DIMDLI
 40
0.38
  9
$DIMRND
 40
0
  9
$DIMDLE
 40
0
  9
$DIMEXE
 40
0.18
  9
$DIMTP
 40
0
  9
$DIMTM
 40
0
  9
$DIMTXT
 40
0.18
  9
$DIMCEN
 40
0.09
  9
$DIMTSZ
 40
0
  9
$DIMTOL
 70
0
  9
$DIMLIM
 70
0
  9
$DIMTIH
 70
1
  9
$DIMTOH
 70
1
  9
$DIMSE1
 70
0
  9
$DIMSE2
 70
0
  9
$DIMTAD
 70
0
  9
$DIMZIN
 70
0
  9
$DIMBLK
  1

  9
$DIMASO
 70
1
  9
$DIMSHO
 70
1
  9
$DIMPOST
  1

  9
$DIMAPOST
  1

  9
$DIMALT
 70
0
  9
$DIMALTD
 70
2
  9
$DIMALTF
 40
25.4
  9
$DIMLFAC
 40
1
  9
$DIMTOFL
 70
0
  9
$DIMTVP
 40
0
  9
$DIMTIX
 70
0
  9
$DIMSOXD
 70
0
  9
$DIMSAH
 70
0
  9
$DIMBLK1
  1

  9
$DIMBLK2
  1

  9
$DIMSTYLE
  2
*UNNAMED
  9
$DIMCLRD
 70
0
  9
$DIMCLRE
 70
0
  9
$DIMCLRT
 70
0
  9
$DIMTFAC
 40
1
  9
$DIMGAP
 40
0.09
  9
$LUNITS
 70
2
  9
$LUPREC
 70
4
  9
$AXISMODE
 70
0
  9
$AXISUNIT
 10
0
 20
0
  9
$SKETCHINC
 40
0.1
  9
$FILLETRAD
 40
2
  9
$AUNITS
 70
0
  9
$AUPREC
 70
0
  9
$MENU
  1
ACAD
  9
$ELEVATION
 40
0
  9
$THICKNESS
 40
0
  9
$VIEWDIR
 10
0
 20
0
 30
1
  9
$LIMCHECK
 70
0
  9
$BLIPMODE
 70
1
  9
$CHAMFERA
 40
0
  9
$CHAMFERB
 40
0
  9
$FASTZOOM
 70
1
  9
$SKPOLY
 70
0
  9
$ANGBASE
 50
0
  9
$ANGDIR
 70
0
  9
$PDMODE
 70
0
  9
$PDSIZE
 40
0
  9
$PLINEWID
 40
0
  9
$COORDS
 70
2
  0
ENDSEC
  0
SECTION
  2
TABLES
  0
TABLE
  2
DIMSTYLE
 70
0
  0
ENDTAB
  0
TABLE
  2
LTYPE
 70
9
  0
LTYPE
  2
CONTINUOUS
 70
64
  3
Solid line
 72
65
 73
0
 40
0
  0
LTYPE
  2
BORDER
 70
64
  3
__ __ . __ __ .
 72
65
 73
6
 40
32.3484024498399
 49
9.242400699954256
 49
-4.621200349977128
 49
9.242400699954256
 49
-4.621200349977128
 49
0
 49
-4.621200349977128
  0
LTYPE
  2
CENTER
 70
64
  3
____ _ ____ _
 72
65
 73
4
 40
36.96960279981703
 49
23.10600174988564
 49
-4.621200349977128
 49
4.621200349977128
 49
-4.621200349977128
  0
LTYPE
  2
DASHDOT
 70
64
  3
__ . __ . __ .
 72
65
 73
4
 40
18.48480139990851
 49
9.242400699954256
 49
-4.621200349977128
 49
0
 49
-4.621200349977128
  0
LTYPE
  2
DASHED
 70
64
  3
__ __ __ __ __
 72
65
 73
2
 40
13.86360104993138
 49
9.242400699954256
 49
-4.621200349977128
  0
LTYPE
  2
DIVIDE
 70
64
  3
__ . . __ . . 
 72
65
 73
6
 40
23.10600174988564
 49
9.242400699954256
 49
-4.621200349977128
 49
0
 49
-4.621200349977128
 49
0
 49
-4.621200349977128
  0
LTYPE
  2
DOT
 70
64
  3
..............
 72
65
 73
4
 40
9.242400699954256
 49
0
 49
-4.621200349977128
 49
0
 49
-4.621200349977128
  0
LTYPE
  2
HIDDEN
 70
64
  3
_ _ _ _ _ _ _
 72
65
 73
2
 40
6.931800524965692
 49
4.621200349977128
 49
-2.310600174988564
  0
LTYPE
  2
PHANTOM
 70
64
  3
_____ _ _ _____ _ _ 
 72
65
 73
6
 40
46.21200349977129
 49
23.10600174988564
 49
-4.621200349977128
 49
4.621200349977128
 49
-4.621200349977128
 49
4.621200349977128
 49
-4.621200349977128
  0
ENDTAB
  0
TABLE
  2
LAYER
 70
3
  0
LAYER
  2
1
 70
0
 62
7
  6
CONTINUOUS
  0
LAYER
  2
0
 70
0
 62
7
  6
CONTINUOUS
  0
ENDTAB
  0
TABLE
  2
STYLE
 70
4
  0
STYLE
  2
STANDARD
 70
0
 40
0
 41
1
 50
0
 71
0
 42
3.5
  3
txt
  4

  0
STYLE
  2
SIMPLEX
 70
0
 40
0
 41
1
 50
0
 71
0
 42
3.5
  3
simplex
  4

  0
STYLE
  2
COMPLEX
 70
0
 40
0
 41
1
 50
0
 71
0
 42
3.5
  3
complex
  4

  0
STYLE
  2
ITALIC
 70
0
 40
0
 41
1
 50
0
 71
0
 42
3.5
  3
italic
  4

  0
ENDTAB
  0
TABLE
  2
VIEW
 70
0
  0
ENDTAB
  0
ENDSEC
  0
SECTION
  2
BLOCKS
  0
ENDSEC
  0
SECTION
  2
ENTITIES
  0
LINE
  8
1
 62
7
 10
-593.6059344598
 20
-67.85811682275084
 30
0
 11
-593.6059344598
 21
-63.70809924354785
 31
0
  0
LINE
  8
1
 62
7
 10
-593.6059344598
 20
-52.14188317724927
 30
0
 11
-593.6059344598
 21
-56.29190075645226
 31
0
  0
LINE
  8
1
 62
7
 10
-590.6059344598
 20
-56.29190075645226
 30
0
 11
-590.6059344598
 21
-52.14188317724927
 31
0
  0
LINE
  8
1
 62
7
 10
-590.6059344598
 20
-67.85811682275084
 30
0
 11
-590.6059344598
 21
-63.70809924354785
 31
0
  0
LINE
  8
1
 62
7
 10
-650.1227874812744
 20
35.22809651705211
 30
0
 11
-646.5287668315325
 21
33.15308772745061
 31
0
  0
LINE
  8
1
 62
7
 10
-636.5121298924581
 20
27.36997969430126
 30
0
 11
-640.1061505421999
 21
29.44498848390288
 31
0
  0
LINE
  8
1
 62
7
 10
-641.6061505422001
 20
26.8469122725495
 30
0
 11
-638.0121298924581
 21
24.77190348294801
 31
0
  0
LINE
  8
1
 62
7
 10
-651.6227874812744
 20
32.63002030569885
 30
0
 11
-648.0287668315326
 21
30.55501151609724
 31
0
  0
LINE
  8
1
 62
7
 10
-532.5890814383256
 20
32.63002030569874
 30
0
 11
-536.1831020880674
 21
30.55501151609724
 31
0
  0
LINE
  8
1
 62
7
 10
-546.1997390271417
 20
24.77190348294789
 30
0
 11
-542.6057183773999
 21
26.84691227254939
 31
0
  0
LINE
  8
1
 62
7
 10
-544.1057183773999
 20
29.44498848390288
 30
0
 11
-547.6997390271417
 21
27.36997969430126
 31
0
  0
LINE
  8
1
 62
7
 10
-534.0890814383256
 20
35.22809651705211
 30
0
 11
-537.6831020880674
 21
33.15308772745061
 31
0
  0
LINE
  8
1
 62
7
 10
-315.6834812632765
 20
232
 30
0
 11
-312.1834812632765
 21
232
 31
0
  0
LINE
  8
1
 62
7
 10
-315.6834812632765
 20
248
 30
0
 11
-312.1834812632765
 21
248
 31
0
  0
LINE
  8
1
 62
7
 10
-315.6834812632765
 20
226.5
 30
0
 11
-315.6834812632765
 21
373.5
 31
0
  0
LINE
  8
1
 62
7
 10
-315.6834812632765
 20
373.5
 30
0
 11
-336.6834812632765
 21
373.5
 31
0
  0
LINE
  8
1
 62
7
 10
-336.6834812632765
 20
226.5
 30
0
 11
-315.6834812632765
 21
226.5
 31
0
  0
LINE
  8
1
 62
7
 10
-355.6834812632765
 20
337.5
 30
0
 11
-355.6834812632765
 21
262.4999999999997
 31
0
  0
LINE
  8
1
 62
7
 10
-336.6834812632765
 20
262.4999999999997
 30
0
 11
-355.6834812632765
 21
262.4999999999997
 31
0
  0
LINE
  8
1
 62
7
 10
-336.6834812632765
 20
337.5
 30
0
 11
-355.6834812632765
 21
337.5
 31
0
  0
LINE
  8
1
 62
7
 10
-336.6834812632765
 20
373.5
 30
0
 11
-336.6834812632765
 21
226.5
 31
0
  0
LINE
  8
1
 62
7
 10
-365.6834812632765
 20
284.9999999999997
 30
0
 11
-365.6834812632765
 21
315
 31
0
  0
LINE
  8
1
 62
7
 10
-355.6834812632765
 20
319
 30
0
 11
-358.8589077438195
 21
324.5
 31
0
  0
LINE
  8
1
 62
7
 10
-358.8589077438195
 20
324.5
 30
0
 11
-359.8589077438195
 21
324.5
 31
0
  0
LINE
  8
1
 62
7
 10
-359.8589077438195
 20
324.5
 30
0
 11
-359.8589077438195
 21
275.4999999999997
 31
0
  0
LINE
  8
1
 62
7
 10
-359.8589077438195
 20
322.3606797749978
 30
0
 11
-363.6834812632765
 21
322.3606797749978
 31
0
  0
LINE
  8
1
 62
7
 10
-363.6834812632765
 20
322.3606797749978
 30
0
 11
-363.6834812632765
 21
277.6393202250019
 31
0
  0
LINE
  8
1
 62
7
 10
-365.6834812632765
 20
315
 30
0
 11
-363.6834812632765
 21
315
 31
0
  0
LINE
  8
1
 62
3
 10
-365.6834812632765
 20
313.5
 30
0
 11
-363.6834812632765
 21
313.5
 31
0
  0
LINE
  8
1
 62
7
 10
-358.8589077438195
 20
275.4999999999997
 30
0
 11
-355.6834812632765
 21
280.9999999999997
 31
0
  0
LINE
  8
1
 62
7
 10
-359.8589077438195
 20
275.4999999999997
 30
0
 11
-358.8589077438195
 21
275.4999999999997
 31
0
  0
LINE
  8
1
 62
7
 10
-363.6834812632765
 20
277.6393202250019
 30
0
 11
-359.8589077438195
 21
277.6393202250019
 31
0
  0
LINE
  8
1
 62
7
 10
-365.6834812632765
 20
284.9999999999997
 30
0
 11
-363.6834812632765
 21
284.9999999999997
 31
0
  0
LINE
  8
1
 62
3
 10
-365.6834812632765
 20
286.4999999999997
 30
0
 11
-363.6834812632765
 21
286.4999999999997
 31
0
  0
LINE
  8
1
 62
7
 10
-522.4813005042947
 20
69.62463395550515
 30
0
 11
-525.827365719246
 21
70.52120942767317
 31
0
  0
LINE
  8
1
 62
7
 10
-525.827365719246
 20
70.52120942767317
 30
0
 11
-528.2768554620291
 21
68.07171968489013
 31
0
  0
LINE
  8
1
 62
7
 10
-528.2768554620291
 20
68.07171968489013
 30
0
 11
-527.380279989861
 21
64.72565446993883
 31
0
  0
LINE
  8
1
 62
7
 10
-527.380279989861
 20
64.72565446993883
 30
0
 11
-524.0342147749099
 21
63.82907899777081
 31
0
  0
LINE
  8
1
 62
7
 10
-524.0342147749099
 20
63.82907899777081
 30
0
 11
-521.5847250321267
 21
66.27856874055397
 31
0
  0
LINE
  8
1
 62
7
 10
-521.5847250321267
 20
66.27856874055397
 30
0
 11
-522.4813005042947
 21
69.62463395550515
 31
0
  0
LINE
  8
1
 62
7
 10
-549.2456964763262
 20
78
 30
0
 11
-521.81368737664
 21
78
 31
0
  0
LINE
  8
1
 62
7
 10
-514.1059344597999
 20
70.29224708315985
 30
0
 11
-514.1059344597999
 21
42.86023798347367
 31
0
  0
LINE
  8
1
 62
7
 10
-661.7305684153051
 20
69.62463395550515
 30
0
 11
-662.6271438874732
 21
66.27856874055385
 31
0
  0
LINE
  8
1
 62
7
 10
-662.6271438874732
 20
66.27856874055385
 30
0
 11
-660.17765414469
 21
63.82907899777081
 31
0
  0
LINE
  8
1
 62
7
 10
-660.17765414469
 20
63.82907899777081
 30
0
 11
-656.8315889297387
 21
64.72565446993895
 31
0
  0
LINE
  8
1
 62
7
 10
-656.8315889297387
 20
64.72565446993895
 30
0
 11
-655.9350134575707
 21
68.07171968489013
 31
0
  0
LINE
  8
1
 62
7
 10
-655.9350134575707
 20
68.07171968489013
 30
0
 11
-658.3845032003538
 21
70.52120942767317
 31
0
  0
LINE
  8
1
 62
7
 10
-658.3845032003538
 20
70.52120942767317
 30
0
 11
-661.7305684153051
 21
69.62463395550515
 31
0
  0
LINE
  8
1
 62
7
 10
-670.1059344598
 20
42.86023798347367
 30
0
 11
-670.1059344598
 21
70.29224708315985
 31
0
  0
LINE
  8
1
 62
7
 10
-662.3981815429597
 20
78
 30
0
 11
-634.9661724432735
 21
78
 31
0
  0
LINE
  8
1
 62
7
 10
-661.7305684153051
 20
-69.62463395550526
 30
0
 11
-658.3845032003538
 21
-70.52120942767323
 31
0
  0
LINE
  8
1
 62
7
 10
-658.3845032003538
 20
-70.52120942767323
 30
0
 11
-655.9350134575707
 21
-68.07171968489007
 31
0
  0
LINE
  8
1
 62
7
 10
-655.9350134575707
 20
-68.07171968489007
 30
0
 11
-656.8315889297388
 21
-64.72565446993883
 31
0
  0
LINE
  8
1
 62
7
 10
-656.8315889297388
 20
-64.72565446993883
 30
0
 11
-660.17765414469
 21
-63.82907899777086
 31
0
  0
LINE
  8
1
 62
7
 10
-660.17765414469
 20
-63.82907899777086
 30
0
 11
-662.6271438874732
 21
-66.27856874055397
 31
0
  0
LINE
  8
1
 62
7
 10
-662.6271438874732
 20
-66.27856874055397
 30
0
 11
-661.7305684153051
 21
-69.62463395550526
 31
0
  0
LINE
  8
1
 62
7
 10
-634.9661724432737
 20
-78.00000000000006
 30
0
 11
-662.3981815429598
 21
-78.00000000000006
 31
0
  0
LINE
  8
1
 62
7
 10
-670.1059344598
 20
-70.29224708315985
 30
0
 11
-670.1059344598
 21
-42.86023798347367
 31
0
  0
LINE
  8
1
 62
7
 10
-522.4813005042947
 20
-69.62463395550526
 30
0
 11
-521.5847250321267
 21
-66.27856874055397
 31
0
  0
LINE
  8
1
 62
7
 10
-521.5847250321267
 20
-66.27856874055397
 30
0
 11
-524.0342147749099
 21
-63.82907899777086
 31
0
  0
LINE
  8
1
 62
7
 10
-524.0342147749099
 20
-63.82907899777086
 30
0
 11
-527.3802799898612
 21
-64.72565446993883
 31
0
  0
LINE
  8
1
 62
7
 10
-527.3802799898612
 20
-64.72565446993883
 30
0
 11
-528.2768554620291
 21
-68.07171968489013
 31
0
  0
LINE
  8
1
 62
7
 10
-528.2768554620291
 20
-68.07171968489013
 30
0
 11
-525.827365719246
 21
-70.52120942767323
 31
0
  0
LINE
  8
1
 62
7
 10
-525.827365719246
 20
-70.52120942767323
 30
0
 11
-522.4813005042947
 21
-69.62463395550526
 31
0
  0
LINE
  8
1
 62
7
 10
-514.1059344598
 20
-42.86023798347367
 30
0
 11
-514.1059344598
 21
-70.29224708315996
 31
0
  0
LINE
  8
1
 62
7
 10
-521.81368737664
 20
-78.00000000000006
 30
0
 11
-549.2456964763262
 21
-78.00000000000006
 31
0
  0
LINE
  8
1
 62
7
 10
-594.6059344598
 20
22.36067977499795
 30
0
 11
-594.6059344598
 21
20.5
 31
0
  0
LINE
  8
1
 62
7
 10
-594.6059344598
 20
20.5
 30
0
 11
-589.6059344598
 21
20.5
 31
0
  0
LINE
  8
1
 62
7
 10
-589.6059344598
 20
20.5
 30
0
 11
-589.6059344598
 21
22.36067977499795
 31
0
  0
LINE
  8
1
 62
7
 10
-614.4666142347978
 20
-2.5
 30
0
 11
-612.6059344598
 21
-2.5
 31
0
  0
LINE
  8
1
 62
7
 10
-612.6059344598
 20
-2.5
 30
0
 11
-612.6059344598
 21
2.5
 31
0
  0
LINE
  8
1
 62
7
 10
-612.6059344598
 20
2.5
 30
0
 11
-614.4666142347978
 21
2.5
 31
0
  0
LINE
  8
1
 62
7
 10
-589.6059344598
 20
-22.36067977499795
 30
0
 11
-589.6059344598
 21
-20.5
 31
0
  0
LINE
  8
1
 62
7
 10
-589.6059344598
 20
-20.5
 30
0
 11
-594.6059344598
 21
-20.5
 31
0
  0
LINE
  8
1
 62
7
 10
-594.6059344598
 20
-20.5
 30
0
 11
-594.6059344598
 21
-22.36067977499795
 31
0
  0
LINE
  8
1
 62
7
 10
-569.745254684802
 20
2.5
 30
0
 11
-571.6059344598
 21
2.5
 31
0
  0
LINE
  8
1
 62
7
 10
-571.6059344598
 20
2.5
 30
0
 11
-571.6059344598
 21
-2.5
 31
0
  0
LINE
  8
1
 62
7
 10
-571.6059344598
 20
-2.5
 30
0
 11
-569.745254684802
 21
-2.5
 31
0
  0
LINE
  8
1
 62
7
 10
-621.5168167995055
 20
84
 30
0
 11
-666.1059344598
 21
84
 31
0
  0
LINE
  8
1
 62
7
 10
-676.1059344598
 20
74
 30
0
 11
-676.1059344598
 21
29.41088233970549
 31
0
  0
LINE
  8
1
 62
7
 10
-662.1059344598
 20
-112.0000000000001
 30
0
 11
-662.1059344598
 21
-102.0000000000001
 31
0
  0
LINE
  8
1
 62
7
 10
-667.1059344598
 20
-97.00000000000006
 30
0
 11
-692.1059344598
 21
-97.00000000000006
 31
0
  0
LINE
  8
1
 62
7
 10
-697.1059344598
 20
-102.0000000000001
 30
0
 11
-697.1059344598
 21
-112.0000000000001
 31
0
  0
LINE
  8
1
 62
7
 10
-697.1059344598
 20
-112.0000000000001
 30
0
 11
-662.1059344598
 21
-112.0000000000001
 31
0
  0
LINE
  8
1
 62
7
 10
-527.1059344597998
 20
-105.0000000000001
 30
0
 11
-657.1059344598
 21
-105.0000000000001
 31
0
  0
LINE
  8
1
 62
7
 10
-676.1059344598
 20
-29.41088233970549
 30
0
 11
-676.1059344598
 21
-62.00000000000006
 31
0
  0
LINE
  8
1
 62
7
 10
-676.1059344598
 20
-62.00000000000006
 30
0
 11
-696.1624348778685
 21
-99.07685026756946
 31
0
  0
LINE
  8
1
 62
7
 10
-508.1059344597999
 20
-62.00000000000006
 30
0
 11
-508.1059344597999
 21
-29.41088233970549
 31
0
  0
LINE
  8
1
 62
7
 10
-488.0494340417313
 20
-99.07685026756946
 30
0
 11
-508.1059344597999
 21
-62.00000000000006
 31
0
  0
LINE
  8
1
 62
7
 10
-492.1059344597999
 20
-97.00000000000006
 30
0
 11
-517.1059344597999
 21
-97.00000000000006
 31
0
  0
LINE
  8
1
 62
7
 10
-487.1059344597999
 20
-112.0000000000001
 30
0
 11
-487.1059344597999
 21
-102.0000000000001
 31
0
  0
LINE
  8
1
 62
7
 10
-488.0494340417313
 20
-99.07685026756946
 30
0
 11
-508.1059344597999
 21
-62.00000000000006
 31
0
  0
LINE
  8
1
 62
7
 10
-522.1059344597998
 20
-102.0000000000001
 30
0
 11
-522.1059344597998
 21
-112.0000000000001
 31
0
  0
LINE
  8
1
 62
7
 10
-522.1059344597998
 20
-112.0000000000001
 30
0
 11
-487.1059344597999
 21
-112.0000000000001
 31
0
  0
LINE
  8
1
 62
7
 10
-518.1059344597998
 20
84
 30
0
 11
-562.6950521200943
 21
84
 31
0
  0
LINE
  8
1
 62
7
 10
-508.1059344597999
 20
29.41088233970549
 30
0
 11
-508.1059344597999
 21
74
 31
0
  0
LINE
  8
1
 62
3
  6
DASHDOT
 10
-682.1059344598
 20
-91.00000000000006
 30
0
 11
-682.1059344598
 21
-118.0000000000001
 31
0
  0
LINE
  8
1
 62
3
  6
DASHDOT
 10
-502.1059344598
 20
-118.0000000000001
 30
0
 11
-502.1059344598
 21
-91.00000000000006
 31
0
  0
LINE
  8
1
 62
7
 10
-260.6834812632765
 20
198
 30
0
 11
-260.6834812632765
 21
402
 31
0
  0
LINE
  8
1
 62
7
 10
-258.6834812632765
 20
384
 30
0
 11
-134.6834812632762
 21
384
 31
0
  0
LINE
  8
1
 62
7
 10
-263.6834812632765
 20
378
 30
0
 11
-268.5834812632763
 21
378
 31
0
  0
LINE
  8
1
 62
7
 10
-268.5834812632763
 20
221.9999999999997
 30
0
 11
-263.6834812632765
 21
221.9999999999997
 31
0
  0
LINE
  8
1
 62
7
 10
-132.6834812632762
 20
382
 30
0
 11
-132.6834812632762
 21
198
 31
0
  0
LINE
  8
1
 62
7
 10
-124.9834812632763
 20
378
 30
0
 11
-129.6834812632762
 21
378
 31
0
  0
LINE
  8
1
 62
7
 10
-129.6834812632762
 20
221.9999999999997
 30
0
 11
-124.9834812632763
 21
221.9999999999997
 31
0
  0
LINE
  8
1
 62
7
 10
-309.9834812632764
 20
385
 30
0
 11
-303.5834812632763
 21
385
 31
0
  0
LINE
  8
1
 62
7
 10
-309.9834812632764
 20
215
 30
0
 11
-309.9834812632764
 21
385
 31
0
  0
LINE
  8
1
 62
7
 10
-310.9834812632764
 20
216
 30
0
 11
-310.9834812632764
 21
360
 31
0
  0
LINE
  8
1
 62
7
 10
-311.1834812632765
 20
384
 30
0
 11
-309.9834812632764
 21
384
 31
0
  0
LINE
  8
1
 62
7
 10
-311.1834812632765
 20
363.8900338046737
 30
0
 11
-311.1834812632765
 21
384
 31
0
  0
LINE
  8
1
 62
7
 10
-312.1834812632765
 20
360.1579829971049
 30
0
 11
-311.1834812632765
 21
363.8900338046737
 31
0
  0
LINE
  8
1
 62
7
 10
-312.1834812632765
 20
216
 30
0
 11
-312.1834812632765
 21
360.1579829971049
 31
0
  0
LINE
  8
1
 62
7
 10
-310.9834812632764
 20
360
 30
0
 11
-309.9834812632764
 21
363.7320508075688
 31
0
  0
LINE
  8
1
 62
7
 10
-314.4834812632764
 20
382.5
 30
0
 11
-311.1834812632765
 21
382.5
 31
0
  0
LINE
  8
1
 62
7
 10
-314.9834812632764
 20
382
 30
0
 11
-314.9834812632764
 21
369
 31
0
  0
LINE
  8
1
 62
7
 10
-314.4834812632764
 20
368.5
 30
0
 11
-311.1834812632765
 21
368.5
 31
0
  0
LINE
  8
1
 62
7
 10
-312.1834812632765
 20
368.5
 30
0
 11
-312.1834812632765
 21
382.5
 31
0
  0
LINE
  8
1
 62
7
 10
-314.9834812632764
 20
369
 30
0
 11
-314.4834812632764
 21
368.5
 31
0
  0
LINE
  8
1
 62
7
 10
-314.4834812632764
 20
382.5
 30
0
 11
-314.9834812632764
 21
382
 31
0
  0
LINE
  8
1
 62
7
 10
-303.5834812632763
 20
215
 30
0
 11
-309.9834812632764
 21
215
 31
0
  0
LINE
  8
1
 62
7
 10
-312.1834812632765
 20
216
 30
0
 11
-310.9834812632764
 21
216
 31
0
  0
LINE
  8
1
 62
7
 10
-303.5834812632763
 20
385
 30
0
 11
-303.5834812632763
 21
215
 31
0
  0
LINE
  8
1
 62
7
 10
-298.1854050519231
 20
389
 30
0
 11
-300.7834812632764
 21
384.5
 31
0
  0
LINE
  8
1
 62
7
 10
-282.0834812632763
 20
384.3499999999999
 30
0
 11
-282.0834812632763
 21
384.5
 31
0
  0
LINE
  8
1
 62
7
 10
-276.5834812632763
 20
384.5
 30
0
 11
-282.0834812632763
 21
384.5
 31
0
  0
LINE
  8
1
 62
7
 10
-282.0834812632763
 20
215.5
 30
0
 11
-276.5834812632763
 21
215.5
 31
0
  0
LINE
  8
1
 62
7
 10
-282.0834812632763
 20
215.5
 30
0
 11
-282.0834812632763
 21
215.6499999999999
 31
0
  0
LINE
  8
1
 62
7
 10
-268.5834812632763
 20
378
 30
0
 11
-268.5834812632763
 21
221.9999999999997
 31
0
  0
LINE
  8
1
 62
7
 10
-284.7727889958371
 20
211
 30
0
 11
-284.7727889958371
 21
389
 31
0
  0
LINE
  8
1
 62
7
 10
-298.1854050519231
 20
389
 30
0
 11
-284.7727889958371
 21
389
 31
0
  0
LINE
  8
1
 62
7
 10
-303.2834812632764
 20
384.5
 30
0
 11
-300.7834812632764
 21
384.5
 31
0
  0
LINE
  8
1
 62
7
 10
-300.7834812632764
 20
215.5
 30
0
 11
-303.2834812632764
 21
215.5
 31
0
  0
LINE
  8
1
 62
7
 10
-284.7727889958371
 20
211
 30
0
 11
-298.1854050519231
 21
211
 31
0
  0
LINE
  8
1
 62
7
 10
-300.7834812632764
 20
215.5
 30
0
 11
-298.1854050519231
 21
211
 31
0
  0
LINE
  8
1
 62
7
 10
-303.2834812632764
 20
215.5
 30
0
 11
-303.2834812632764
 21
384.5
 31
0
  0
LINE
  8
1
 62
7
 10
-284.7727889958371
 20
384.3499999999999
 30
0
 11
-282.0834812632763
 21
384.3499999999999
 31
0
  0
LINE
  8
1
 62
7
 10
-284.7727889958371
 20
215.6499999999999
 30
0
 11
-282.0834812632763
 21
215.6499999999999
 31
0
  0
LINE
  8
1
 62
7
 10
-298.1854050519231
 20
389
 30
0
 11
-298.1854050519231
 21
211
 31
0
  0
LINE
  8
1
 62
7
 10
-300.7834812632764
 20
215.5
 30
0
 11
-300.7834812632764
 21
384.5
 31
0
  0
LINE
  8
1
 62
7
 10
-100.2834812632762
 20
215
 30
0
 11
-100.2834812632762
 21
385
 31
0
  0
LINE
  8
1
 62
7
 10
-93.88348126327607
 20
215
 30
0
 11
-100.2834812632762
 21
215
 31
0
  0
LINE
  8
1
 62
7
 10
-100.2834812632762
 20
385
 30
0
 11
-93.88348126327607
 21
385
 31
0
  0
LINE
  8
1
 62
7
 10
-118.6834812632762
 20
215.4999999999997
 30
0
 11
-100.5834812632761
 21
215.4999999999997
 31
0
  0
LINE
  8
1
 62
7
 10
-124.9834812632763
 20
381.4305172142483
 30
0
 11
-124.9834812632763
 21
218.5694827857515
 31
0
  0
LINE
  8
1
 62
7
 10
-100.5834812632761
 20
384.5
 30
0
 11
-118.6834812632762
 21
384.5
 31
0
  0
LINE
  8
1
 62
7
 10
-100.5834812632761
 20
384.5
 30
0
 11
-100.5834812632761
 21
215.4999999999997
 31
0
  0
LINE
  8
1
 62
7
 10
-127.6834812632762
 20
378
 30
0
 11
-127.6834812632762
 21
221.9999999999997
 31
0
  0
LINE
  8
1
 62
3
  6
DASHDOT
 10
-4.683481263276477
 20
300
 30
0
 11
5.316518736723525
 21
300
 31
0
  0
LINE
  8
1
 62
7
 10
-265.6834812632765
 20
378
 30
0
 11
-265.6834812632765
 21
221.9999999999997
 31
0
  0
LINE
  8
1
 62
3
  6
DASHDOT
 10
-375.6834812632765
 20
300
 30
0
 11
-365.6834812632765
 21
300
 31
0
  0
LINE
  8
1
 62
7
 10
-4.683481263276477
 20
285
 30
0
 11
-62.68348126327648
 21
285
 31
0
  0
LINE
  8
1
 62
7
 10
-4.683481263276477
 20
285
 30
0
 11
-4.683481263276477
 21
315
 31
0
  0
LINE
  8
1
 62
7
 10
-4.683481263276477
 20
315
 30
0
 11
-62.68348126327648
 21
315
 31
0
  0
LINE
  8
1
 62
7
 10
-62.68348126327648
 20
319
 30
0
 11
-64.8834812632763
 21
319
 31
0
  0
LINE
  8
1
 62
7
 10
-62.68348126327648
 20
281
 30
0
 11
-64.8834812632763
 21
281
 31
0
  0
LINE
  8
1
 62
7
 10
-62.68348126327648
 20
319
 30
0
 11
-62.68348126327648
 21
281
 31
0
  0
LINE
  8
1
 62
7
 10
-4.683481263276477
 20
303.5
 30
0
 11
-51.18348126327648
 21
303.5
 31
0
  0
LINE
  8
1
 62
7
 10
-51.18348126327648
 20
296.5
 30
0
 11
-4.683481263276477
 21
296.5
 31
0
  0
LINE
  8
1
 62
7
 10
-292.6834812632765
 20
211
 30
0
 11
-292.6834812632765
 21
200
 31
0
  0
LINE
  8
1
 62
7
 10
-100.6834812632762
 20
200
 30
0
 11
-100.6834812632762
 21
215.4999999999997
 31
0
  0
LINE
  8
1
 62
7
 10
-132.6834812632762
 20
381
 30
0
 11
-132.6834812632762
 21
402
 31
0
  0
LINE
  8
1
 62
7
 10
-292.6834812632765
 20
400
 30
0
 11
-292.6834812632765
 21
389
 31
0
  0
LINE
  8
1
 62
7
 10
-100.6834812632762
 20
400
 30
0
 11
-100.6834812632762
 21
384.5
 31
0
  0
LINE
  8
1
 62
7
 10
-287.6834812632765
 20
405
 30
0
 11
-105.6834812632762
 21
405
 31
0
  0
LINE
  8
1
 62
7
 10
-105.6834812632762
 20
195
 30
0
 11
-287.6834812632765
 21
195
 31
0
  0
LINE
  8
1
 62
7
 10
-134.6834812632762
 20
215.9999999999997
 30
0
 11
-258.6834812632765
 21
215.9999999999997
 31
0
  0
LINE
  8
1
 62
7
 10
-260.6834812632765
 20
198
 30
0
 11
-260.6834812632765
 21
218.9999999999997
 31
0
  0
LINE
  8
1
 62
7
 10
-490.1059344597999
 20
-24.85268917010842
 30
0
 11
-490.1059344597999
 21
-44.85268917010842
 31
0
  0
LINE
  8
1
 62
7
 10
-488.1059344597999
 20
-27.35268917010842
 30
0
 11
-488.1059344597999
 21
-32.35268917010842
 31
0
  0
LINE
  8
1
 62
7
 10
-508.1059344597999
 20
-44.85268917010842
 30
0
 11
-490.1059344597999
 21
-44.85268917010842
 31
0
  0
LINE
  8
1
 62
7
 10
-491.1059344597999
 20
-24.85268917010842
 30
0
 11
-491.1059344597999
 21
-44.85268917010842
 31
0
  0
LINE
  8
1
 62
7
 10
-488.1059344597999
 20
-27.35268917010842
 30
0
 11
-490.1059344597999
 21
-27.35268917010842
 31
0
  0
LINE
  8
1
 62
7
 10
-488.1059344597999
 20
-32.35268917010842
 30
0
 11
-490.1059344597999
 21
-32.35268917010842
 31
0
  0
LINE
  8
1
 62
7
 10
-505.6178640494383
 20
-24.85268917010842
 30
0
 11
-490.1059344597999
 21
-24.85268917010842
 31
0
  0
LINE
  8
1
 62
7
 10
-224.6834812632765
 20
215.9999999999997
 30
0
 11
-224.6834812632765
 21
199.142094206137
 31
0
  0
LINE
  8
1
 62
7
 10
-168.6834812632765
 20
215.9999999999997
 30
0
 11
-168.6834812632765
 21
199.142094206137
 31
0
  0
LINE
  8
1
 62
7
 10
-224.6834812632765
 20
199.142094206137
 30
0
 11
-168.6834812632765
 21
199.142094206137
 31
0
  0
LINE
  8
1
 62
7
 10
-66.68348126327625
 20
323
 30
0
 11
-64.8834812632763
 21
323
 31
0
  0
LINE
  8
1
 62
7
 10
-64.8834812632763
 20
323
 30
0
 11
-64.8834812632763
 21
277
 31
0
  0
LINE
  8
1
 62
7
 10
-64.8834812632763
 20
277
 30
0
 11
-66.68348126327625
 21
277
 31
0
  0
LINE
  8
1
 62
7
 10
-92.88348126327618
 20
360
 30
0
 11
-93.88348126327618
 21
360
 31
0
  0
LINE
  8
1
 62
7
 10
-85.38348126327618
 20
223.0000000000001
 30
0
 11
-85.38348126327618
 21
224.2500000000001
 31
0
  0
LINE
  8
1
 62
7
 10
-74.88348126327618
 20
351.5000000000002
 30
0
 11
-74.88348126327618
 21
223.0000000000001
 31
0
  0
LINE
  8
1
 62
7
 10
-92.88348126327618
 20
240
 30
0
 11
-93.88348126327618
 21
240
 31
0
  0
LINE
  8
1
 62
7
 10
-75.88348126327618
 20
352.5000000000002
 30
0
 11
-90.88348126327618
 21
352.5000000000002
 31
0
  0
LINE
  8
1
 62
7
 10
-67.68348126327625
 20
347.9578846350767
 30
0
 11
-73.88348126327618
 21
347.9578846350767
 31
0
  0
LINE
  8
1
 62
7
 10
-66.68348126327625
 20
265
 30
0
 11
-66.68348126327625
 21
346.9578846350767
 31
0
  0
LINE
  8
1
 62
7
 10
-67.68348126327625
 20
264
 30
0
 11
-73.88348126327618
 21
264
 31
0
  0
LINE
  8
1
 62
7
 10
-91.68348126327625
 20
232.0000000000001
 30
0
 11
-90.38348126327618
 21
232.0000000000001
 31
0
  0
LINE
  8
1
 62
7
 10
-91.68348126327625
 20
248
 30
0
 11
-90.38348126327618
 21
248
 31
0
  0
LINE
  8
1
 62
7
 10
-90.38348126327618
 20
226.2500000000001
 30
0
 11
-90.38348126327618
 21
263
 31
0
  0
LINE
  8
1
 62
7
 10
-86.38348126327618
 20
225.2500000000001
 30
0
 11
-89.38348126327618
 21
225.2500000000001
 31
0
  0
LINE
  8
1
 62
7
 10
-75.88348126327618
 20
222.0000000000001
 30
0
 11
-84.38348126327618
 21
222.0000000000001
 31
0
  0
LINE
  8
1
 62
7
 10
-67.88348126327617
 20
225.2500000000001
 30
0
 11
-73.88348126327618
 21
225.2500000000001
 31
0
  0
LINE
  8
1
 62
7
 10
-66.88348126327617
 20
253.7500000000001
 30
0
 11
-66.88348126327617
 21
226.2500000000001
 31
0
  0
LINE
  8
1
 62
7
 10
-73.88348126327618
 20
254.7500000000001
 30
0
 11
-67.88348126327617
 21
254.7500000000001
 31
0
  0
LINE
  8
1
 62
7
 10
-92.88348126327618
 20
226.6701834305995
 30
0
 11
-91.68348126327625
 21
226.6701834305995
 31
0
  0
LINE
  8
1
 62
7
 10
-92.88348126327618
 20
250.5
 30
0
 11
-91.68348126327625
 21
250.5
 31
0
  0
LINE
  8
1
 62
7
 10
-92.88348126327618
 20
360
 30
0
 11
-92.88348126327618
 21
216.0000000000001
 31
0
  0
LINE
  8
1
 62
7
 10
-93.88348126327618
 20
384
 30
0
 11
-92.68348126327625
 21
384
 31
0
  0
LINE
  8
1
 62
7
 10
-92.68348126327625
 20
384
 30
0
 11
-92.68348126327625
 21
363.8900338046739
 31
0
  0
LINE
  8
1
 62
7
 10
-92.68348126327625
 20
363.8900338046739
 30
0
 11
-91.68348126327625
 21
360.1579829971051
 31
0
  0
LINE
  8
1
 62
7
 10
-91.68348126327625
 20
360.1579829971051
 30
0
 11
-91.68348126327625
 21
216.0000000000001
 31
0
  0
LINE
  8
1
 62
7
 10
-93.88348126327618
 20
363.7320508075689
 30
0
 11
-92.88348126327618
 21
360
 31
0
  0
LINE
  8
1
 62
7
 10
-92.68348126327625
 20
382.5
 30
0
 11
-89.38348126327618
 21
382.5
 31
0
  0
LINE
  8
1
 62
7
 10
-88.88348126327618
 20
369
 30
0
 11
-88.88348126327618
 21
382
 31
0
  0
LINE
  8
1
 62
7
 10
-92.68348126327625
 20
368.5
 30
0
 11
-89.38348126327618
 21
368.5
 31
0
  0
LINE
  8
1
 62
7
 10
-91.68348126327625
 20
382.5
 30
0
 11
-91.68348126327625
 21
368.5
 31
0
  0
LINE
  8
1
 62
7
 10
-89.38348126327618
 20
368.5
 30
0
 11
-88.88348126327618
 21
369
 31
0
  0
LINE
  8
1
 62
7
 10
-88.88348126327618
 20
382
 30
0
 11
-89.38348126327618
 21
382.5
 31
0
  0
LINE
  8
1
 62
7
 10
-92.88348126327618
 20
216.0000000000001
 30
0
 11
-91.68348126327625
 21
216.0000000000001
 31
0
  0
LINE
  8
1
 62
7
 10
-93.88348126327607
 20
385
 30
0
 11
-93.88348126327607
 21
215
 31
0
  0
LINE
  8
1
 62
7
 10
-91.38348126327618
 20
352.0000000000002
 30
0
 11
-91.38348126327618
 21
337.0000000000002
 31
0
  0
LINE
  8
1
 62
3
  6
DASHDOT
 10
-592.1059344598
 20
10
 30
0
 11
-592.1059344598
 21
-9.999999999999998
 31
0
  0
LINE
  8
1
 62
3
  6
DASHDOT
 10
-582.1059344598
 20
0
 30
0
 11
-602.1059344598
 21
0
 31
0
  0
LINE
  8
1
 62
7
  6
DASHED
 10
-687.6059344598
 20
-97.00000000000006
 30
0
 11
-687.6059344598
 21
-112.0000000000001
 31
0
  0
LINE
  8
1
 62
7
  6
DASHED
 10
-676.6059344598
 20
-112.0000000000001
 30
0
 11
-676.6059344598
 21
-97.00000000000006
 31
0
  0
LINE
  8
1
 62
7
  6
DASHED
 10
-507.6059344598
 20
-97.00000000000006
 30
0
 11
-507.6059344598
 21
-112.0000000000001
 31
0
  0
LINE
  8
1
 62
7
  6
DASHED
 10
-496.6059344598
 20
-112.0000000000001
 30
0
 11
-496.6059344598
 21
-97.00000000000006
 31
0
  0
LINE
  8
1
 62
3
  6
DASHDOT
 10
-592.1059344598
 20
61.00000000000023
 30
0
 11
-592.1059344598
 21
38.99999999999977
 31
0
  0
LINE
  8
1
 62
3
  6
DASHDOT
 10
-644.933484090651
 20
-30.50000000000011
 30
0
 11
-625.8809252073929
 21
-19.49999999999989
 31
0
  0
LINE
  8
1
 62
3
  6
DASHDOT
 10
-539.278384828949
 20
-30.50000000000011
 30
0
 11
-558.330943712207
 21
-19.49999999999989
 31
0
  0
LINE
  8
1
 62
3
  6
DASHDOT
 10
-277.6834812632765
 20
381.5000000000001
 30
0
 11
-277.6834812632765
 21
398.5
 31
0
  0
LINE
  8
1
 62
3
  6
DASHDOT
 10
-269.1834812632765
 20
390
 30
0
 11
-286.1834812632765
 21
390.0000000000001
 31
0
  0
LINE
  8
1
 62
3
  6
DASHDOT
 10
-286.1834812632765
 20
209.9999999999999
 30
0
 11
-269.1834812632765
 21
210
 31
0
  0
LINE
  8
1
 62
3
  6
DASHDOT
 10
-277.6834812632765
 20
201.5
 30
0
 11
-277.6834812632765
 21
218.4999999999999
 31
0
  0
LINE
  8
1
 62
3
  6
DASHDOT
 10
-115.6834812632764
 20
398.5
 30
0
 11
-115.6834812632764
 21
381.5000000000001
 31
0
  0
LINE
  8
1
 62
3
  6
DASHDOT
 10
-107.1834812632764
 20
390.0000000000001
 30
0
 11
-124.1834812632764
 21
390
 31
0
  0
LINE
  8
1
 62
3
  6
DASHDOT
 10
-124.1834812632764
 20
210
 30
0
 11
-107.1834812632764
 21
209.9999999999999
 31
0
  0
LINE
  8
1
 62
3
  6
DASHDOT
 10
-115.6834812632764
 20
218.4999999999999
 30
0
 11
-115.6834812632764
 21
201.5
 31
0
  0
LINE
  8
1
 62
7
 10
-91.38348126327618
 20
264
 30
0
 11
-91.68348126327625
 21
264
 31
0
  0
LINE
  8
1
 62
3
  6
DASHDOT
 10
-339.6834812632765
 20
50
 30
0
 11
-312.6834812632765
 21
50
 31
0
  0
LINE
  8
1
 62
7
  6
DASHED
 10
-315.6834812632765
 20
46
 30
0
 11
-336.6834812632765
 21
46
 31
0
  0
LINE
  8
1
 62
7
  6
DASHED
 10
-336.6834812632765
 20
54
 30
0
 11
-315.6834812632765
 21
54
 31
0
  0
LINE
  8
1
 62
3
  6
DASHED
 10
-315.6834812632765
 20
45
 30
0
 11
-336.6834812632765
 21
45
 31
0
  0
LINE
  8
1
 62
3
  6
DASHED
 10
-336.6834812632765
 20
55
 30
0
 11
-315.6834812632765
 21
55
 31
0
  0
LINE
  8
1
 62
3
  6
DASHED
 10
-20.68348126327648
 20
4.000000000000002
 30
0
 11
-22.06912190933158
 21
3.200000000000002
 31
0
  0
LINE
  8
1
 62
3
  6
DASHED
 10
-20.68348126327648
 20
-3.999999999999998
 30
0
 11
-22.06912190933158
 21
-3.199999999999998
 31
0
  0
LINE
  8
1
 62
3
  6
DASHED
 10
-20.68348126327648
 20
4.000000000000002
 30
0
 11
-4.683481263276476
 21
4
 31
0
  0
LINE
  8
1
 62
7
  6
DASHED
 10
-20.68348126327648
 20
-3.999999999999998
 30
0
 11
-20.68348126327648
 21
4.000000000000002
 31
0
  0
LINE
  8
1
 62
3
  6
DASHED
 10
-4.683481263276478
 20
-4
 30
0
 11
-20.68348126327648
 21
-3.999999999999998
 31
0
  0
LINE
  8
1
 62
7
  6
DASHED
 10
-29.39288234003498
 20
3.025928955774395e-015
 30
0
 11
-27.08348126327648
 21
3.200000000000003
 31
0
  0
LINE
  8
1
 62
7
  6
DASHED
 10
-27.08348126327648
 20
-3.199999999999998
 30
0
 11
-29.39288234003498
 21
3.025928955774395e-015
 31
0
  0
LINE
  8
1
 62
7
  6
DASHED
 10
-27.08348126327648
 20
3.200000000000003
 30
0
 11
-4.683481263276477
 21
3.2
 31
0
  0
LINE
  8
1
 62
7
  6
DASHED
 10
-27.08348126327648
 20
-3.199999999999998
 30
0
 11
-27.08348126327648
 21
3.200000000000003
 31
0
  0
LINE
  8
1
 62
7
  6
DASHED
 10
-4.683481263276477
 20
-3.199999999999932
 30
0
 11
-27.08348126327648
 21
-3.199999999999998
 31
0
  0
LINE
  8
1
 62
7
 10
-91.38348126327618
 20
-36.00000000000006
 30
0
 11
-91.68348126327625
 21
-36.00000000000006
 31
0
  0
LINE
  8
1
 62
7
  6
DASHED
 10
-283.1834812632765
 20
-97.00000000000006
 30
0
 11
-283.1834812632765
 21
-112.0000000000001
 31
0
  0
LINE
  8
1
 62
7
  6
DASHED
 10
-272.1834812632765
 20
-112.0000000000001
 30
0
 11
-272.1834812632765
 21
-97.00000000000006
 31
0
  0
LINE
  8
1
 62
7
  6
DASHED
 10
-121.1834812632762
 20
-112.0000000000001
 30
0
 11
-121.1834812632762
 21
-97.00000000000006
 31
0
  0
LINE
  8
1
 62
7
  6
DASHED
 10
-110.1834812632762
 20
-97.00000000000006
 30
0
 11
-110.1834812632762
 21
-112.0000000000001
 31
0
  0
LINE
  8
1
 62
7
 10
-91.38348126327618
 20
52.00000000000023
 30
0
 11
-91.38348126327618
 21
37.00000000000023
 31
0
  0
LINE
  8
1
 62
7
 10
-93.88348126327607
 20
85
 30
0
 11
-93.88348126327607
 21
-84.99999999999994
 31
0
  0
LINE
  8
1
 62
7
 10
-92.88348126327618
 20
-83.99999999999983
 30
0
 11
-91.68348126327625
 21
-83.99999999999983
 31
0
  0
LINE
  8
1
 62
7
 10
-88.88348126327618
 20
82
 30
0
 11
-89.38348126327618
 21
82.5
 31
0
  0
LINE
  8
1
 62
7
 10
-89.38348126327618
 20
68.5
 30
0
 11
-88.88348126327618
 21
69
 31
0
  0
LINE
  8
1
 62
7
 10
-91.68348126327625
 20
82.5
 30
0
 11
-91.68348126327625
 21
68.5
 31
0
  0
LINE
  8
1
 62
7
 10
-92.68348126327625
 20
68.5
 30
0
 11
-89.38348126327618
 21
68.5
 31
0
  0
LINE
  8
1
 62
7
 10
-88.88348126327618
 20
69
 30
0
 11
-88.88348126327618
 21
82
 31
0
  0
LINE
  8
1
 62
7
 10
-92.68348126327625
 20
82.5
 30
0
 11
-89.38348126327618
 21
82.5
 31
0
  0
LINE
  8
1
 62
7
 10
-93.88348126327618
 20
63.73205080756895
 30
0
 11
-92.88348126327618
 21
60
 31
0
  0
LINE
  8
1
 62
7
 10
-91.68348126327625
 20
60.15798299710514
 30
0
 11
-91.68348126327625
 21
-83.99999999999983
 31
0
  0
LINE
  8
1
 62
7
 10
-92.68348126327625
 20
63.89003380467398
 30
0
 11
-91.68348126327625
 21
60.15798299710514
 31
0
  0
LINE
  8
1
 62
7
 10
-92.68348126327625
 20
84
 30
0
 11
-92.68348126327625
 21
63.89003380467398
 31
0
  0
LINE
  8
1
 62
7
 10
-93.88348126327618
 20
84
 30
0
 11
-92.68348126327625
 21
84
 31
0
  0
LINE
  8
1
 62
7
 10
-92.88348126327618
 20
60
 30
0
 11
-92.88348126327618
 21
-83.99999999999983
 31
0
  0
LINE
  8
1
 62
7
 10
-92.88348126327618
 20
-49.50000000000006
 30
0
 11
-91.68348126327625
 21
-49.50000000000006
 31
0
  0
LINE
  8
1
 62
7
 10
-92.88348126327618
 20
-73.32981656940046
 30
0
 11
-91.68348126327625
 21
-73.32981656940046
 31
0
  0
LINE
  8
1
 62
7
 10
-73.88348126327618
 20
-45.24999999999983
 30
0
 11
-67.88348126327617
 21
-45.24999999999983
 31
0
  0
LINE
  8
1
 62
7
 10
-66.88348126327617
 20
-46.24999999999983
 30
0
 11
-66.88348126327617
 21
-73.74999999999983
 31
0
  0
LINE
  8
1
 62
7
 10
-67.88348126327617
 20
-74.74999999999983
 30
0
 11
-73.88348126327618
 21
-74.74999999999983
 31
0
  0
LINE
  8
1
 62
7
 10
-75.88348126327618
 20
-77.99999999999983
 30
0
 11
-84.38348126327618
 21
-77.99999999999983
 31
0
  0
LINE
  8
1
 62
7
 10
-86.38348126327618
 20
-74.74999999999983
 30
0
 11
-89.38348126327618
 21
-74.74999999999983
 31
0
  0
LINE
  8
1
 62
7
 10
-90.38348126327618
 20
-73.74999999999983
 30
0
 11
-90.38348126327618
 21
-37.00000000000006
 31
0
  0
LINE
  8
1
 62
7
 10
-91.68348126327625
 20
-52.00000000000006
 30
0
 11
-90.38348126327618
 21
-52.00000000000006
 31
0
  0
LINE
  8
1
 62
7
 10
-91.68348126327625
 20
-67.99999999999983
 30
0
 11
-90.38348126327618
 21
-67.99999999999983
 31
0
  0
LINE
  8
1
 62
7
 10
-67.68348126327625
 20
-36.00000000000006
 30
0
 11
-73.88348126327618
 21
-36.00000000000006
 31
0
  0
LINE
  8
1
 62
7
 10
-66.68348126327625
 20
-35.00000000000006
 30
0
 11
-66.68348126327625
 21
46.95788463507677
 31
0
  0
LINE
  8
1
 62
7
 10
-67.68348126327625
 20
47.95788463507677
 30
0
 11
-73.88348126327618
 21
47.95788463507677
 31
0
  0
LINE
  8
1
 62
7
 10
-75.88348126327618
 20
52.50000000000023
 30
0
 11
-90.88348126327618
 21
52.50000000000023
 31
0
  0
LINE
  8
1
 62
7
 10
-92.88348126327618
 20
-60.00000000000006
 30
0
 11
-93.88348126327618
 21
-60.00000000000006
 31
0
  0
LINE
  8
1
 62
7
 10
-74.88348126327618
 20
51.50000000000023
 30
0
 11
-74.88348126327618
 21
-76.99999999999983
 31
0
  0
LINE
  8
1
 62
7
 10
-85.38348126327618
 20
-76.99999999999983
 30
0
 11
-85.38348126327618
 21
-75.74999999999983
 31
0
  0
LINE
  8
1
 62
7
 10
-92.88348126327618
 20
60
 30
0
 11
-93.88348126327618
 21
60
 31
0
  0
LINE
  8
1
 62
7
 10
-64.8834812632763
 20
-23
 30
0
 11
-66.68348126327625
 21
-23
 31
0
  0
LINE
  8
1
 62
7
 10
-64.8834812632763
 20
23
 30
0
 11
-64.8834812632763
 21
-23
 31
0
  0
LINE
  8
1
 62
7
 10
-66.68348126327625
 20
23
 30
0
 11
-64.8834812632763
 21
23
 31
0
  0
LINE
  8
1
 62
7
 10
-180.7093031858382
 20
-19
 30
0
 11
-180.7093031858382
 21
-24.85268917010842
 31
0
  0
LINE
  8
1
 62
7
 10
-182.7093031858382
 20
-19
 30
0
 11
-182.7093031858382
 21
-24.85268917010842
 31
0
  0
LINE
  8
1
 62
7
 10
-189.7093031858382
 20
-10
 30
0
 11
-195.7093031858384
 21
-10
 31
0
  0
LINE
  8
1
 62
7
 10
-189.7093031858382
 20
-12
 30
0
 11
-195.7093031858384
 21
-12
 31
0
  0
LINE
  8
1
 62
7
 10
-190.7093031858382
 20
-16.89999999999998
 30
0
 11
-190.7093031858382
 21
-24.85268917010842
 31
0
  0
LINE
  8
1
 62
7
 10
-192.7093031858382
 20
-17
 30
0
 11
-192.7093031858382
 21
-24.85268917010842
 31
0
  0
LINE
  8
1
 62
7
 10
-212.7093031858384
 20
-19
 30
0
 11
-212.7093031858384
 21
-24.85268917010842
 31
0
  0
LINE
  8
1
 62
7
 10
-210.7093031858384
 20
-19
 30
0
 11
-210.7093031858384
 21
-24.85268917010842
 31
0
  0
LINE
  8
1
 62
7
 10
-197.7093031858384
 20
-10
 30
0
 11
-203.7093031858384
 21
-10
 31
0
  0
LINE
  8
1
 62
7
 10
-197.7093031858384
 20
-12
 30
0
 11
-203.7093031858384
 21
-12
 31
0
  0
LINE
  8
1
 62
7
 10
-202.7093031858384
 20
-16.89999999999998
 30
0
 11
-202.7093031858384
 21
-24.85268917010842
 31
0
  0
LINE
  8
1
 62
7
 10
-200.7093031858384
 20
-17
 30
0
 11
-200.7093031858384
 21
-24.85268917010842
 31
0
  0
LINE
  8
1
 62
7
 10
-224.7093031858384
 20
-44.85268917010842
 30
0
 11
-224.7093031858384
 21
-24.85268917010842
 31
0
  0
LINE
  8
1
 62
7
 10
-220.4468031858383
 20
-28.10268917010842
 30
0
 11
-220.9718031858384
 21
-28.10268917010842
 31
0
  0
LINE
  8
1
 62
7
 10
-222.4593031858384
 20
-29.59018917010837
 30
0
 11
-222.4593031858384
 21
-30.11518917010847
 31
0
  0
LINE
  8
1
 62
7
 10
-220.9718031858384
 20
-31.60268917010842
 30
0
 11
-220.4468031858383
 21
-31.60268917010842
 31
0
  0
LINE
  8
1
 62
7
 10
-218.9593031858384
 20
-30.11518917010847
 30
0
 11
-218.9593031858384
 21
-29.59018917010837
 31
0
  0
LINE
  8
1
 62
7
 10
-200.2862507887006
 20
-38.80086783309332
 30
0
 11
-200.6574818488233
 21
-38.42963677297053
 31
0
  0
LINE
  8
1
 62
7
 10
-202.7611245228535
 20
-38.42963677297053
 30
0
 11
-203.1323555829764
 21
-38.80086783309332
 31
0
  0
LINE
  8
1
 62
7
 10
-203.1323555829764
 20
-40.90451050712346
 30
0
 11
-202.7611245228535
 21
-41.27574156724637
 31
0
  0
LINE
  8
1
 62
7
 10
-200.6574818488233
 20
-41.27574156724637
 30
0
 11
-200.2862507887006
 21
-40.90451050712346
 31
0
  0
LINE
  8
1
 62
7
 10
-210.2862507887006
 20
-38.80086783309332
 30
0
 11
-210.6574818488233
 21
-38.42963677297053
 31
0
  0
LINE
  8
1
 62
7
 10
-212.7611245228535
 20
-38.42963677297053
 30
0
 11
-213.1323555829764
 21
-38.80086783309332
 31
0
  0
LINE
  8
1
 62
7
 10
-213.1323555829764
 20
-40.90451050712346
 30
0
 11
-212.7611245228535
 21
-41.27574156724637
 31
0
  0
LINE
  8
1
 62
7
 10
-210.6574818488233
 20
-41.27574156724637
 30
0
 11
-210.2862507887006
 21
-40.90451050712346
 31
0
  0
LINE
  8
1
 62
7
 10
-205.7093031858384
 20
-44.85268917010842
 30
0
 11
-205.7093031858384
 21
-35.85268917010842
 31
0
  0
LINE
  8
1
 62
7
 10
-205.7093031858384
 20
-35.85268917010842
 30
0
 11
-197.7093031858384
 21
-35.85268917010842
 31
0
  0
LINE
  8
1
 62
7
 10
-197.7093031858384
 20
-35.85268917010842
 30
0
 11
-197.7093031858384
 21
-44.85268917010842
 31
0
  0
LINE
  8
1
 62
7
 10
-207.7093031858384
 20
-44.85268917010842
 30
0
 11
-207.7093031858384
 21
-35.85268917010842
 31
0
  0
LINE
  8
1
 62
7
 10
-207.7093031858384
 20
-35.85268917010842
 30
0
 11
-215.7093031858384
 21
-35.85268917010842
 31
0
  0
LINE
  8
1
 62
7
 10
-215.7093031858384
 20
-35.85268917010842
 30
0
 11
-215.7093031858384
 21
-44.85268917010842
 31
0
  0
LINE
  8
1
 62
7
 10
-168.7093031858384
 20
-44.85268917010842
 30
0
 11
-224.7093031858384
 21
-44.85268917010842
 31
0
  0
LINE
  8
1
 62
7
 10
-168.7093031858384
 20
-24.85268917010842
 30
0
 11
-168.7093031858384
 21
-44.85268917010842
 31
0
  0
LINE
  8
1
 62
7
 10
-224.7093031858384
 20
-24.85268917010842
 30
0
 11
-168.7093031858384
 21
-24.85268917010842
 31
0
  0
LINE
  8
1
 62
7
 10
-172.4468031858383
 20
-28.10268917010842
 30
0
 11
-172.9718031858384
 21
-28.10268917010842
 31
0
  0
LINE
  8
1
 62
7
 10
-170.9593031858384
 20
-30.11518917010847
 30
0
 11
-170.9593031858384
 21
-29.59018917010837
 31
0
  0
LINE
  8
1
 62
7
 10
-172.9718031858384
 20
-31.60268917010842
 30
0
 11
-172.4468031858383
 21
-31.60268917010842
 31
0
  0
LINE
  8
1
 62
7
 10
-174.4593031858384
 20
-29.59018917010837
 30
0
 11
-174.4593031858384
 21
-30.11518917010847
 31
0
  0
LINE
  8
1
 62
7
 10
-192.7611245228533
 20
-38.42963677297053
 30
0
 11
-193.1323555829764
 21
-38.80086783309332
 31
0
  0
LINE
  8
1
 62
7
 10
-190.2862507887004
 20
-38.80086783309332
 30
0
 11
-190.6574818488233
 21
-38.42963677297053
 31
0
  0
LINE
  8
1
 62
7
 10
-190.6574818488233
 20
-41.27574156724637
 30
0
 11
-190.2862507887004
 21
-40.90451050712346
 31
0
  0
LINE
  8
1
 62
7
 10
-193.1323555829764
 20
-40.90451050712346
 30
0
 11
-192.7611245228533
 21
-41.27574156724637
 31
0
  0
LINE
  8
1
 62
7
 10
-182.7611245228533
 20
-38.42963677297053
 30
0
 11
-183.1323555829764
 21
-38.80086783309332
 31
0
  0
LINE
  8
1
 62
7
 10
-180.2862507887004
 20
-38.80086783309332
 30
0
 11
-180.6574818488233
 21
-38.42963677297053
 31
0
  0
LINE
  8
1
 62
7
 10
-180.6574818488233
 20
-41.27574156724637
 30
0
 11
-180.2862507887004
 21
-40.90451050712346
 31
0
  0
LINE
  8
1
 62
7
 10
-183.1323555829764
 20
-40.90451050712346
 30
0
 11
-182.7611245228533
 21
-41.27574156724637
 31
0
  0
LINE
  8
1
 62
7
 10
-187.7093031858384
 20
-35.85268917010842
 30
0
 11
-187.7093031858384
 21
-44.85268917010842
 31
0
  0
LINE
  8
1
 62
7
 10
-195.7093031858384
 20
-35.85268917010842
 30
0
 11
-187.7093031858384
 21
-35.85268917010842
 31
0
  0
LINE
  8
1
 62
7
 10
-195.7093031858384
 20
-44.85268917010842
 30
0
 11
-195.7093031858384
 21
-35.85268917010842
 31
0
  0
LINE
  8
1
 62
7
 10
-185.7093031858384
 20
-35.85268917010842
 30
0
 11
-185.7093031858384
 21
-44.85268917010842
 31
0
  0
LINE
  8
1
 62
7
 10
-177.7093031858384
 20
-35.85268917010842
 30
0
 11
-185.7093031858384
 21
-35.85268917010842
 31
0
  0
LINE
  8
1
 62
7
 10
-177.7093031858384
 20
-44.85268917010842
 30
0
 11
-177.7093031858384
 21
-35.85268917010842
 31
0
  0
LINE
  8
1
 62
7
 10
-54.68348126327648
 20
18
 30
0
 11
-54.68348126327648
 21
15
 31
0
  0
LINE
  8
1
 62
7
 10
-4.683481263276477
 20
18
 30
0
 11
-54.68348126327648
 21
18
 31
0
  0
LINE
  8
1
 62
7
 10
-62.68348126327648
 20
19
 30
0
 11
-62.68348126327648
 21
-19
 31
0
  0
LINE
  8
1
 62
7
 10
-62.68348126327648
 20
-19
 30
0
 11
-64.8834812632763
 21
-19
 31
0
  0
LINE
  8
1
 62
7
 10
-62.68348126327648
 20
19
 30
0
 11
-64.8834812632763
 21
19
 31
0
  0
LINE
  8
1
 62
7
 10
-4.683481263276477
 20
15
 30
0
 11
-62.68348126327648
 21
15
 31
0
  0
LINE
  8
1
 62
7
 10
-4.683481263276477
 20
-15
 30
0
 11
-4.683481263276477
 21
18
 31
0
  0
LINE
  8
1
 62
7
 10
-4.683481263276477
 20
-15
 30
0
 11
-62.68348126327648
 21
-15
 31
0
  0
LINE
  8
1
 62
3
 10
-375.6834812632765
 20
0
 30
0
 11
-365.6834812632765
 21
0
 31
0
  0
LINE
  8
1
 62
3
 10
-365.6834812632765
 20
-13.50000000000011
 30
0
 11
-363.6834812632765
 21
-13.50000000000011
 31
0
  0
LINE
  8
1
 62
7
 10
-365.6834812632765
 20
-15.00000000000011
 30
0
 11
-363.6834812632765
 21
-15.00000000000011
 31
0
  0
LINE
  8
1
 62
7
 10
-363.6834812632765
 20
-22.36067977499795
 30
0
 11
-359.8589077438195
 21
-22.36067977499795
 31
0
  0
LINE
  8
1
 62
7
 10
-359.8589077438195
 20
-24.50000000000011
 30
0
 11
-358.8589077438195
 21
-24.50000000000011
 31
0
  0
LINE
  8
1
 62
7
 10
-358.8589077438195
 20
-24.50000000000011
 30
0
 11
-355.6834812632765
 21
-19.00000000000011
 31
0
  0
LINE
  8
1
 62
3
 10
-365.6834812632765
 20
13.5
 30
0
 11
-363.6834812632765
 21
13.5
 31
0
  0
LINE
  8
1
 62
7
 10
-365.6834812632765
 20
15
 30
0
 11
-363.6834812632765
 21
15
 31
0
  0
LINE
  8
1
 62
7
 10
-363.6834812632765
 20
22.36067977499795
 30
0
 11
-363.6834812632765
 21
-22.36067977499795
 31
0
  0
LINE
  8
1
 62
7
 10
-359.8589077438195
 20
22.36067977499795
 30
0
 11
-363.6834812632765
 21
22.36067977499795
 31
0
  0
LINE
  8
1
 62
7
 10
-359.8589077438195
 20
24.5
 30
0
 11
-359.8589077438195
 21
-24.50000000000011
 31
0
  0
LINE
  8
1
 62
7
 10
-358.8589077438195
 20
24.5
 30
0
 11
-359.8589077438195
 21
24.5
 31
0
  0
LINE
  8
1
 62
7
 10
-355.6834812632765
 20
19
 30
0
 11
-358.8589077438195
 21
24.5
 31
0
  0
LINE
  8
1
 62
7
 10
-365.6834812632765
 20
-15.00000000000011
 30
0
 11
-365.6834812632765
 21
15
 31
0
  0
LINE
  8
1
 62
7
 10
-265.6834812632765
 20
78
 30
0
 11
-265.6834812632765
 21
-78.00000000000006
 31
0
  0
LINE
  8
1
 62
3
  6
DASHDOT
 10
-35.39288234003498
 20
3.025928955774395e-015
 30
0
 11
5.316518736723525
 21
0
 31
0
  0
LINE
  8
1
 62
7
 10
-127.6834812632762
 20
78
 30
0
 11
-127.6834812632762
 21
-78.00000000000006
 31
0
  0
LINE
  8
1
 62
7
 10
-100.5834812632761
 20
84.5
 30
0
 11
-100.5834812632761
 21
-84.50000000000006
 31
0
  0
LINE
  8
1
 62
7
 10
-100.5834812632761
 20
84.5
 30
0
 11
-118.6834812632762
 21
84.5
 31
0
  0
LINE
  8
1
 62
7
 10
-124.9834812632763
 20
81.43051721424843
 30
0
 11
-124.9834812632763
 21
-81.43051721424843
 31
0
  0
LINE
  8
1
 62
7
 10
-118.6834812632762
 20
-84.50000000000006
 30
0
 11
-100.5834812632761
 21
-84.50000000000006
 31
0
  0
LINE
  8
1
 62
7
 10
-100.2834812632762
 20
85
 30
0
 11
-93.88348126327607
 21
85
 31
0
  0
LINE
  8
1
 62
7
 10
-93.88348126327607
 20
-84.99999999999994
 30
0
 11
-100.2834812632762
 21
-84.99999999999994
 31
0
  0
LINE
  8
1
 62
7
 10
-100.2834812632762
 20
-84.99999999999994
 30
0
 11
-100.2834812632762
 21
85
 31
0
  0
LINE
  8
1
 62
7
 10
-300.7834812632764
 20
-84.49999999999983
 30
0
 11
-300.7834812632764
 21
84.5
 31
0
  0
LINE
  8
1
 62
7
 10
-298.1854050519231
 20
89
 30
0
 11
-298.1854050519231
 21
-88.99999999999983
 31
0
  0
LINE
  8
1
 62
7
 10
-284.7727889958371
 20
-84.35000000000002
 30
0
 11
-282.0834812632763
 21
-84.35000000000002
 31
0
  0
LINE
  8
1
 62
7
 10
-284.7727889958371
 20
84.34999999999991
 30
0
 11
-282.0834812632763
 21
84.34999999999991
 31
0
  0
LINE
  8
1
 62
7
 10
-303.2834812632764
 20
-84.49999999999983
 30
0
 11
-303.2834812632764
 21
84.5
 31
0
  0
LINE
  8
1
 62
7
 10
-300.7834812632764
 20
-84.49999999999983
 30
0
 11
-298.1854050519231
 21
-88.99999999999983
 31
0
  0
LINE
  8
1
 62
7
 10
-284.7727889958371
 20
-88.99999999999983
 30
0
 11
-298.1854050519231
 21
-88.99999999999983
 31
0
  0
LINE
  8
1
 62
7
 10
-300.7834812632764
 20
-84.49999999999983
 30
0
 11
-303.2834812632764
 21
-84.49999999999983
 31
0
  0
LINE
  8
1
 62
7
 10
-303.2834812632764
 20
84.5
 30
0
 11
-300.7834812632764
 21
84.5
 31
0
  0
LINE
  8
1
 62
7
 10
-298.1854050519231
 20
89
 30
0
 11
-284.7727889958371
 21
89
 31
0
  0
LINE
  8
1
 62
7
 10
-284.7727889958371
 20
-88.99999999999983
 30
0
 11
-284.7727889958371
 21
89
 31
0
  0
LINE
  8
1
 62
7
 10
-268.5834812632763
 20
78
 30
0
 11
-268.5834812632763
 21
-78.00000000000006
 31
0
  0
LINE
  8
1
 62
7
 10
-282.0834812632763
 20
-84.50000000000006
 30
0
 11
-282.0834812632763
 21
-84.35000000000002
 31
0
  0
LINE
  8
1
 62
7
 10
-282.0834812632763
 20
-84.50000000000006
 30
0
 11
-276.5834812632763
 21
-84.50000000000006
 31
0
  0
LINE
  8
1
 62
7
 10
-276.5834812632763
 20
84.5
 30
0
 11
-282.0834812632763
 21
84.5
 31
0
  0
LINE
  8
1
 62
7
 10
-282.0834812632763
 20
84.34999999999991
 30
0
 11
-282.0834812632763
 21
84.5
 31
0
  0
LINE
  8
1
 62
7
 10
-298.1854050519231
 20
89
 30
0
 11
-300.7834812632764
 21
84.5
 31
0
  0
LINE
  8
1
 62
7
 10
-303.5834812632763
 20
85
 30
0
 11
-303.5834812632763
 21
-85.00000000000006
 31
0
  0
LINE
  8
1
 62
7
 10
-312.1834812632765
 20
-84.00000000000006
 30
0
 11
-310.9834812632764
 21
-84.00000000000006
 31
0
  0
LINE
  8
1
 62
7
 10
-303.5834812632763
 20
-85.00000000000006
 30
0
 11
-309.9834812632764
 21
-85.00000000000006
 31
0
  0
LINE
  8
1
 62
7
 10
-314.4834812632764
 20
82.5
 30
0
 11
-314.9834812632764
 21
82
 31
0
  0
LINE
  8
1
 62
7
 10
-314.9834812632764
 20
69
 30
0
 11
-314.4834812632764
 21
68.5
 31
0
  0
LINE
  8
1
 62
7
 10
-312.1834812632765
 20
68.5
 30
0
 11
-312.1834812632765
 21
82.5
 31
0
  0
LINE
  8
1
 62
7
 10
-314.4834812632764
 20
68.5
 30
0
 11
-311.1834812632765
 21
68.5
 31
0
  0
LINE
  8
1
 62
7
 10
-314.9834812632764
 20
82
 30
0
 11
-314.9834812632764
 21
69
 31
0
  0
LINE
  8
1
 62
7
 10
-314.4834812632764
 20
82.5
 30
0
 11
-311.1834812632765
 21
82.5
 31
0
  0
LINE
  8
1
 62
7
 10
-310.9834812632764
 20
60
 30
0
 11
-309.9834812632764
 21
63.73205080756884
 31
0
  0
LINE
  8
1
 62
7
 10
-312.1834812632765
 20
-84.00000000000006
 30
0
 11
-312.1834812632765
 21
60.15798299710491
 31
0
  0
LINE
  8
1
 62
7
 10
-312.1834812632765
 20
60.15798299710491
 30
0
 11
-311.1834812632765
 21
63.89003380467386
 31
0
  0
LINE
  8
1
 62
7
 10
-311.1834812632765
 20
63.89003380467386
 30
0
 11
-311.1834812632765
 21
84
 31
0
  0
LINE
  8
1
 62
7
 10
-311.1834812632765
 20
84
 30
0
 11
-309.9834812632764
 21
84
 31
0
  0
LINE
  8
1
 62
7
 10
-310.9834812632764
 20
-84.00000000000006
 30
0
 11
-310.9834812632764
 21
60
 31
0
  0
LINE
  8
1
 62
7
 10
-309.9834812632764
 20
-85.00000000000006
 30
0
 11
-309.9834812632764
 21
85
 31
0
  0
LINE
  8
1
 62
7
 10
-309.9834812632764
 20
85
 30
0
 11
-303.5834812632763
 21
85
 31
0
  0
LINE
  8
1
 62
7
 10
-129.6834812632762
 20
-78.00000000000006
 30
0
 11
-124.9834812632763
 21
-78.00000000000006
 31
0
  0
LINE
  8
1
 62
7
 10
-124.9834812632763
 20
78
 30
0
 11
-129.6834812632762
 21
78
 31
0
  0
LINE
  8
1
 62
3
  6
DASHDOT
 10
-115.6834812632762
 20
-118.0000000000001
 30
0
 11
-115.6834812632762
 21
-91.00000000000006
 31
0
  0
LINE
  8
1
 62
7
 10
-132.6834812632762
 20
82
 30
0
 11
-132.6834812632762
 21
-94.00000000000006
 31
0
  0
LINE
  8
1
 62
7
 10
-100.6834812632762
 20
-102.0000000000001
 30
0
 11
-100.6834812632762
 21
-112.0000000000001
 31
0
  0
LINE
  8
1
 62
7
 10
-100.6834812632762
 20
-112.0000000000001
 30
0
 11
-149.6834812632762
 21
-112.0000000000001
 31
0
  0
LINE
  8
1
 62
7
 10
-149.6834812632762
 20
-112.0000000000001
 30
0
 11
-149.6834812632762
 21
-110.0000000000001
 31
0
  0
LINE
  8
1
 62
7
 10
-268.5834812632763
 20
-78.00000000000006
 30
0
 11
-263.6834812632765
 21
-78.00000000000006
 31
0
  0
LINE
  8
1
 62
7
 10
-263.6834812632765
 20
78
 30
0
 11
-268.5834812632763
 21
78
 31
0
  0
LINE
  8
1
 62
3
  6
DASHDOT
 10
-277.6834812632765
 20
-91.00000000000006
 30
0
 11
-277.6834812632765
 21
-118.0000000000001
 31
0
  0
LINE
  8
1
 62
7
 10
-258.6834812632765
 20
84
 30
0
 11
-134.6834812632762
 21
84
 31
0
  0
LINE
  8
1
 62
7
 10
-260.6834812632765
 20
-94.00000000000006
 30
0
 11
-260.6834812632765
 21
82
 31
0
  0
LINE
  8
1
 62
7
 10
-287.6834812632765
 20
-97.00000000000006
 30
0
 11
-105.6834812632762
 21
-97.00000000000006
 31
0
  0
LINE
  8
1
 62
7
 10
-292.6834812632765
 20
-112.0000000000001
 30
0
 11
-292.6834812632765
 21
-102.0000000000001
 31
0
  0
LINE
  8
1
 62
7
 10
-243.6834812632765
 20
-112.0000000000001
 30
0
 11
-292.6834812632765
 21
-112.0000000000001
 31
0
  0
LINE
  8
1
 62
7
 10
-243.6834812632765
 20
-110.0000000000001
 30
0
 11
-243.6834812632765
 21
-112.0000000000001
 31
0
  0
LINE
  8
1
 62
7
 10
-154.6834812632762
 20
-105.0000000000001
 30
0
 11
-238.6834812632765
 21
-105.0000000000001
 31
0
  0
LINE
  8
1
 62
7
 10
-315.6834812632765
 20
73.5
 30
0
 11
-336.6834812632765
 21
73.5
 31
0
  0
LINE
  8
1
 62
7
 10
-336.6834812632765
 20
73.5
 30
0
 11
-336.6834812632765
 21
-73.50000000000006
 31
0
  0
LINE
  8
1
 62
7
 10
-336.6834812632765
 20
-73.50000000000006
 30
0
 11
-315.6834812632765
 21
-73.50000000000006
 31
0
  0
LINE
  8
1
 62
7
 10
-315.6834812632765
 20
-73.50000000000006
 30
0
 11
-315.6834812632765
 21
73.5
 31
0
  0
LINE
  8
1
 62
7
 10
-336.6834812632765
 20
37.50000000000011
 30
0
 11
-355.6834812632765
 21
37.50000000000011
 31
0
  0
LINE
  8
1
 62
7
 10
-336.6834812632765
 20
-37.50000000000017
 30
0
 11
-355.6834812632765
 21
-37.50000000000017
 31
0
  0
LINE
  8
1
 62
7
 10
-355.6834812632765
 20
37.50000000000011
 30
0
 11
-355.6834812632765
 21
-37.50000000000017
 31
0
  0
LINE
  8
1
 62
7
 10
-315.6834812632765
 20
-68.00000000000006
 30
0
 11
-312.1834812632765
 21
-68.00000000000006
 31
0
  0
LINE
  8
1
 62
7
 10
-315.6834812632765
 20
-52.00000000000006
 30
0
 11
-312.1834812632765
 21
-52.00000000000006
 31
0
  0
ARC
  8
1
 62
7
 10
-692.1059344598
 20
-102.0000000000001
 30
0
 40
5.000000000000043
 50
90
 51
180
  0
ARC
  8
1
 62
7
 10
-667.1059344598
 20
-102.0000000000001
 30
0
 40
5
 50
0
 51
90
  0
ARC
  8
1
 62
7
 10
-657.1059344598
 20
-110.0000000000001
 30
0
 40
5
 50
90
 51
180
  0
ARC
  8
1
 62
7
 10
-666.1059344598
 20
74
 30
0
 40
10
 50
90
 51
180
  0
ARC
  8
1
 62
7
 10
-517.1059344597999
 20
-102.0000000000001
 30
0
 40
5.000000000000043
 50
90
 51
180
  0
ARC
  8
1
 62
7
 10
-527.1059344597998
 20
-110.0000000000001
 30
0
 40
5
 50
0
 51
90
  0
ARC
  8
1
 62
7
 10
-517.1059344597999
 20
-102.0000000000001
 30
0
 40
5.000000000000043
 50
90
 51
180
  0
ARC
  8
1
 62
7
 10
-492.1059344597999
 20
-102.0000000000001
 30
0
 40
5
 50
0
 51
90
  0
ARC
  8
1
 62
7
 10
-518.1059344597998
 20
74
 30
0
 40
9.99999999999983
 50
0
 51
90
  0
ARC
  8
1
 62
7
 10
-258.6834812632765
 20
382
 30
0
 40
2
 50
90
 51
180
  0
ARC
  8
1
 62
7
 10
-263.6834812632765
 20
381
 30
0
 40
3
 50
270
 51
0
  0
ARC
  8
1
 62
7
 10
-263.6834812632765
 20
218.9999999999997
 30
0
 40
3
 50
0
 51
90
  0
ARC
  8
1
 62
7
 10
-134.6834812632762
 20
382
 30
0
 40
2
 50
0
 51
90
  0
ARC
  8
1
 62
7
 10
-129.6834812632762
 20
381
 30
0
 40
3
 50
180
 51
270
  0
ARC
  8
1
 62
7
 10
-129.6834812632762
 20
218.9999999999997
 30
0
 40
3
 50
90
 51
180
  0
ARC
  8
1
 62
7
 10
-276.5834812632763
 20
376.5
 30
0
 40
8
 50
0
 51
90
  0
ARC
  8
1
 62
7
 10
-276.5834812632763
 20
223.5
 30
0
 40
8
 50
270
 51
0
  0
ARC
  8
1
 62
7
 10
-118.6834812632762
 20
223.4999999999997
 30
0
 40
7.999999999999939
 50
218.0475074536182
 51
270
  0
ARC
  8
1
 62
7
 10
-118.6834812632762
 20
376.5
 30
0
 40
8
 50
90
 51
141.9524925463812
  0
ARC
  8
1
 62
7
 10
-51.18348126327648
 20
300
 30
0
 40
3.5
 50
90
 51
270
  0
ARC
  8
1
 62
7
 10
-287.6834812632765
 20
400
 30
0
 40
5
 50
90
 51
180
  0
ARC
  8
1
 62
7
 10
-105.6834812632762
 20
400
 30
0
 40
5
 50
0
 51
90
  0
ARC
  8
1
 62
7
 10
-105.6834812632762
 20
200
 30
0
 40
5
 50
270
 51
0
  0
ARC
  8
1
 62
7
 10
-287.6834812632765
 20
200
 30
0
 40
5
 50
180
 51
270
  0
ARC
  8
1
 62
7
 10
-263.6834812632765
 20
402
 30
0
 40
3
 50
0
 51
90
  0
ARC
  8
1
 62
7
 10
-263.6834812632765
 20
198
 30
0
 40
3
 50
270
 51
0
  0
ARC
  8
1
 62
7
 10
-129.6834812632762
 20
198
 30
0
 40
3
 50
180
 51
270
  0
ARC
  8
1
 62
7
 10
-129.6834812632762
 20
402
 30
0
 40
3
 50
90
 51
180
  0
ARC
  8
1
 62
7
 10
-258.6834812632765
 20
217.9999999999997
 30
0
 40
2
 50
180
 51
270
  0
ARC
  8
1
 62
7
 10
-134.6834812632762
 20
217.9999999999997
 30
0
 40
2
 50
270
 51
0
  0
ARC
  8
1
 62
7
 10
-73.88348126327618
 20
348.9578846350767
 30
0
 40
1
 50
180
 51
270
  0
ARC
  8
1
 62
7
 10
-92.38348126327618
 20
337.0000000000002
 30
0
 40
1.000000000000045
 50
314.4270040007977
 51
0
  0
ARC
  8
1
 62
7
 10
-91.38348126327618
 20
263
 30
0
 40
1
 50
0
 51
90
  0
ARC
  8
1
 62
7
 10
-86.38348126327618
 20
224.2500000000001
 30
0
 40
1
 50
0
 51
90
  0
ARC
  8
1
 62
7
 10
-73.88348126327618
 20
224.2500000000001
 30
0
 40
1
 50
90
 51
180
  0
ARC
  8
1
 62
7
 10
-73.88348126327618
 20
255.7500000000001
 30
0
 40
1
 50
180
 51
270
  0
ARC
  8
1
 62
7
 10
-73.88348126327618
 20
263
 30
0
 40
1
 50
90
 51
180
  0
ARC
  8
1
 62
7
 10
-89.38348126327618
 20
226.2500000000001
 30
0
 40
1
 50
180
 51
270
  0
ARC
  8
1
 62
7
 10
-84.38348126327618
 20
223.0000000000001
 30
0
 40
1
 50
180
 51
270
  0
ARC
  8
1
 62
7
 10
-75.88348126327618
 20
223.0000000000001
 30
0
 40
1
 50
270
 51
0
  0
ARC
  8
1
 62
7
 10
-67.88348126327617
 20
226.2500000000001
 30
0
 40
1
 50
270
 51
0
  0
ARC
  8
1
 62
7
 10
-67.88348126327617
 20
253.7500000000001
 30
0
 40
1
 50
0
 51
90
  0
ARC
  8
1
 62
7
 10
-67.68348126327625
 20
265
 30
0
 40
1
 50
270
 51
0
  0
ARC
  8
1
 62
7
 10
-75.88348126327618
 20
351.5000000000002
 30
0
 40
1
 50
0
 51
90
  0
ARC
  8
1
 62
7
 10
-67.68348126327625
 20
346.9578846350767
 30
0
 40
1
 50
0
 51
90
  0
ARC
  8
1
 62
7
 10
-90.88348126327618
 20
352.0000000000002
 30
0
 40
0.5
 50
90
 51
180
  0
ARC
  8
1
 62
7
 10
-524.9307902470778
 20
67.17514421272199
 30
0
 40
6.500000000000039
 50
246.8536547231966
 51
203.1463452768022
  0
ARC
  8
1
 62
7
 10
-592.1059344598
 20
0
 30
0
 40
105.0000000000001
 50
42.02462757937717
 51
47.97537242062274
  0
ARC
  8
1
 62
7
 10
-659.281078672522
 20
67.17514421272199
 30
0
 40
6.499999999999988
 50
336.8536547231975
 51
293.1463452768035
  0
ARC
  8
1
 62
7
 10
-592.1059344598
 20
0
 30
0
 40
104.9999999999999
 50
132.0246275793772
 51
137.9753724206228
  0
ARC
  8
1
 62
7
 10
-659.281078672522
 20
-67.17514421272193
 30
0
 40
6.499999999999928
 50
66.85365472319619
 51
23.14634527680216
  0
ARC
  8
1
 62
7
 10
-592.1059344598
 20
0
 30
0
 40
105
 50
222.0246275793772
 51
227.9753724206228
  0
ARC
  8
1
 62
7
 10
-524.9307902470778
 20
-67.17514421272205
 30
0
 40
6.500000000000115
 50
156.8536547231974
 51
113.1463452768046
  0
ARC
  8
1
 62
7
 10
-592.1059344598
 20
0
 30
0
 40
105.0000000000001
 50
312.0246275793772
 51
317.9753724206228
  0
ARC
  8
1
 62
7
 10
-592.1059344598
 20
0
 30
0
 40
22.50000000000005
 50
6.379370208442791
 51
83.62062979155721
  0
ARC
  8
1
 62
7
 10
-592.1059344598
 20
0
 30
0
 40
22.50000000000005
 50
276.3793702084428
 51
353.6206297915572
  0
ARC
  8
1
 62
7
 10
-592.1059344598
 20
0
 30
0
 40
22.49999999999994
 50
186.3793702084428
 51
263.6206297915572
  0
ARC
  8
1
 62
7
 10
-592.1059344598
 20
0
 30
0
 40
22.50000000000005
 50
96.37937020844279
 51
173.6206297915572
  0
ARC
  8
1
 62
3
  6
DASHDOT
 10
-592.1059344598
 20
0
 30
0
 40
49.99999999999999
 50
75.00000000000001
 51
105
  0
ARC
  8
1
 62
3
  6
DASHDOT
 10
-592.1059344598
 20
0
 30
0
 40
49.99999999999994
 50
195
 51
224.9999999999999
  0
ARC
  8
1
 62
3
  6
DASHDOT
 10
-592.1059344598
 20
0
 30
0
 40
50.00000000000005
 50
315.0000000000001
 51
345
  0
ARC
  8
1
 62
7
 10
-197.7093031858384
 20
-11
 30
0
 40
1
 50
270
 51
90
  0
ARC
  8
1
 62
7
 10
-197.7093031858384
 20
-13
 30
0
 40
1
 50
270
 51
90
  0
ARC
  8
1
 62
7
 10
-195.7093031858384
 20
-13
 30
0
 40
1
 50
90
 51
270
  0
ARC
  8
1
 62
7
 10
-195.7093031858384
 20
-11
 30
0
 40
1
 50
90
 51
270
  0
ARC
  8
1
 62
7
 10
-196.7093031858384
 20
-12
 30
0
 40
2.5
 50
53.13010235415598
 51
126.869897645844
  0
ARC
  8
1
 62
7
 10
-196.7093031858384
 20
-12
 30
0
 40
2.500000000000013
 50
234.4649085793088
 51
305.5350914206912
  0
ARC
  8
1
 62
7
 10
-196.7093031858384
 20
-12
 30
0
 40
5.000000000000139
 50
341.1921904482909
 51
0
  0
ARC
  8
1
 62
7
 10
-196.7093031858384
 20
-12
 30
0
 40
5.000000000000004
 50
224.1457432463725
 51
315.8542567536276
  0
ARC
  8
1
 62
7
 10
-196.7093031858384
 20
-12
 30
0
 40
5
 50
180
 51
198.8078095517095
  0
ARC
  8
1
 62
7
 10
-196.7093031858384
 20
-12
 30
0
 40
5.000000000000152
 50
23.57817847820107
 51
156.4218215217982
  0
ARC
  8
1
 62
7
 10
-218.9593031858384
 20
-28.10268917010842
 30
0
 40
1.487499999999898
 50
180
 51
270
  0
ARC
  8
1
 62
7
 10
-222.4593031858384
 20
-28.10268917010842
 30
0
 40
1.487499999999951
 50
270
 51
0
  0
ARC
  8
1
 62
7
 10
-222.4593031858384
 20
-31.60268917010842
 30
0
 40
1.487499999999983
 50
0
 51
90
  0
ARC
  8
1
 62
7
 10
-218.9593031858384
 20
-31.60268917010842
 30
0
 40
1.487499999999951
 50
90
 51
180
  0
ARC
  8
1
 62
7
 10
-199.2344294516855
 20
-39.85268917010842
 30
0
 40
1.487500000000175
 50
135.0000000000008
 51
224.9999999999977
  0
ARC
  8
1
 62
7
 10
-201.7093031858384
 20
-37.37781543595543
 30
0
 40
1.487500000000155
 50
225
 51
315
  0
ARC
  8
1
 62
7
 10
-204.1841769199915
 20
-39.85268917010842
 30
0
 40
1.487500000000114
 50
315.0000000000015
 51
45
  0
ARC
  8
1
 62
7
 10
-201.7093031858384
 20
-42.32756290426136
 30
0
 40
1.487500000000079
 50
44.99999999999709
 51
135.0000000000029
  0
ARC
  8
1
 62
7
 10
-209.2344294516855
 20
-39.85268917010842
 30
0
 40
1.487500000000175
 50
135.0000000000008
 51
224.9999999999977
  0
ARC
  8
1
 62
7
 10
-211.7093031858384
 20
-37.37781543595543
 30
0
 40
1.487500000000155
 50
225
 51
315
  0
ARC
  8
1
 62
7
 10
-214.1841769199915
 20
-39.85268917010842
 30
0
 40
1.487500000000114
 50
315.0000000000015
 51
45
  0
ARC
  8
1
 62
7
 10
-211.7093031858384
 20
-42.32756290426136
 30
0
 40
1.487500000000079
 50
44.99999999999709
 51
135.0000000000029
  0
ARC
  8
1
 62
7
 10
-174.4593031858384
 20
-28.10268917010842
 30
0
 40
1.487499999999951
 50
270
 51
0
  0
ARC
  8
1
 62
7
 10
-170.9593031858384
 20
-28.10268917010842
 30
0
 40
1.487499999999898
 50
180
 51
270
  0
ARC
  8
1
 62
7
 10
-170.9593031858384
 20
-31.60268917010842
 30
0
 40
1.487499999999951
 50
90
 51
180
  0
ARC
  8
1
 62
7
 10
-174.4593031858384
 20
-31.60268917010842
 30
0
 40
1.487499999999983
 50
0
 51
90
  0
ARC
  8
1
 62
7
 10
-194.1841769199915
 20
-39.85268917010842
 30
0
 40
1.487500000000114
 50
315.0000000000015
 51
45
  0
ARC
  8
1
 62
7
 10
-191.7093031858384
 20
-37.37781543595543
 30
0
 40
1.487500000000014
 50
225.0000000000054
 51
315
  0
ARC
  8
1
 62
7
 10
-189.2344294516855
 20
-39.85268917010842
 30
0
 40
1.487500000000034
 50
134.9999999999953
 51
225.0000000000031
  0
ARC
  8
1
 62
7
 10
-191.7093031858384
 20
-42.32756290426136
 30
0
 40
1.487500000000079
 50
44.99999999999709
 51
134.9999999999975
  0
ARC
  8
1
 62
7
 10
-184.1841769199915
 20
-39.85268917010842
 30
0
 40
1.487500000000114
 50
315.0000000000015
 51
45
  0
ARC
  8
1
 62
7
 10
-181.7093031858384
 20
-37.37781543595543
 30
0
 40
1.487500000000014
 50
225.0000000000054
 51
315
  0
ARC
  8
1
 62
7
 10
-179.2344294516855
 20
-39.85268917010842
 30
0
 40
1.487500000000034
 50
134.9999999999953
 51
225.0000000000031
  0
ARC
  8
1
 62
7
 10
-181.7093031858384
 20
-42.32756290426136
 30
0
 40
1.487500000000079
 50
44.99999999999709
 51
134.9999999999975
  0
ARC
  8
1
 62
7
 10
-90.88348126327618
 20
52.00000000000023
 30
0
 40
0.5
 50
90
 51
180
  0
ARC
  8
1
 62
7
 10
-67.68348126327625
 20
46.95788463507677
 30
0
 40
1
 50
0
 51
90
  0
ARC
  8
1
 62
7
 10
-75.88348126327618
 20
51.50000000000023
 30
0
 40
1
 50
0
 51
90
  0
ARC
  8
1
 62
7
 10
-67.68348126327625
 20
-35.00000000000006
 30
0
 40
1
 50
270
 51
0
  0
ARC
  8
1
 62
7
 10
-67.88348126327617
 20
-46.24999999999983
 30
0
 40
1
 50
0
 51
90
  0
ARC
  8
1
 62
7
 10
-67.88348126327617
 20
-73.74999999999983
 30
0
 40
1
 50
270
 51
0
  0
ARC
  8
1
 62
7
 10
-75.88348126327618
 20
-76.99999999999983
 30
0
 40
1
 50
270
 51
0
  0
ARC
  8
1
 62
7
 10
-84.38348126327618
 20
-76.99999999999983
 30
0
 40
1
 50
180
 51
270
  0
ARC
  8
1
 62
7
 10
-89.38348126327618
 20
-73.74999999999983
 30
0
 40
1
 50
180
 51
270
  0
ARC
  8
1
 62
7
 10
-73.88348126327618
 20
-37.00000000000006
 30
0
 40
1
 50
90
 51
180
  0
ARC
  8
1
 62
7
 10
-73.88348126327618
 20
-44.24999999999983
 30
0
 40
1
 50
180
 51
270
  0
ARC
  8
1
 62
7
 10
-73.88348126327618
 20
-75.74999999999983
 30
0
 40
1
 50
90
 51
180
  0
ARC
  8
1
 62
7
 10
-86.38348126327618
 20
-75.74999999999983
 30
0
 40
1
 50
0
 51
90
  0
ARC
  8
1
 62
7
 10
-91.38348126327618
 20
-37.00000000000006
 30
0
 40
1
 50
0
 51
90
  0
ARC
  8
1
 62
7
 10
-92.38348126327618
 20
37.00000000000023
 30
0
 40
1.000000000000004
 50
314.4270040008
 51
0
  0
ARC
  8
1
 62
7
 10
-73.88348126327618
 20
48.95788463507677
 30
0
 40
1
 50
180
 51
270
  0
ARC
  8
1
 62
7
 10
-189.7093031858382
 20
-19
 30
0
 40
9
 50
0
 51
90
  0
ARC
  8
1
 62
7
 10
-189.7093031858382
 20
-19
 30
0
 40
7
 50
0
 51
90
  0
ARC
  8
1
 62
7
 10
-195.6593031858384
 20
-16.95000000000003
 30
0
 40
4.950252518811757
 50
0.5787255656083207
 51
90.57872556560756
  0
ARC
  8
1
 62
7
 10
-195.7093031858382
 20
-17
 30
0
 40
3
 50
0
 51
90
  0
ARC
  8
1
 62
7
 10
-203.7093031858384
 20
-19
 30
0
 40
9
 50
90
 51
180
  0
ARC
  8
1
 62
7
 10
-203.7093031858384
 20
-19
 30
0
 40
7
 50
90
 51
180
  0
ARC
  8
1
 62
7
 10
-197.7593031858384
 20
-16.95000000000004
 30
0
 40
4.950252518811579
 50
89.42127443439212
 51
179.4212744343916
  0
ARC
  8
1
 62
7
 10
-197.7093031858384
 20
-17
 30
0
 40
3
 50
90
 51
180
  0
ARC
  8
1
 62
7
 10
-118.6834812632762
 20
76.5
 30
0
 40
8
 50
90
 51
141.9524925463805
  0
ARC
  8
1
 62
7
 10
-118.6834812632762
 20
-76.50000000000006
 30
0
 40
8.000000000000044
 50
218.0475074536192
 51
270
  0
ARC
  8
1
 62
7
 10
-276.5834812632763
 20
-76.50000000000006
 30
0
 40
8
 50
270
 51
0
  0
ARC
  8
1
 62
7
 10
-276.5834812632763
 20
76.5
 30
0
 40
8
 50
0
 51
90
  0
ARC
  8
1
 62
7
 10
-129.6834812632762
 20
-81.00000000000006
 30
0
 40
3
 50
90
 51
180
  0
ARC
  8
1
 62
7
 10
-129.6834812632762
 20
81
 30
0
 40
3
 50
180
 51
270
  0
ARC
  8
1
 62
7
 10
-129.6834812632762
 20
-94.00000000000006
 30
0
 40
3
 50
180
 51
270
  0
ARC
  8
1
 62
7
 10
-134.6834812632762
 20
82
 30
0
 40
2
 50
0
 51
90
  0
ARC
  8
1
 62
7
 10
-105.6834812632762
 20
-102.0000000000001
 30
0
 40
5
 50
0
 51
90
  0
ARC
  8
1
 62
7
 10
-154.6834812632762
 20
-110.0000000000001
 30
0
 40
5
 50
0
 51
90
  0
ARC
  8
1
 62
7
 10
-263.6834812632765
 20
-81.00000000000006
 30
0
 40
3
 50
0
 51
90
  0
ARC
  8
1
 62
7
 10
-263.6834812632765
 20
81
 30
0
 40
3
 50
270
 51
0
  0
ARC
  8
1
 62
7
 10
-263.6834812632765
 20
-94.00000000000006
 30
0
 40
3
 50
270
 51
0
  0
ARC
  8
1
 62
7
 10
-258.6834812632765
 20
82
 30
0
 40
2
 50
90
 51
180
  0
ARC
  8
1
 62
7
 10
-287.6834812632765
 20
-102.0000000000001
 30
0
 40
5.000000000000043
 50
90
 51
180
  0
ARC
  8
1
 62
7
 10
-238.6834812632765
 20
-110.0000000000001
 30
0
 40
5
 50
90
 51
180
  0
CIRCLE
  8
1
 62
7
 10
-592.1059344598
 20
-60.00000000000006
 30
0
 40
3.999999999999886
  0
CIRCLE
  8
1
 62
7
 10
-592.1059344598
 20
-60.00000000000006
 30
0
 40
8
  0
CIRCLE
  8
1
 62
7
 10
-592.1059344598
 20
-60.00000000000006
 30
0
 40
11
  0
CIRCLE
  8
1
 62
7
 10
-644.0674586868663
 20
30
 30
0
 40
4
  0
CIRCLE
  8
1
 62
7
 10
-644.0674586868663
 20
30
 30
0
 40
8
  0
CIRCLE
  8
1
 62
7
 10
-644.0674586868663
 20
30
 30
0
 40
11
  0
CIRCLE
  8
1
 62
7
 10
-540.1444102327337
 20
30
 30
0
 40
3.999999999999886
  0
CIRCLE
  8
1
 62
7
 10
-540.1444102327337
 20
30
 30
0
 40
8
  0
CIRCLE
  8
1
 62
7
 10
-540.1444102327337
 20
30
 30
0
 40
11
  0
CIRCLE
  8
1
 62
7
 10
-644.0674586868663
 20
30
 30
0
 40
8
  0
CIRCLE
  8
1
 62
7
 10
-644.0674586868663
 20
30
 30
0
 40
4
  0
CIRCLE
  8
1
 62
7
 10
-592.1059344598
 20
-60.00000000000006
 30
0
 40
8
  0
CIRCLE
  8
1
 62
7
 10
-540.1444102327337
 20
30
 30
0
 40
8
  0
CIRCLE
  8
1
 62
7
 10
-592.1059344598
 20
-60.00000000000006
 30
0
 40
3.999999999999886
  0
CIRCLE
  8
1
 62
7
 10
-540.1444102327337
 20
30
 30
0
 40
3.999999999999886
  0
CIRCLE
  8
1
 62
7
 10
-592.1059344598
 20
0
 30
0
 40
73.5
  0
CIRCLE
  8
1
 62
7
 10
-592.1059344598
 20
0
 30
0
 40
37.50000000000023
  0
CIRCLE
  8
1
 62
7
 10
-592.1059344598
 20
0
 30
0
 40
89.00000000000006
  0
CIRCLE
  8
1
 62
3
 10
-592.1059344598
 20
50
 30
0
 40
5.000000000000227
  0
CIRCLE
  8
1
 62
7
 10
-592.1059344598
 20
50
 30
0
 40
4.000000000000227
  0
CIRCLE
  8
1
 62
3
 10
-635.4072046490219
 20
-25
 30
0
 40
5.000000000000114
  0
CIRCLE
  8
1
 62
7
 10
-635.4072046490219
 20
-25
 30
0
 40
4.000000000000114
  0
CIRCLE
  8
1
 62
3
 10
-548.8046642705779
 20
-25.00000000000011
 30
0
 40
5.000000000000114
  0
CIRCLE
  8
1
 62
7
 10
-548.8046642705779
 20
-25.00000000000011
 30
0
 40
4.000000000000114
  0
CIRCLE
  8
1
 62
7
 10
-592.1059344598
 20
0
 30
0
 40
85.00000000000006
  0
CIRCLE
  8
1
 62
7
 10
-592.1059344598
 20
0
 30
0
 40
15.00000000000023
  0
CIRCLE
  8
1
 62
3
 10
-592.1059344598
 20
0
 30
0
 40
13.50000000000023
  0
CIRCLE
  8
1
 62
7
 10
-277.6834812632765
 20
390
 30
0
 40
5.5
  0
CIRCLE
  8
1
 62
7
 10
-115.6834812632762
 20
390
 30
0
 40
5.5
  0
CIRCLE
  8
1
 62
7
 10
-277.6834812632765
 20
209.9999999999997
 30
0
 40
5.5
  0
CIRCLE
  8
1
 62
7
 10
-277.6834812632765
 20
209.9999999999997
 30
0
 40
5.5
  0
CIRCLE
  8
1
 62
7
 10
-115.6834812632762
 20
209.9999999999997
 30
0
 40
5.5
  0
CIRCLE
  8
1
 62
7
 10
-220.7093031858384
 20
-29.85268917010842
 30
0
 40
2.75
  0
CIRCLE
  8
1
 62
7
 10
-201.7093031858384
 20
-39.85268917010842
 30
0
 40
2.75
  0
CIRCLE
  8
1
 62
7
 10
-211.7093031858384
 20
-39.85268917010842
 30
0
 40
2.75
  0
CIRCLE
  8
1
 62
7
 10
-172.7093031858384
 20
-29.85268917010842
 30
0
 40
2.75
  0
CIRCLE
  8
1
 62
7
 10
-191.7093031858384
 20
-39.85268917010842
 30
0
 40
2.75
  0
CIRCLE
  8
1
 62
7
 10
-181.7093031858384
 20
-39.85268917010842
 30
0
 40
2.75
  0
TEXT
  8
1
 62
7
 10
-639.3559344598
 20
318.6135326328371
 30
0
 40
10
  1
DC2405
 41
0.9
  7
SIMPLEX
  0
TEXT
  8
1
 62
7
 10
-639.3559344598
 20
341.1135326328371
 30
0
 40
10
  1
TMAP 10
 41
0.9
  7
SIMPLEX
  0
TEXT
  8
1
 62
7
 10
-209.8593031858384
 20
-32.35268917010842
 30
0
 40
3.5
  1
CL
 41
0.8910000000000004
  7
SIMPLEX
  0
TEXT
  8
1
 62
7
 10
-189.8593031858384
 20
-32.35268917010842
 30
0
 40
3.5
  1
BR
 41
0.8910000000000004
  7
SIMPLEX
  0
ENDSEC
  0
EOF
