  0
SECTION
  2
HEADER
  9
$ACADVER
  1
AC1009
  9
$INSBASE
 10
0
 20
0
  9
$EXTMIN
 10
-166.9999999999997
 20
-56.50000000000001
  9
$EXTMAX
 10
271.7999999999976
 20
256.9999999999999
  9
$LIMMIN
 10
-166.9999999999997
 20
-56.50000000000001
  9
$LIMMAX
 10
271.7999999999976
 20
256.9999999999999
  9
$VIEWCTR
 10
10
 20
10
  9
$VIEWSIZE
 40
10
  9
$SNAPMODE
 70
0
  9
$SNAPUNIT
 10
1
 20
1
  9
$SNAPBASE
 10
0
 20
0
  9
$SNAPANG
 50
0
  9
$SNAPSTYLE
 70
0
  9
$SNAPISOPAIR
 70
0
  9
$GRIDMODE
 70
0
  9
$GRIDUNIT
 10
0
 20
0
  9
$ORTHOMODE
 70
0
  9
$REGENMODE
 70
1
  9
$FILLMODE
 70
1
  9
$QTEXTMODE
 70
0
  9
$DRAGMODE
 70
2
  9
$LTSCALE
 40
1
  9
$OSMODE
 70
0
  9
$ATTMODE
 70
1
  9
$TEXTSIZE
 40
3.5
  9
$TRACEWID
 40
0.5
  9
$TEXTSTYLE
  7
STANDARD
  9
$CLAYER
  8
0
  9
$CELTYPE
  6
BYLAYER
  9
$CECOLOR
 62
256
  9
$DIMSCALE
 40
1
  9
$DIMASZ
 40
0.18
  9
$DIMEXO
 40
0.0625
  9
$DIMDLI
 40
0.38
  9
$DIMRND
 40
0
  9
$DIMDLE
 40
0
  9
$DIMEXE
 40
0.18
  9
$DIMTP
 40
0
  9
$DIMTM
 40
0
  9
$DIMTXT
 40
0.18
  9
$DIMCEN
 40
0.09
  9
$DIMTSZ
 40
0
  9
$DIMTOL
 70
0
  9
$DIMLIM
 70
0
  9
$DIMTIH
 70
1
  9
$DIMTOH
 70
1
  9
$DIMSE1
 70
0
  9
$DIMSE2
 70
0
  9
$DIMTAD
 70
0
  9
$DIMZIN
 70
0
  9
$DIMBLK
  1

  9
$DIMASO
 70
1
  9
$DIMSHO
 70
1
  9
$DIMPOST
  1

  9
$DIMAPOST
  1

  9
$DIMALT
 70
0
  9
$DIMALTD
 70
2
  9
$DIMALTF
 40
25.4
  9
$DIMLFAC
 40
1
  9
$DIMTOFL
 70
0
  9
$DIMTVP
 40
0
  9
$DIMTIX
 70
0
  9
$DIMSOXD
 70
0
  9
$DIMSAH
 70
0
  9
$DIMBLK1
  1

  9
$DIMBLK2
  1

  9
$DIMSTYLE
  2
*UNNAMED
  9
$DIMCLRD
 70
0
  9
$DIMCLRE
 70
0
  9
$DIMCLRT
 70
0
  9
$DIMTFAC
 40
1
  9
$DIMGAP
 40
0.09
  9
$LUNITS
 70
2
  9
$LUPREC
 70
4
  9
$AXISMODE
 70
0
  9
$AXISUNIT
 10
0
 20
0
  9
$SKETCHINC
 40
0.1
  9
$FILLETRAD
 40
2
  9
$AUNITS
 70
0
  9
$AUPREC
 70
0
  9
$MENU
  1
ACAD
  9
$ELEVATION
 40
0
  9
$THICKNESS
 40
0
  9
$VIEWDIR
 10
0
 20
0
 30
1
  9
$LIMCHECK
 70
0
  9
$BLIPMODE
 70
1
  9
$CHAMFERA
 40
0
  9
$CHAMFERB
 40
0
  9
$FASTZOOM
 70
1
  9
$SKPOLY
 70
0
  9
$ANGBASE
 50
0
  9
$ANGDIR
 70
0
  9
$PDMODE
 70
0
  9
$PDSIZE
 40
0
  9
$PLINEWID
 40
0
  9
$COORDS
 70
2
  0
ENDSEC
  0
SECTION
  2
TABLES
  0
TABLE
  2
DIMSTYLE
 70
0
  0
ENDTAB
  0
TABLE
  2
LTYPE
 70
9
  0
LTYPE
  2
CONTINUOUS
 70
64
  3
Solid line
 72
65
 73
0
 40
0
  0
LTYPE
  2
BORDER
 70
64
  3
__ __ . __ __ .
 72
65
 73
6
 40
20.20789473684198
 49
5.773684210526281
 49
-2.886842105263141
 49
5.773684210526281
 49
-2.886842105263141
 49
0
 49
-2.886842105263141
  0
LTYPE
  2
CENTER
 70
64
  3
____ _ ____ _
 72
65
 73
4
 40
23.09473684210512
 49
14.4342105263157
 49
-2.886842105263141
 49
2.886842105263141
 49
-2.886842105263141
  0
LTYPE
  2
DASHDOT
 70
64
  3
__ . __ . __ .
 72
65
 73
4
 40
11.54736842105256
 49
5.773684210526281
 49
-2.886842105263141
 49
0
 49
-2.886842105263141
  0
LTYPE
  2
DASHED
 70
64
  3
__ __ __ __ __
 72
65
 73
2
 40
8.660526315789422
 49
5.773684210526281
 49
-2.886842105263141
  0
LTYPE
  2
DIVIDE
 70
64
  3
__ . . __ . . 
 72
65
 73
6
 40
14.4342105263157
 49
5.773684210526281
 49
-2.886842105263141
 49
0
 49
-2.886842105263141
 49
0
 49
-2.886842105263141
  0
LTYPE
  2
DOT
 70
64
  3
..............
 72
65
 73
4
 40
5.773684210526281
 49
0
 49
-2.886842105263141
 49
0
 49
-2.886842105263141
  0
LTYPE
  2
HIDDEN
 70
64
  3
_ _ _ _ _ _ _
 72
65
 73
2
 40
4.330263157894711
 49
2.886842105263141
 49
-1.44342105263157
  0
LTYPE
  2
PHANTOM
 70
64
  3
_____ _ _ _____ _ _ 
 72
65
 73
6
 40
28.86842105263141
 49
14.4342105263157
 49
-2.886842105263141
 49
2.886842105263141
 49
-2.886842105263141
 49
2.886842105263141
 49
-2.886842105263141
  0
ENDTAB
  0
TABLE
  2
LAYER
 70
3
  0
LAYER
  2
1
 70
0
 62
7
  6
CONTINUOUS
  0
LAYER
  2
0
 70
0
 62
7
  6
CONTINUOUS
  0
ENDTAB
  0
TABLE
  2
STYLE
 70
4
  0
STYLE
  2
STANDARD
 70
0
 40
0
 41
1
 50
0
 71
0
 42
3.5
  3
txt
  4

  0
STYLE
  2
SIMPLEX
 70
0
 40
0
 41
1
 50
0
 71
0
 42
3.5
  3
simplex
  4

  0
STYLE
  2
COMPLEX
 70
0
 40
0
 41
1
 50
0
 71
0
 42
3.5
  3
complex
  4

  0
STYLE
  2
ITALIC
 70
0
 40
0
 41
1
 50
0
 71
0
 42
3.5
  3
italic
  4

  0
ENDTAB
  0
TABLE
  2
VIEW
 70
0
  0
ENDTAB
  0
ENDSEC
  0
SECTION
  2
BLOCKS
  0
ENDSEC
  0
SECTION
  2
ENTITIES
  0
POINT
  8
1
 62
7
  6
DOT
 10
215.2999999999976
 20
-10.00000000000002
 30
0
  0
LINE
  8
1
 62
7
 10
38.09999999999739
 20
-54.14999999999996
 30
0
 11
38.09999999999739
 21
-56.49999999999996
 31
0
  0
LINE
  8
1
 62
7
 10
41.69999999999741
 20
-21.49896364488816
 30
0
 11
41.69999999999741
 21
-28.99999999999996
 31
0
  0
LINE
  8
1
 62
7
 10
49.3999999999977
 20
163.4664863476205
 30
0
 11
50.8999999999977
 21
163.4664863476205
 31
0
  0
LINE
  8
1
 62
7
 10
49.3999999999977
 20
151.2664863476206
 30
0
 11
49.3999999999977
 21
163.4664863476205
 31
0
  0
LINE
  8
1
 62
7
 10
50.8999999999977
 20
151.2664863476206
 30
0
 11
49.3999999999977
 21
151.2664863476206
 31
0
  0
LINE
  8
1
 62
7
 10
50.8999999999977
 20
158.8664863476205
 30
0
 11
49.3999999999977
 21
157.3664863476205
 31
0
  0
LINE
  8
1
 62
7
 10
50.8999999999977
 20
157.3664863476205
 30
0
 11
49.3999999999977
 21
155.8664863476205
 31
0
  0
LINE
  8
1
 62
7
 10
49.3999999999977
 20
249.7335136523793
 30
0
 11
50.8999999999977
 21
249.7335136523794
 31
0
  0
LINE
  8
1
 62
7
 10
50.8999999999977
 20
237.5335136523794
 30
0
 11
49.3999999999977
 21
237.5335136523794
 31
0
  0
LINE
  8
1
 62
7
 10
50.8999999999977
 20
245.1335136523794
 30
0
 11
49.3999999999977
 21
243.6335136523794
 31
0
  0
LINE
  8
1
 62
7
 10
50.8999999999977
 20
243.6335136523794
 30
0
 11
49.3999999999977
 21
242.1335136523794
 31
0
  0
LINE
  8
1
 62
3
  6
DASHDOT
 10
49.7826825799558
 20
200.4999999999999
 30
0
 11
62.11335562025579
 21
200.4999999999999
 31
0
  0
LINE
  8
1
 62
7
 10
52.19999999999771
 20
185.4999999999999
 30
0
 11
58.19999999999771
 21
185.4999999999999
 31
0
  0
LINE
  8
1
 62
7
 10
52.19999999999771
 20
191.4999999999999
 30
0
 11
58.19999999999771
 21
191.4999999999999
 31
0
  0
LINE
  8
1
 62
7
 10
52.19999999999771
 20
209.4999999999999
 30
0
 11
58.19999999999771
 21
209.4999999999999
 31
0
  0
LINE
  8
1
 62
7
 10
52.19999999999771
 20
215.4999999999999
 30
0
 11
58.19999999999771
 21
215.4999999999999
 31
0
  0
LINE
  8
1
 62
7
 10
58.19999999999771
 20
250.4999999999999
 30
0
 11
58.19999999999771
 21
150.5000000000001
 31
0
  0
LINE
  8
1
 62
7
 10
50.8987220329422
 20
250.4999999999999
 30
0
 11
60.59999999999761
 21
250.4999999999999
 31
0
  0
LINE
  8
1
 62
7
 10
66.59999999999761
 20
147.0000000000001
 30
0
 11
81.49999999999739
 21
147.0000000000001
 31
0
  0
LINE
  8
1
 62
7
 10
81.49999999999739
 20
253.9999999999999
 30
0
 11
66.59999999999761
 21
253.9999999999999
 31
0
  0
LINE
  8
1
 62
7
 10
52.19999999999771
 20
250.4999999999999
 30
0
 11
52.19999999999771
 21
150.5000000000001
 31
0
  0
LINE
  8
1
 62
7
 10
38.09999999999739
 20
144.0000000000001
 30
0
 11
38.09999999999739
 21
256.9999999999999
 31
0
  0
LINE
  8
1
 62
7
 10
26.83205080756632
 20
144.0000000000001
 30
0
 11
26.83205080756632
 21
256.9999999999999
 31
0
  0
LINE
  8
1
 62
7
 10
25.09999999999743
 20
253.9999999999999
 30
0
 11
25.09999999999743
 21
147.0000000000001
 31
0
  0
LINE
  8
1
 62
7
 10
39.09999999999729
 20
147.1499999999999
 30
0
 11
38.09999999999739
 21
147.1499999999999
 31
0
  0
LINE
  8
1
 62
7
 10
39.09999999999729
 20
253.8499999999999
 30
0
 11
39.09999999999729
 21
253.9999999999999
 31
0
  0
LINE
  8
1
 62
7
 10
38.09999999999739
 20
253.8499999999999
 30
0
 11
39.09999999999729
 21
253.8499999999999
 31
0
  0
LINE
  8
1
 62
7
 10
39.09999999999729
 20
147.0000000000001
 30
0
 11
44.8999999999977
 21
147.0000000000001
 31
0
  0
LINE
  8
1
 62
7
 10
39.09999999999729
 20
147.0000000000001
 30
0
 11
39.09999999999729
 21
147.1499999999999
 31
0
  0
LINE
  8
1
 62
7
 10
39.09999999999729
 20
253.9999999999999
 30
0
 11
44.8999999999977
 21
253.9999999999999
 31
0
  0
LINE
  8
1
 62
7
 10
26.83205080756632
 20
256.9999999999999
 30
0
 11
38.09999999999739
 21
256.9999999999999
 31
0
  0
LINE
  8
1
 62
7
 10
25.09999999999743
 20
253.9999999999999
 30
0
 11
26.83205080756632
 21
256.9999999999999
 31
0
  0
LINE
  8
1
 62
7
 10
23.59999999999743
 20
253.9999999999999
 30
0
 11
25.09999999999743
 21
253.9999999999999
 31
0
  0
LINE
  8
1
 62
7
 10
25.09999999999743
 20
147.0000000000001
 30
0
 11
23.59999999999743
 21
146.9999999999998
 31
0
  0
LINE
  8
1
 62
7
 10
26.83205080756632
 20
144.0000000000001
 30
0
 11
25.09999999999743
 21
147.0000000000001
 31
0
  0
LINE
  8
1
 62
7
 10
38.09999999999739
 20
144.0000000000001
 30
0
 11
26.83205080756632
 21
144.0000000000001
 31
0
  0
LINE
  8
1
 62
7
 10
23.19999999999478
 20
146.8499999999999
 30
0
 11
19.19999999999458
 21
146.8499999999999
 31
0
  0
LINE
  8
1
 62
7
 10
23.19999999999478
 20
146.8499999999999
 30
0
 11
23.19999999999478
 21
254.1499999999999
 31
0
  0
LINE
  8
1
 62
7
 10
23.19999999999478
 20
254.1499999999999
 30
0
 11
19.19999999999458
 21
254.1499999999999
 31
0
  0
LINE
  8
1
 62
7
 10
0.2999999999974996
 20
200.3743023377158
 30
0
 11
0.2999999999971585
 21
229.9999999999999
 31
0
  0
LINE
  8
1
 62
7
 10
1.299999999997159
 20
230.9999999999999
 30
0
 11
4.299999999994089
 21
230.9999999999999
 31
0
  0
LINE
  8
1
 62
7
 10
4.299999999993748
 20
200.3743023377158
 30
0
 11
4.299999999993748
 21
231.9972680811237
 31
0
  0
LINE
  8
1
 62
7
 10
5.299999999993748
 20
232.9972680811237
 30
0
 11
11.29999999999696
 21
232.9972680811237
 31
0
  0
LINE
  8
1
 62
7
 10
12.29999999999537
 20
207.9999999999999
 30
0
 11
15.79999999999656
 21
207.9999999999999
 31
0
  0
LINE
  8
1
 62
7
 10
16.79999999999628
 20
213.4999999999999
 30
0
 11
17.79999999999446
 21
213.4999999999999
 31
0
  0
LINE
  8
1
 62
7
 10
4.299999999993748
 20
170.2521551724137
 30
0
 11
4.299999999993748
 21
150.5000000000001
 31
0
  0
LINE
  8
1
 62
7
 10
12.29999999999736
 20
234.4999999999999
 30
0
 11
12.29999999999378
 21
151.0000000000001
 31
0
  0
LINE
  8
1
 62
7
 10
19.19999999999458
 20
162.5000000000001
 30
0
 11
18.49999999999487
 21
162.5000000000001
 31
0
  0
LINE
  8
1
 62
7
 10
17.79999999999446
 20
168.5000000000001
 30
0
 11
16.79999999999446
 21
168.5000000000001
 31
0
  0
LINE
  8
1
 62
3
  6
DASHDOT
 10
-3.904327857671955
 20
200.4999999999999
 30
0
 11
0.09999999999716991
 21
200.4999999999999
 31
0
  0
LINE
  8
1
 62
7
 10
16.79999999999656
 20
208.9999999999999
 30
0
 11
16.79999999999716
 21
229.9999999999999
 31
0
  0
LINE
  8
1
 62
7
 10
15.79999999999716
 20
230.9999999999999
 30
0
 11
12.29999999999696
 21
230.9999999999999
 31
0
  0
LINE
  8
1
 62
7
 10
2.099999999997454
 20
235.5000000000001
 30
0
 11
11.29999999999747
 21
235.4999999999999
 31
0
  0
LINE
  8
1
 62
7
 10
13.29999999999488
 20
173.9999999999999
 30
0
 11
15.79999999999466
 21
173.9999999999999
 31
0
  0
LINE
  8
1
 62
7
 10
0.09999999999745413
 20
179.5000000000001
 30
0
 11
0.09999999999716991
 21
233.5000000000001
 31
0
  0
LINE
  8
1
 62
7
 10
17.79999999999446
 20
156.5000000000001
 30
0
 11
16.79999999999406
 21
156.5000000000001
 31
0
  0
LINE
  8
1
 62
7
 10
0.2999999999952827
 20
179.5000000000001
 30
0
 11
0.2999999999948848
 21
175.998900756374
 31
0
  0
LINE
  8
1
 62
7
 10
0.2999999999948848
 20
175.998900756374
 30
0
 11
1.299999999995055
 21
175.998900756374
 31
0
  0
LINE
  8
1
 62
7
 10
2.299999999995055
 20
174.9989007563739
 30
0
 11
2.299999999995055
 21
174.9958956439073
 31
0
  0
LINE
  8
1
 62
7
 10
1.299999999995055
 20
173.9958956439074
 30
0
 11
0.7999999999949985
 21
173.9958956439074
 31
0
  0
LINE
  8
1
 62
7
 10
0.2999999999946574
 20
173.4958956439074
 30
0
 11
0.2999999999938616
 21
153.0000000000002
 31
0
  0
LINE
  8
1
 62
7
 10
2.299999999993862
 20
151.0000000000001
 30
0
 11
4.299999999993748
 21
151.0000000000001
 31
0
  0
LINE
  8
1
 62
7
 10
4.299999999993748
 20
151.0000000000001
 30
0
 11
4.299999999993748
 21
150.5000000000001
 31
0
  0
LINE
  8
1
 62
7
 10
4.799999999994089
 20
150.0000000000001
 30
0
 11
11.79999999999406
 21
150.0000000000001
 31
0
  0
LINE
  8
1
 62
7
 10
12.29999999999406
 20
150.5000000000001
 30
0
 11
12.29999999999378
 21
151.0000000000001
 31
0
  0
LINE
  8
1
 62
7
 10
12.29999999999378
 20
151.0000000000001
 30
0
 11
15.79999999999386
 21
151.0000000000001
 31
0
  0
LINE
  8
1
 62
7
 10
16.79999999999466
 20
172.9999999999998
 30
0
 11
16.79999999999386
 21
151.9999999999998
 31
0
  0
LINE
  8
1
 62
7
 10
18.49999999999467
 20
238.4999999999999
 30
0
 11
19.19999999999486
 21
238.4999999999999
 31
0
  0
LINE
  8
1
 62
7
 10
18.49999999999467
 20
147.4999999999998
 30
0
 11
18.49999999999467
 21
238.4999999999999
 31
0
  0
LINE
  8
1
 62
7
 10
18.49999999999487
 20
253.4999999999999
 30
0
 11
19.19999999999458
 21
253.4999999999999
 31
0
  0
LINE
  8
1
 62
7
 10
18.49999999999467
 20
241.0413683660215
 30
0
 11
18.49999999999487
 21
253.4999999999999
 31
0
  0
LINE
  8
1
 62
7
 10
17.79999999999457
 20
238.4999999999999
 30
0
 11
18.49999999999467
 21
241.0413683660215
 31
0
  0
LINE
  8
1
 62
7
 10
18.49999999999467
 20
238.4999999999999
 30
0
 11
19.19999999999458
 21
241.1124355652981
 31
0
  0
LINE
  8
1
 62
7
 10
16.69999999999486
 20
243.4999999999999
 30
0
 11
18.49999999999487
 21
243.4999999999999
 31
0
  0
LINE
  8
1
 62
7
 10
16.69999999999486
 20
252.4999999999999
 30
0
 11
18.49999999999487
 21
252.4999999999999
 31
0
  0
LINE
  8
1
 62
7
 10
17.79999999999488
 20
243.4999999999999
 30
0
 11
17.79999999999488
 21
252.4999999999999
 31
0
  0
LINE
  8
1
 62
7
 10
17.79999999999457
 20
147.4999999999998
 30
0
 11
18.49999999999467
 21
147.4999999999998
 31
0
  0
LINE
  8
1
 62
7
 10
16.19999999999486
 20
251.9999999999999
 30
0
 11
16.19999999999458
 21
243.9999999999999
 31
0
  0
LINE
  8
1
 62
7
 10
16.69999999999486
 20
252.4999999999999
 30
0
 11
16.19999999999486
 21
251.9999999999999
 31
0
  0
LINE
  8
1
 62
7
 10
16.19999999999486
 20
251.9999999999999
 30
0
 11
16.19999999999486
 21
251.4999999999999
 31
0
  0
LINE
  8
1
 62
7
 10
16.69999999999486
 20
252.4999999999999
 30
0
 11
16.19999999999486
 21
251.9999999999999
 31
0
  0
LINE
  8
1
 62
7
 10
16.69999999999486
 20
243.4999999999999
 30
0
 11
16.19999999999458
 21
243.9999999999999
 31
0
  0
LINE
  8
1
 62
7
 10
16.69999999999486
 20
243.4999999999999
 30
0
 11
16.19999999999458
 21
243.9999999999999
 31
0
  0
LINE
  8
1
 62
7
 10
64.59999999999761
 20
247.9460136523794
 30
0
 11
64.59999999999761
 21
239.3210136523793
 31
0
  0
LINE
  8
1
 62
7
 10
64.10925227118639
 20
249.3835136523794
 30
0
 11
60.59999999999761
 21
249.3835136523794
 31
0
  0
LINE
  8
1
 62
7
 10
64.10925227118639
 20
246.5085136523794
 30
0
 11
60.59999999999761
 21
246.5085136523794
 31
0
  0
LINE
  8
1
 62
7
 10
64.10925227118639
 20
240.7585136523793
 30
0
 11
60.59999999999761
 21
240.7585136523793
 31
0
  0
LINE
  8
1
 62
7
 10
64.10925227118639
 20
237.8835136523793
 30
0
 11
60.59999999999761
 21
237.8835136523793
 31
0
  0
LINE
  8
1
 62
7
 10
41.1999999999976
 20
246.6335136523794
 30
0
 11
40.59999999999761
 21
246.0335136523793
 31
0
  0
LINE
  8
1
 62
7
 10
40.59999999999761
 20
246.0335136523793
 30
0
 11
40.59999999999761
 21
241.2335136523793
 31
0
  0
LINE
  8
1
 62
7
 10
40.59999999999761
 20
241.2335136523793
 30
0
 11
41.1999999999976
 21
240.6335136523793
 31
0
  0
LINE
  8
1
 62
7
 10
41.1999999999976
 20
240.6335136523793
 30
0
 11
44.3999999999977
 21
240.6335136523793
 31
0
  0
LINE
  8
1
 62
7
 10
41.1999999999976
 20
246.6335136523794
 30
0
 11
41.1999999999976
 21
240.6335136523793
 31
0
  0
LINE
  8
1
 62
3
 10
40.59999999999761
 20
246.0335136523793
 30
0
 11
44.3999999999977
 21
246.0335136523793
 31
0
  0
LINE
  8
1
 62
3
 10
40.59999999999761
 20
241.2335136523793
 30
0
 11
44.3999999999977
 21
241.2335136523793
 31
0
  0
LINE
  8
1
 62
7
 10
44.3999999999977
 20
239.3210136523793
 30
0
 11
44.3999999999977
 21
247.9460136523794
 31
0
  0
LINE
  8
1
 62
7
 10
44.89074772880889
 20
237.8835136523793
 30
0
 11
49.3999999999977
 21
237.8835136523793
 31
0
  0
LINE
  8
1
 62
7
 10
44.89074772880889
 20
240.7585136523793
 30
0
 11
49.3999999999977
 21
240.7585136523793
 31
0
  0
LINE
  8
1
 62
7
 10
44.89074772880889
 20
246.5085136523794
 30
0
 11
49.3999999999977
 21
246.5085136523794
 31
0
  0
LINE
  8
1
 62
7
 10
44.89074772880889
 20
249.3835136523794
 30
0
 11
49.3999999999977
 21
249.3835136523794
 31
0
  0
LINE
  8
1
 62
7
 10
44.3999999999977
 20
246.6335136523794
 30
0
 11
41.1999999999976
 21
246.6335136523794
 31
0
  0
LINE
  8
1
 62
7
 10
64.59999999999761
 20
161.6789863476205
 30
0
 11
64.59999999999761
 21
153.0539863476205
 31
0
  0
LINE
  8
1
 62
7
 10
64.10925227118639
 20
163.1164863476205
 30
0
 11
60.59999999999761
 21
163.1164863476205
 31
0
  0
LINE
  8
1
 62
7
 10
64.10925227118639
 20
160.2414863476205
 30
0
 11
60.59999999999761
 21
160.2414863476205
 31
0
  0
LINE
  8
1
 62
7
 10
64.10925227118639
 20
154.4914863476205
 30
0
 11
60.59999999999761
 21
154.4914863476205
 31
0
  0
LINE
  8
1
 62
7
 10
64.10925227118639
 20
151.6164863476205
 30
0
 11
60.59999999999761
 21
151.6164863476205
 31
0
  0
LINE
  8
1
 62
7
 10
41.1999999999976
 20
160.3664863476205
 30
0
 11
40.59999999999761
 21
159.7664863476206
 31
0
  0
LINE
  8
1
 62
7
 10
40.59999999999761
 20
159.7664863476206
 30
0
 11
40.59999999999761
 21
154.9664863476205
 31
0
  0
LINE
  8
1
 62
7
 10
40.59999999999761
 20
154.9664863476205
 30
0
 11
41.1999999999976
 21
154.3664863476205
 31
0
  0
LINE
  8
1
 62
7
 10
41.1999999999976
 20
154.3664863476205
 30
0
 11
44.3999999999977
 21
154.3664863476205
 31
0
  0
LINE
  8
1
 62
7
 10
41.1999999999976
 20
160.3664863476205
 30
0
 11
41.1999999999976
 21
154.3664863476205
 31
0
  0
LINE
  8
1
 62
3
 10
40.59999999999761
 20
159.7664863476206
 30
0
 11
44.3999999999977
 21
159.7664863476206
 31
0
  0
LINE
  8
1
 62
3
 10
40.59999999999761
 20
154.9664863476205
 30
0
 11
44.3999999999977
 21
154.9664863476205
 31
0
  0
LINE
  8
1
 62
7
 10
44.3999999999977
 20
153.0539863476205
 30
0
 11
44.3999999999977
 21
161.6789863476205
 31
0
  0
LINE
  8
1
 62
7
 10
44.89074772880889
 20
151.6164863476205
 30
0
 11
49.3999999999977
 21
151.6164863476205
 31
0
  0
LINE
  8
1
 62
7
 10
44.89074772880889
 20
154.4914863476205
 30
0
 11
49.3999999999977
 21
154.4914863476205
 31
0
  0
LINE
  8
1
 62
7
 10
44.89074772880889
 20
160.2414863476205
 30
0
 11
49.3999999999977
 21
160.2414863476205
 31
0
  0
LINE
  8
1
 62
7
 10
44.89074772880889
 20
163.1164863476205
 30
0
 11
49.3999999999977
 21
163.1164863476205
 31
0
  0
LINE
  8
1
 62
7
 10
44.3999999999977
 20
160.3664863476205
 30
0
 11
41.1999999999976
 21
160.3664863476205
 31
0
  0
LINE
  8
1
 62
7
 10
88.39999999999711
 20
174.00885247422
 30
0
 11
91.39999999999731
 21
174.00885247422
 31
0
  0
LINE
  8
1
 62
7
 10
100.3999999999971
 20
174.00885247422
 30
0
 11
103.8999999999973
 21
174.00885247422
 31
0
  0
LINE
  8
1
 62
7
 10
103.8999999999971
 20
176.5006078578201
 30
0
 11
100.3999999999971
 21
176.5006078578201
 31
0
  0
LINE
  8
1
 62
7
 10
104.3999999999971
 20
181.4999999999999
 30
0
 11
104.5999999999972
 21
181.4999999999999
 31
0
  0
LINE
  8
1
 62
7
 10
87.89999999999711
 20
175.9999999999999
 30
0
 11
87.89999999999711
 21
151.5030326881272
 31
0
  0
LINE
  8
1
 62
7
 10
88.39999999999711
 20
151.0030326881272
 30
0
 11
91.39999999999711
 21
151.0030326881272
 31
0
  0
LINE
  8
1
 62
7
 10
91.89999999999711
 20
176.7913939740265
 30
0
 11
91.89999999999711
 21
149.5000719722418
 31
0
  0
LINE
  8
1
 62
7
 10
92.39999999999711
 20
149.0000719722418
 30
0
 11
99.39999999999711
 21
149.0000719722418
 31
0
  0
LINE
  8
1
 62
7
 10
99.89999999999711
 20
149.5000719722418
 30
0
 11
99.89999999999711
 21
207.5000688002627
 31
0
  0
LINE
  8
1
 62
7
 10
100.3999999999971
 20
151.0030326881272
 30
0
 11
103.8999999999971
 21
151.0030326881272
 31
0
  0
LINE
  8
1
 62
7
 10
104.3999999999971
 20
151.5030326881272
 30
0
 11
104.3999999999971
 21
173.50885247422
 31
0
  0
LINE
  8
1
 62
7
 10
104.5999999999972
 20
181.4999999999999
 30
0
 11
104.5999999999972
 21
230.4702009502706
 31
0
  0
LINE
  8
1
 62
7
 10
87.89999999999711
 20
208.5000688002627
 30
0
 11
87.89999999999711
 21
234.9619706755162
 31
0
  0
LINE
  8
1
 62
7
 10
99.39999999999711
 20
235.4619706755162
 30
0
 11
88.39999999999711
 21
235.4619706755162
 31
0
  0
LINE
  8
1
 62
7
 10
87.29999999999716
 20
157.0000000000001
 30
0
 11
87.89999999999711
 21
157.0000000000001
 31
0
  0
LINE
  8
1
 62
7
 10
87.29999999999716
 20
168.0000000000001
 30
0
 11
87.89999999999711
 21
168.0000000000001
 31
0
  0
LINE
  8
1
 62
7
 10
87.29999999999716
 20
238.4999999999999
 30
0
 11
87.29999999999735
 21
147.5000000000001
 31
0
  0
LINE
  8
1
 62
7
 10
86.59999999999705
 20
147.5000000000001
 30
0
 11
87.29999999999735
 21
147.5000000000001
 31
0
  0
LINE
  8
1
 62
7
 10
88.89999999999706
 20
243.9999999999999
 30
0
 11
88.39999999999706
 21
243.4999999999999
 31
0
  0
LINE
  8
1
 62
7
 10
88.89999999999706
 20
251.9999999999999
 30
0
 11
88.89999999999706
 21
243.9999999999999
 31
0
  0
LINE
  8
1
 62
7
 10
86.59999999999705
 20
243.4999999999999
 30
0
 11
88.39999999999706
 21
243.4999999999999
 31
0
  0
LINE
  8
1
 62
7
 10
88.89999999999706
 20
251.9999999999999
 30
0
 11
88.39999999999706
 21
252.4999999999999
 31
0
  0
LINE
  8
1
 62
7
 10
86.59999999999705
 20
252.4999999999999
 30
0
 11
88.39999999999706
 21
252.4999999999999
 31
0
  0
LINE
  8
1
 62
7
 10
87.29999999999716
 20
252.4999999999999
 30
0
 11
87.29999999999716
 21
243.4999999999999
 31
0
  0
LINE
  8
1
 62
7
 10
86.59999999999705
 20
253.4999999999999
 30
0
 11
86.59999999999705
 21
241.0413683660215
 31
0
  0
LINE
  8
1
 62
7
 10
85.89999999999706
 20
241.1124355652981
 30
0
 11
86.59999999999705
 21
238.4999999999999
 31
0
  0
LINE
  8
1
 62
7
 10
86.59999999999705
 20
241.0413683660215
 30
0
 11
87.29999999999716
 21
238.4999999999999
 31
0
  0
LINE
  8
1
 62
7
 10
85.89999999999706
 20
253.4999999999999
 30
0
 11
86.59999999999705
 21
253.4999999999999
 31
0
  0
LINE
  8
1
 62
7
 10
86.59999999999705
 20
238.4999999999999
 30
0
 11
86.59999999999705
 21
147.5000000000001
 31
0
  0
LINE
  8
1
 62
3
  6
DASHDOT
 10
108.6197241571162
 20
200.4999999999999
 30
0
 11
104.5999999999972
 21
200.4999999999999
 31
0
  0
LINE
  8
1
 62
7
 10
87.39999999999711
 20
224.4999999999999
 30
0
 11
87.29999999999716
 21
224.4999999999999
 31
0
  0
LINE
  8
1
 62
7
 10
87.39999999999731
 20
176.4999999999999
 30
0
 11
87.29999999999716
 21
176.4999999999999
 31
0
  0
LINE
  8
1
 62
7
 10
100.3999999999971
 20
230.9702009502706
 30
0
 11
104.0999999999972
 21
230.9702009502706
 31
0
  0
LINE
  8
1
 62
7
 10
91.39999999999731
 20
230.9702009502706
 30
0
 11
88.39999999999711
 21
230.9702009502706
 31
0
  0
LINE
  8
1
 62
7
 10
88.39999999999711
 20
208.0000688002627
 30
0
 11
91.39999999999711
 21
208.0000688002627
 31
0
  0
LINE
  8
1
 62
7
 10
100.3999999999971
 20
208.0000688002627
 30
0
 11
104.0999999999972
 21
208.0000688002627
 31
0
  0
LINE
  8
1
 62
7
 10
91.89999999999711
 20
189.9157496270087
 30
0
 11
91.89999999999711
 21
234.9619706755162
 31
0
  0
LINE
  8
1
 62
7
 10
99.89999999999711
 20
234.9619706755162
 30
0
 11
99.89999999999711
 21
208.0000688002627
 31
0
  0
LINE
  8
1
 62
7
 10
87.39999999999711
 20
208.0000688002627
 30
0
 11
87.19999999999712
 21
208.0000688002627
 31
0
  0
LINE
  8
1
 62
7
 10
104.3999999999971
 20
177.1279372321085
 30
0
 11
104.3999999999971
 21
181.4999999999999
 31
0
  0
LINE
  8
1
 62
7
 10
104.3999999999971
 20
177.2913939740265
 30
0
 11
104.3999999999971
 21
176.7913939740265
 31
0
  0
LINE
  8
1
 62
7
 10
104.3999999999971
 20
181.4999999999999
 30
0
 11
104.5999999999972
 21
181.4999999999999
 31
0
  0
LINE
  8
1
 62
7
 10
91.39999999999711
 20
189.4157496270087
 30
0
 11
88.39999999999731
 21
189.4157496270087
 31
0
  0
LINE
  8
1
 62
7
 10
88.39999999999711
 20
177.2913939740265
 30
0
 11
91.39999999999711
 21
177.2913939740265
 31
0
  0
LINE
  8
1
 62
7
 10
87.89999999999711
 20
194.7839375432419
 30
0
 11
87.89999999999711
 21
177.7913939740265
 31
0
  0
LINE
  8
1
 62
7
 10
87.51807097392532
 20
195.0839375432419
 30
0
 11
87.59999999999721
 21
195.0839375432419
 31
0
  0
LINE
  8
1
 62
7
 10
81.89999999999726
 20
254.1499999999999
 30
0
 11
85.89999999999705
 21
254.1499999999999
 31
0
  0
LINE
  8
1
 62
7
 10
81.89999999999726
 20
254.1499999999999
 30
0
 11
81.89999999999726
 21
146.8499999999999
 31
0
  0
LINE
  8
1
 62
7
 10
85.89999999999726
 20
146.8499999999999
 30
0
 11
81.89999999999726
 21
146.8499999999999
 31
0
  0
LINE
  8
1
 62
7
 10
-108.7378278992926
 20
73.55862016076284
 30
0
 11
-108.7378278992926
 21
70.55862016076284
 31
0
  0
LINE
  8
1
 62
7
 10
-109.2900802512572
 20
73.55862016076284
 30
0
 11
-109.2900802512572
 21
70.55862016076284
 31
0
  0
LINE
  8
1
 62
7
 10
-109.8423326032217
 20
73.55862016076284
 30
0
 11
-109.8423326032217
 21
70.55862016076284
 31
0
  0
LINE
  8
1
 62
7
 10
-111.1791987931929
 20
70.55862016076284
 30
0
 11
-111.1791987931929
 21
73.55862016076284
 31
0
  0
LINE
  8
1
 62
7
 10
-111.7314511451575
 20
70.55862016076284
 30
0
 11
-111.7314511451575
 21
73.55862016076284
 31
0
  0
LINE
  8
1
 62
7
 10
-112.2837034971221
 20
70.55862016076284
 30
0
 11
-112.2837034971221
 21
73.55862016076284
 31
0
  0
LINE
  8
1
 62
7
 10
-113.0107656982074
 20
70.55862016076284
 30
0
 11
-113.0107656982074
 21
56.44466419234639
 31
0
  0
LINE
  8
1
 62
7
 10
-108.0107656982074
 20
70.55862016076284
 30
0
 11
-108.0107656982074
 21
56.44466419234639
 31
0
  0
LINE
  8
1
 62
7
 10
-110.4999999999998
 20
70.55862016076283
 30
0
 11
-110.4999999999998
 21
56.50000000000004
 31
0
  0
LINE
  8
1
 62
7
 10
217.0729377989124
 20
73.55861913509679
 30
0
 11
217.0729377989124
 21
70.55861913509679
 31
0
  0
LINE
  8
1
 62
7
 10
216.5206854469477
 20
73.55861913509679
 30
0
 11
216.5206854469477
 21
70.55861913509679
 31
0
  0
LINE
  8
1
 62
7
 10
215.9684330949832
 20
73.55861913509679
 30
0
 11
215.9684330949832
 21
70.55861913509679
 31
0
  0
LINE
  8
1
 62
7
 10
176.887278525795
 20
41.43323338752764
 30
0
 11
177.7432617058702
 21
44.62780610599283
 31
0
  0
LINE
  8
1
 62
7
 10
173.8667666124699
 20
-38.41272147420256
 30
0
 11
170.6721938940047
 21
-37.55673829412736
 31
0
  0
LINE
  8
1
 62
7
 10
253.7127214742002
 20
-41.43323338752767
 30
0
 11
252.8567382941249
 21
-44.62780610599286
 31
0
  0
LINE
  8
1
 62
7
 10
256.7332333875253
 20
38.41272147420257
 30
0
 11
259.9278061059904
 21
37.55673829412733
 31
0
  0
LINE
  8
1
 62
7
 10
170.6721938940047
 20
37.55673829412733
 30
0
 11
173.8667666124699
 21
38.41272147420258
 31
0
  0
LINE
  8
1
 62
7
 10
166.5897109893661
 20
41.63922119876597
 30
0
 11
170.6721938940047
 21
37.55673829412733
 31
0
  0
LINE
  8
1
 62
7
 10
168.0840034429795
 20
47.21599655701802
 30
0
 11
166.5897109893661
 21
41.63922119876597
 31
0
  0
LINE
  8
1
 62
7
 10
173.6607788012316
 20
48.71028901063145
 30
0
 11
168.0840034429795
 21
47.21599655701802
 31
0
  0
LINE
  8
1
 62
7
 10
177.7432617058702
 20
44.62780610599283
 30
0
 11
173.6607788012316
 21
48.71028901063145
 31
0
  0
LINE
  8
1
 62
7
 10
177.7432617058702
 20
-44.62780610599286
 30
0
 11
176.887278525795
 21
-41.43323338752767
 31
0
  0
LINE
  8
1
 62
7
 10
173.6607788012316
 20
-48.71028901063146
 30
0
 11
177.7432617058702
 21
-44.62780610599286
 31
0
  0
LINE
  8
1
 62
7
 10
168.0840034429795
 20
-47.21599655701806
 30
0
 11
173.6607788012316
 21
-48.71028901063146
 31
0
  0
LINE
  8
1
 62
7
 10
166.5897109893661
 20
-41.63922119876597
 30
0
 11
168.0840034429795
 21
-47.21599655701806
 31
0
  0
LINE
  8
1
 62
7
 10
170.6721938940047
 20
-37.55673829412736
 30
0
 11
166.5897109893661
 21
-41.63922119876597
 31
0
  0
LINE
  8
1
 62
7
 10
259.9278061059904
 20
-37.55673829412736
 30
0
 11
256.7332333875252
 21
-38.41272147420256
 31
0
  0
LINE
  8
1
 62
7
 10
264.010289010629
 20
-41.63922119876597
 30
0
 11
259.9278061059904
 21
-37.55673829412736
 31
0
  0
LINE
  8
1
 62
7
 10
262.5159965570156
 20
-47.21599655701806
 30
0
 11
264.010289010629
 21
-41.63922119876597
 31
0
  0
LINE
  8
1
 62
7
 10
256.9392211987636
 20
-48.71028901063146
 30
0
 11
262.5159965570156
 21
-47.21599655701806
 31
0
  0
LINE
  8
1
 62
7
 10
252.8567382941249
 20
-44.62780610599286
 30
0
 11
256.9392211987636
 21
-48.71028901063146
 31
0
  0
LINE
  8
1
 62
7
 10
252.8567382941249
 20
44.62780610599283
 30
0
 11
253.7127214742001
 21
41.43323338752768
 31
0
  0
LINE
  8
1
 62
7
 10
256.9392211987636
 20
48.71028901063146
 30
0
 11
252.8567382941249
 21
44.62780610599283
 31
0
  0
LINE
  8
1
 62
7
 10
262.5159965570156
 20
47.21599655701802
 30
0
 11
256.9392211987636
 21
48.71028901063146
 31
0
  0
LINE
  8
1
 62
7
 10
264.010289010629
 20
41.63922119876597
 30
0
 11
262.5159965570156
 21
47.21599655701802
 31
0
  0
LINE
  8
1
 62
7
 10
259.9278061059904
 20
37.55673829412733
 30
0
 11
264.010289010629
 21
41.63922119876597
 31
0
  0
LINE
  8
1
 62
3
  6
DASHDOT
 10
215.2999999999976
 20
83.12662207263998
 30
0
 11
215.2999999999976
 21
76.87337792735997
 31
0
  0
LINE
  8
1
 62
3
  6
DASHDOT
 10
218.4266220726376
 20
79.99999999999997
 30
0
 11
212.1733779273576
 21
79.99999999999997
 31
0
  0
LINE
  8
1
 62
7
 10
201.3719710563926
 20
87.70158654880771
 30
0
 11
206.2999999999976
 21
89.99999999999997
 31
0
  0
LINE
  8
1
 62
7
 10
229.2280289436026
 20
87.70158654880771
 30
0
 11
224.2999999999976
 21
89.99999999999997
 31
0
  0
LINE
  8
1
 62
7
 10
229.2280289436026
 20
87.70158654880771
 30
0
 11
261.5718892971339
 21
49.14430039051909
 31
0
  0
LINE
  8
1
 62
7
 10
201.3719710563926
 20
87.70158654880771
 30
0
 11
169.028110702861
 21
49.14430039051879
 31
0
  0
LINE
  8
1
 62
7
 10
224.2999999999976
 20
89.99999999999997
 30
0
 11
206.2999999999976
 21
89.99999999999997
 31
0
  0
LINE
  8
1
 62
7
 10
214.6315669050121
 20
70.55861913509679
 30
0
 11
214.6315669050121
 21
73.55861913509679
 31
0
  0
LINE
  8
1
 62
7
 10
214.0793145530474
 20
70.55861913509679
 30
0
 11
214.0793145530474
 21
73.55861913509679
 31
0
  0
LINE
  8
1
 62
7
 10
213.5270622010828
 20
70.55861913509679
 30
0
 11
213.5270622010828
 21
73.55861913509679
 31
0
  0
LINE
  8
1
 62
7
 10
212.7999999999976
 20
70.55861913509679
 30
0
 11
212.7999999999976
 21
56.44466316668034
 31
0
  0
LINE
  8
1
 62
7
 10
215.3107656982052
 20
70.55861913509679
 30
0
 11
215.3107656982052
 21
56.499998974334
 31
0
  0
LINE
  8
1
 62
7
 10
265.2999999999976
 20
45.34589286804268
 30
0
 11
265.2999999999976
 21
26.31064423384573
 31
0
  0
LINE
  8
1
 62
7
 10
168.2999999999976
 20
-49.99999999999996
 30
0
 11
188.9893557661518
 21
-49.99999999999986
 31
0
  0
LINE
  8
1
 62
7
 10
169.954107131955
 20
50.00000000000003
 30
0
 11
188.9893557661519
 21
50.00000000000003
 31
0
  0
LINE
  8
1
 62
7
 10
165.2999999999976
 20
45.34589286804268
 30
0
 11
165.2999999999976
 21
26.31064423384566
 31
0
  0
LINE
  8
1
 62
7
 10
241.6106442338433
 20
50.00000000000003
 30
0
 11
260.6458928680403
 21
50.00000000000003
 31
0
  0
LINE
  8
1
 62
7
 10
265.2999999999976
 20
-26.31064423384569
 30
0
 11
265.2999999999976
 21
-47.00000000000006
 31
0
  0
LINE
  8
1
 62
7
 10
241.6106442338434
 20
-49.99999999999986
 30
0
 11
262.2999999999976
 21
-49.99999999999996
 31
0
  0
LINE
  8
1
 62
7
 10
165.2999999999976
 20
-26.31064423384567
 30
0
 11
165.2999999999976
 21
-47.00000000000006
 31
0
  0
LINE
  8
1
 62
3
  6
DASHDOT
 10
-110.4999999999997
 20
82.89826114927404
 30
0
 11
-110.4999999999997
 21
77.10173885072605
 31
0
  0
LINE
  8
1
 62
3
  6
DASHDOT
 10
-107.6017388507257
 20
80.00000000000004
 30
0
 11
-113.3982611492737
 21
80.00000000000004
 31
0
  0
LINE
  8
1
 62
7
 10
-157.4999999999998
 20
-49.99999999999996
 30
0
 11
-160.4999999999998
 21
-46.99999999999996
 31
0
  0
LINE
  8
1
 62
7
 10
-60.49999999999972
 20
-46.99999999999996
 30
0
 11
-63.49999999999972
 21
-49.99999999999996
 31
0
  0
LINE
  8
1
 62
7
 10
-159.8573236854647
 20
45.46613781706412
 30
0
 11
-160.4999999999998
 21
43.70000000000004
 31
0
  0
LINE
  8
1
 62
7
 10
-61.1426763145347
 20
45.46613781706412
 30
0
 11
-60.49999999999972
 21
43.70000000000004
 31
0
  0
LINE
  8
1
 62
7
 10
-124.4280289436047
 20
87.7015865488078
 30
0
 11
-119.4999999999997
 21
90.00000000000004
 31
0
  0
LINE
  8
1
 62
7
 10
-96.57197105639472
 20
87.7015865488078
 30
0
 11
-101.4999999999997
 21
90.00000000000004
 31
0
  0
LINE
  8
1
 62
7
 10
-67.46247240618072
 20
53.00000000000004
 30
0
 11
-90.92322804954779
 21
53.00000000000004
 31
0
  0
LINE
  8
1
 62
7
 10
-153.5375275938187
 20
53.00000000000004
 30
0
 11
-130.0767719504516
 21
53.00000000000004
 31
0
  0
LINE
  8
1
 62
7
 10
-96.57197105639472
 20
87.7015865488078
 30
0
 11
-61.1426763145347
 21
45.46613781706412
 31
0
  0
LINE
  8
1
 62
7
 10
-124.4280289436047
 20
87.7015865488078
 30
0
 11
-159.8573236854647
 21
45.46613781706412
 31
0
  0
LINE
  8
1
 62
7
 10
-101.4999999999997
 20
90.00000000000004
 30
0
 11
-119.4999999999997
 21
90.00000000000004
 31
0
  0
LINE
  8
1
 62
7
 10
-60.49999999999972
 20
45.34589286804268
 30
0
 11
-60.49999999999972
 21
26.31064423384578
 31
0
  0
LINE
  8
1
 62
7
 10
-60.49999999999972
 20
-46.99999999999996
 30
0
 11
-60.49999999999972
 21
-26.31064423384569
 31
0
  0
LINE
  8
1
 62
7
 10
-84.18935576615399
 20
-49.99999999999996
 30
0
 11
-63.49999999999972
 21
-49.99999999999996
 31
0
  0
LINE
  8
1
 62
7
 10
-157.4999999999998
 20
-49.99999999999996
 30
0
 11
-136.8106442338454
 21
-49.99999999999996
 31
0
  0
LINE
  8
1
 62
7
 10
-160.4999999999998
 20
-26.31064423384569
 30
0
 11
-160.4999999999998
 21
-46.99999999999996
 31
0
  0
LINE
  8
1
 62
3
  6
DASHDOT
 10
-110.4999999999997
 20
5.872358899922801
 30
0
 11
-110.4999999999997
 21
4.263256414560601e-014
 31
0
  0
LINE
  8
1
 62
3
  6
DASHDOT
 10
-104.627641100077
 20
4.263256414560601e-014
 30
0
 11
-110.4999999999997
 21
4.263256414560601e-014
 31
0
  0
LINE
  8
1
 62
7
 10
-72.96755927321118
 20
22.82406529533431
 30
0
 11
-76.10672117289261
 21
21.01166932752345
 31
0
  0
LINE
  8
1
 62
7
 10
-75.10672117289261
 20
19.27961851995456
 30
0
 11
-71.96755927321118
 21
21.0920144877654
 31
0
  0
LINE
  8
1
 62
7
 10
-79.07534813948951
 20
16.98833067247664
 30
0
 11
-82.21451003917082
 21
15.17593470466578
 31
0
  0
LINE
  8
1
 62
7
 10
-83.21451003917082
 20
16.90798551223467
 30
0
 11
-80.07534813948951
 21
18.72038148004552
 31
0
  0
LINE
  8
1
 62
7
 10
-149.0324407267882
 20
21.0920144877654
 30
0
 11
-145.8932788271068
 21
19.27961851995457
 31
0
  0
LINE
  8
1
 62
7
 10
-144.8932788271068
 20
21.01166932752348
 30
0
 11
-148.0324407267882
 21
22.82406529533433
 31
0
  0
LINE
  8
1
 62
7
 10
-140.9246518605099
 20
18.72038148004556
 30
0
 11
-137.7854899608286
 21
16.90798551223471
 31
0
  0
LINE
  8
1
 62
7
 10
-138.7854899608286
 20
15.17593470466581
 30
0
 11
-141.9246518605099
 21
16.98833067247666
 31
0
  0
LINE
  8
1
 62
7
 10
-109.4999999999997
 20
-43.91607978309956
 30
0
 11
-109.4999999999997
 21
-40.29128784747786
 31
0
  0
LINE
  8
1
 62
7
 10
-111.4999999999998
 20
-40.29128784747786
 30
0
 11
-111.4999999999998
 21
-43.91607978309956
 31
0
  0
LINE
  8
1
 62
7
 10
-111.4999999999998
 20
-35.70871215252207
 30
0
 11
-111.4999999999998
 21
-32.08392021690037
 31
0
  0
LINE
  8
1
 62
7
 10
-109.4999999999997
 20
-32.08392021690037
 30
0
 11
-109.4999999999997
 21
-35.70871215252207
 31
0
  0
LINE
  8
1
 62
7
 10
-136.8106442338454
 20
50.00000000000004
 30
0
 11
-155.8458928680424
 21
50.00000000000004
 31
0
  0
LINE
  8
1
 62
7
 10
-65.15410713195712
 20
50.00000000000004
 30
0
 11
-84.18935576615399
 21
50.00000000000003
 31
0
  0
LINE
  8
1
 62
7
 10
-160.4999999999998
 20
45.34589286804268
 30
0
 11
-160.4999999999998
 21
26.31064423384578
 31
0
  0
LINE
  8
1
 62
7
 10
-63.28400344298171
 20
-47.21599655701796
 30
0
 11
-61.78971098936819
 21
-41.63922119876587
 31
0
  0
LINE
  8
1
 62
7
 10
-61.78971098936819
 20
-41.63922119876587
 30
0
 11
-65.8721938940069
 21
-37.55673829412726
 31
0
  0
LINE
  8
1
 62
7
 10
-65.8721938940069
 20
-37.55673829412726
 30
0
 11
-69.06676661247212
 21
-38.41272147420256
 31
0
  0
LINE
  8
1
 62
7
 10
-72.94326170587237
 20
-44.62780610599286
 30
0
 11
-68.86077880123372
 21
-48.71028901063146
 31
0
  0
LINE
  8
1
 62
7
 10
-68.86077880123372
 20
-48.71028901063146
 30
0
 11
-63.28400344298171
 21
-47.21599655701796
 31
0
  0
LINE
  8
1
 62
7
 10
-72.0872785257971
 20
-41.43323338752757
 30
0
 11
-72.94326170587237
 21
-44.62780610599286
 31
0
  0
LINE
  8
1
 62
7
 10
-63.28400344298171
 20
47.21599655701807
 30
0
 11
-68.86077880123372
 21
48.71028901063148
 31
0
  0
LINE
  8
1
 62
7
 10
-68.86077880123372
 20
48.71028901063148
 30
0
 11
-72.94326170587237
 21
44.62780610599286
 31
0
  0
LINE
  8
1
 62
7
 10
-72.94326170587237
 20
44.62780610599286
 30
0
 11
-72.0872785257971
 21
41.43323338752768
 31
0
  0
LINE
  8
1
 62
7
 10
-65.8721938940069
 20
37.55673829412738
 30
0
 11
-61.78971098936819
 21
41.63922119876604
 31
0
  0
LINE
  8
1
 62
7
 10
-61.78971098936819
 20
41.63922119876604
 30
0
 11
-63.28400344298171
 21
47.21599655701807
 31
0
  0
LINE
  8
1
 62
7
 10
-69.06676661247201
 20
38.41272147420262
 30
0
 11
-65.8721938940069
 21
37.55673829412738
 31
0
  0
LINE
  8
1
 62
7
 10
-157.7159965570178
 20
47.21599655701806
 30
0
 11
-159.2102890106312
 21
41.63922119876599
 31
0
  0
LINE
  8
1
 62
7
 10
-159.2102890106312
 20
41.63922119876599
 30
0
 11
-155.1278061059925
 21
37.55673829412738
 31
0
  0
LINE
  8
1
 62
7
 10
-155.1278061059925
 20
37.55673829412738
 30
0
 11
-151.9332333875274
 21
38.41272147420262
 31
0
  0
LINE
  8
1
 62
7
 10
-148.0567382941271
 20
44.62780610599287
 30
0
 11
-152.1392211987657
 21
48.7102890106315
 31
0
  0
LINE
  8
1
 62
7
 10
-152.1392211987657
 20
48.7102890106315
 30
0
 11
-157.7159965570178
 21
47.21599655701806
 31
0
  0
LINE
  8
1
 62
7
 10
-148.9127214742023
 20
41.43323338752769
 30
0
 11
-148.0567382941271
 21
44.62780610599287
 31
0
  0
LINE
  8
1
 62
7
 10
-157.7159965570178
 20
-47.21599655701796
 30
0
 11
-152.1392211987658
 21
-48.71028901063146
 31
0
  0
LINE
  8
1
 62
7
 10
-152.1392211987658
 20
-48.71028901063146
 30
0
 11
-148.0567382941271
 21
-44.62780610599276
 31
0
  0
LINE
  8
1
 62
7
 10
-148.0567382941271
 20
-44.62780610599276
 30
0
 11
-148.9127214742024
 21
-41.43323338752757
 31
0
  0
LINE
  8
1
 62
7
 10
-155.1278061059926
 20
-37.55673829412736
 30
0
 11
-159.2102890106312
 21
-41.63922119876597
 31
0
  0
LINE
  8
1
 62
7
 10
-159.2102890106312
 20
-41.63922119876597
 30
0
 11
-157.7159965570178
 21
-47.21599655701796
 31
0
  0
LINE
  8
1
 62
7
 10
-151.9332333875273
 20
-38.41272147420256
 30
0
 11
-155.1278061059926
 21
-37.55673829412736
 31
0
  0
LINE
  8
1
 62
3
  6
DASHDOT
 10
207.8692278745802
 20
-4.29015828689659
 30
0
 11
183.8151766250686
 21
-18.17777125090309
 31
0
  0
LINE
  8
1
 62
7
  6
DASHED
 10
197.0624262854004
 20
-8.335537070567749
 30
0
 11
205.8475003675366
 21
-3.263472184395669
 31
0
  0
LINE
  8
1
 62
7
  6
DASHED
 10
198.9624262854004
 20
-11.62643360494863
 30
0
 11
207.7475003675366
 21
-6.55436871877655
 31
0
  0
LINE
  8
1
 62
3
  6
DASHED
 10
196.7624262854005
 20
-7.815921828297089
 30
0
 11
205.6647450843734
 21
-2.67616567329819
 31
0
  0
LINE
  8
1
 62
3
  6
DASHED
 10
199.2624262854005
 20
-12.14604884721929
 30
0
 11
208.1647450843734
 21
-7.006292692220388
 31
0
  0
LINE
  8
1
 62
7
  6
DASHED
 10
199.7624262854005
 20
-13.01207425100373
 30
0
 11
196.2624262854005
 21
-6.949896424512659
 31
0
  0
LINE
  8
1
 62
7
  6
DASHED
 10
199.7624262854005
 20
-13.01207425100373
 30
0
 11
186.7720452286338
 21
-20.51207425100371
 31
0
  0
LINE
  8
1
 62
7
  6
DASHED
 10
196.2624262854005
 20
-6.949896424512659
 30
0
 11
183.2720452286338
 21
-14.44989642451265
 31
0
  0
LINE
  8
1
 62
3
  6
DASHDOT
 10
215.2999999999976
 20
37.8740273156988
 30
0
 11
215.2999999999976
 21
0
 31
0
  0
LINE
  8
1
 62
7
  6
DASHED
 10
217.1999999999976
 20
19.9619706755163
 30
0
 11
217.1999999999976
 21
12
 31
0
  0
LINE
  8
1
 62
7
  6
DASHED
 10
213.3999999999976
 20
12
 30
0
 11
213.3999999999976
 21
19.9619706755163
 31
0
  0
LINE
  8
1
 62
3
  6
DASHED
 10
217.7999999999976
 20
19.9619706755163
 30
0
 11
217.7999999999976
 21
12
 31
0
  0
LINE
  8
1
 62
3
  6
DASHED
 10
212.7999999999976
 20
12
 30
0
 11
212.7999999999976
 21
19.9619706755163
 31
0
  0
LINE
  8
1
 62
7
  6
DASHED
 10
211.7999999999976
 20
19.9619706755163
 30
0
 11
218.7999999999976
 21
19.9619706755163
 31
0
  0
LINE
  8
1
 62
7
  6
DASHED
 10
211.7999999999976
 20
19.9619706755163
 30
0
 11
211.7999999999976
 21
34.9619706755163
 31
0
  0
LINE
  8
1
 62
7
  6
DASHED
 10
218.7999999999976
 20
19.9619706755163
 30
0
 11
218.7999999999976
 21
34.9619706755163
 31
0
  0
LINE
  8
1
 62
7
 10
217.7999999999976
 20
12
 30
0
 11
217.7999999999976
 21
9.682458365518528
 31
0
  0
LINE
  8
1
 62
7
 10
212.7999999999976
 20
12
 30
0
 11
217.7999999999976
 21
12
 31
0
  0
LINE
  8
1
 62
7
 10
212.7999999999976
 20
9.682458365518528
 30
0
 11
212.7999999999976
 21
12
 31
0
  0
LINE
  8
1
 62
7
 10
252.8324407267861
 20
22.82406529533424
 30
0
 11
249.6932788271047
 21
21.01166932752336
 31
0
  0
LINE
  8
1
 62
7
 10
250.6932788271047
 20
19.27961851995445
 30
0
 11
253.8324407267861
 21
21.09201448776534
 31
0
  0
LINE
  8
1
 62
7
 10
246.7246518605079
 20
16.98833067247656
 30
0
 11
243.5854899608264
 21
15.17593470466571
 31
0
  0
LINE
  8
1
 62
7
 10
242.5854899608264
 20
16.90798551223462
 30
0
 11
245.7246518605079
 21
18.72038148004545
 31
0
  0
LINE
  8
1
 62
7
 10
216.2999999999976
 20
-43.91607978309956
 30
0
 11
216.2999999999976
 21
-40.29128784747796
 31
0
  0
LINE
  8
1
 62
7
 10
214.2999999999976
 20
-40.29128784747796
 30
0
 11
214.2999999999976
 21
-43.91607978309976
 31
0
  0
LINE
  8
1
 62
7
 10
214.2999999999976
 20
-35.70871215252217
 30
0
 11
214.2999999999976
 21
-32.08392021690047
 31
0
  0
LINE
  8
1
 62
7
 10
216.2999999999976
 20
-32.08392021690047
 30
0
 11
216.2999999999976
 21
-35.70871215252217
 31
0
  0
LINE
  8
1
 62
3
  6
DASHDOT
 10
221.1723588999204
 20
-1.4210854715202e-014
 30
0
 11
215.2999999999976
 21
0
 31
0
  0
LINE
  8
1
 62
7
 10
176.7675592732091
 20
21.09201448776534
 30
0
 11
179.9067211728905
 21
19.27961851995451
 31
0
  0
LINE
  8
1
 62
7
 10
180.9067211728905
 20
21.01166932752341
 30
0
 11
177.7675592732091
 21
22.82406529533428
 31
0
  0
LINE
  8
1
 62
7
 10
184.8753481394874
 20
18.72038148004552
 30
0
 11
188.0145100391687
 21
16.90798551223466
 31
0
  0
LINE
  8
1
 62
7
 10
187.0145100391687
 20
15.17593470466575
 30
0
 11
183.8753481394873
 21
16.98833067247661
 31
0
  0
LINE
  8
1
 62
7
 10
265.2999999999976
 20
-47.00000000000006
 30
0
 11
262.2999999999976
 21
-49.99999999999996
 31
0
  0
LINE
  8
1
 62
7
 10
168.2999999999976
 20
-49.99999999999996
 30
0
 11
165.2999999999976
 21
-47.00000000000006
 31
0
  0
LINE
  8
1
 62
7
 10
68.2499999999975
 20
70.53635867778252
 30
0
 11
68.24999999999741
 21
53.5
 31
0
  0
LINE
  8
1
 62
7
 10
68.7499999999975
 20
70.53635867778252
 30
0
 11
68.7499999999975
 21
73.53635867778252
 31
0
  0
LINE
  8
1
 62
7
 10
69.2499999999975
 20
73.53635867778252
 30
0
 11
69.2499999999975
 21
70.53635867778252
 31
0
  0
LINE
  8
1
 62
7
 10
69.7499999999975
 20
70.53635867778252
 30
0
 11
69.7499999999975
 21
73.53635867778252
 31
0
  0
LINE
  8
1
 62
7
 10
70.2499999999975
 20
73.53635867778252
 30
0
 11
70.2499999999975
 21
70.53635867778252
 31
0
  0
LINE
  8
1
 62
7
 10
42.54999999999731
 20
73.53635867778252
 30
0
 11
42.54999999999731
 21
70.53635867778252
 31
0
  0
LINE
  8
1
 62
7
 10
42.04999999999731
 20
70.53635867778252
 30
0
 11
42.04999999999731
 21
73.53635867778252
 31
0
  0
LINE
  8
1
 62
7
 10
41.54999999999731
 20
73.53635867778252
 30
0
 11
41.54999999999731
 21
70.53635867778252
 31
0
  0
LINE
  8
1
 62
7
 10
41.04999999999731
 20
73.53635867778252
 30
0
 11
41.04999999999731
 21
70.53635867778252
 31
0
  0
LINE
  8
1
 62
7
 10
60.49999999999741
 20
-49.99999999999996
 30
0
 11
50.79999999999731
 21
-49.99999999999996
 31
0
  0
LINE
  8
1
 62
7
 10
76.19999999999739
 20
-17.49999999999999
 30
0
 11
43.1999999999974
 21
-17.49999999999999
 31
0
  0
LINE
  8
1
 62
7
 10
76.19999999999739
 20
17.50000000000001
 30
0
 11
43.1999999999974
 21
17.50000000000001
 31
0
  0
LINE
  8
1
 62
7
 10
60.49999999999741
 20
-20
 30
0
 11
60.49999999999741
 21
-49.99999999999996
 31
0
  0
LINE
  8
1
 62
7
 10
66.49999999999741
 20
-53.49999999999996
 30
0
 11
81.49999999999739
 21
-53.49999999999996
 31
0
  0
LINE
  8
1
 62
7
 10
81.49999999999739
 20
53.5
 30
0
 11
81.49999999999739
 21
18.99999999999999
 31
0
  0
LINE
  8
1
 62
7
 10
58.09999999999741
 20
50
 30
0
 11
60.49999999999741
 21
50
 31
0
  0
LINE
  8
1
 62
7
 10
60.49999999999741
 20
50
 30
0
 11
60.49999999999741
 21
20
 31
0
  0
LINE
  8
1
 62
7
 10
58.09999999999741
 20
27.49999999999996
 30
0
 11
60.49999999999741
 21
27.49999999999996
 31
0
  0
LINE
  8
1
 62
7
 10
60.49999999999741
 20
-27.50000000000006
 30
0
 11
58.09999999999741
 21
-27.50000000000006
 31
0
  0
LINE
  8
1
 62
7
 10
60.49999999999741
 20
-48.93053301241876
 30
0
 11
60.49999999999741
 21
-49.99999999999996
 31
0
  0
LINE
  8
1
 62
7
 10
68.2499999999975
 20
70.53635867778252
 30
0
 11
70.74999999999741
 21
70.53635867778252
 31
0
  0
LINE
  8
1
 62
7
 10
81.49999999999739
 20
-19.00000000000003
 30
0
 11
81.49999999999739
 21
-53.49999999999996
 31
0
  0
LINE
  8
1
 62
7
 10
58.09999999999761
 20
-20
 30
0
 11
58.09999999999769
 21
-49.99999999999996
 31
0
  0
LINE
  8
1
 62
7
 10
66.1999999999974
 20
-20
 30
0
 11
53.1999999999974
 21
-20
 31
0
  0
LINE
  8
1
 62
7
 10
66.1999999999974
 20
20
 30
0
 11
53.1999999999974
 21
20
 31
0
  0
LINE
  8
1
 62
7
 10
77.2999999999974
 20
-19.25000000000002
 30
0
 11
77.2999999999974
 21
-16.85000000000001
 31
0
  0
LINE
  8
1
 62
7
 10
76.19999999999739
 20
-19.25000000000002
 30
0
 11
77.2999999999974
 21
-19.25000000000002
 31
0
  0
LINE
  8
1
 62
7
 10
77.2999999999974
 20
19.25
 30
0
 11
77.2999999999974
 21
16.84999999999999
 31
0
  0
LINE
  8
1
 62
7
 10
76.19999999999739
 20
19.25
 30
0
 11
77.2999999999974
 21
19.25
 31
0
  0
LINE
  8
1
 62
7
 10
76.19999999999739
 20
-16.85000000000001
 30
0
 11
77.2999999999974
 21
-16.85000000000001
 31
0
  0
LINE
  8
1
 62
7
 10
76.19999999999739
 20
16.84999999999999
 30
0
 11
77.2999999999974
 21
16.84999999999999
 31
0
  0
LINE
  8
1
 62
3
  6
DASHDOT
 10
49.09999999999729
 20
80
 30
0
 11
61.09999999999729
 21
80
 31
0
  0
LINE
  8
1
 62
7
 10
58.09999999999729
 20
75
 30
0
 11
52.09999999999729
 21
75
 31
0
  0
LINE
  8
1
 62
7
 10
52.09999999999729
 20
85
 30
0
 11
58.09999999999729
 21
85
 31
0
  0
LINE
  8
1
 62
7
 10
58.09999999999721
 20
90
 30
0
 11
58.09999999999741
 21
20
 31
0
  0
LINE
  8
1
 62
7
 10
52.09999999999721
 20
90
 30
0
 11
58.09999999999721
 21
90
 31
0
  0
LINE
  8
1
 62
7
 10
52.09999999999729
 20
53
 30
0
 11
52.09999999999721
 21
90
 31
0
  0
LINE
  8
1
 62
7
 10
53.19999999999729
 20
53
 30
0
 11
52.09999999999729
 21
53
 31
0
  0
LINE
  8
1
 62
7
 10
53.1999999999974
 20
17.50000000000001
 30
0
 11
53.19999999999729
 21
53
 31
0
  0
LINE
  8
1
 62
7
 10
50.79872203294181
 20
50
 30
0
 11
53.19999999999729
 21
50
 31
0
  0
LINE
  8
1
 62
7
 10
43.1999999999974
 20
-28.99999999999996
 30
0
 11
41.69999999999741
 21
-28.99999999999996
 31
0
  0
LINE
  8
1
 62
7
 10
41.69999999999741
 20
-23.89999999999996
 30
0
 11
43.1999999999974
 21
-23.89999999999996
 31
0
  0
LINE
  8
1
 62
7
 10
41.6999999999974
 20
27.5
 30
0
 11
29.89999999999744
 21
27.50000000000001
 31
0
  0
LINE
  8
1
 62
7
 10
38.09999999999739
 20
20.50000000000001
 30
0
 11
42.99999999999741
 21
20.50000000000001
 31
0
  0
LINE
  8
1
 62
7
 10
23.59999999999739
 20
-53.50000000000006
 30
0
 11
23.59999999999739
 21
-50.99999999999996
 31
0
  0
LINE
  8
1
 62
7
 10
29.89999999999744
 20
53.35000000000004
 30
0
 11
29.89999999999744
 21
27.50000000000001
 31
0
  0
LINE
  8
1
 62
7
 10
39.09999999999729
 20
53.35000000000004
 30
0
 11
39.09999999999729
 21
53.50000000000001
 31
0
  0
LINE
  8
1
 62
7
 10
29.89999999999744
 20
53.35000000000004
 30
0
 11
39.09999999999729
 21
53.35000000000004
 31
0
  0
LINE
  8
1
 62
7
 10
39.09999999999729
 20
-53.34999999999997
 30
0
 11
29.89999999999809
 21
-53.34999999999997
 31
0
  0
LINE
  8
1
 62
7
 10
39.09999999999729
 20
-53.49999999999996
 30
0
 11
44.79999999999731
 21
-53.49999999999996
 31
0
  0
LINE
  8
1
 62
7
 10
39.09999999999729
 20
-53.49999999999996
 30
0
 11
39.09999999999729
 21
-53.34999999999997
 31
0
  0
LINE
  8
1
 62
7
 10
39.09999999999729
 20
53.50000000000001
 30
0
 11
44.79999999999731
 21
53.50000000000001
 31
0
  0
LINE
  8
1
 62
7
 10
38.09999999999739
 20
26.70000000000006
 30
0
 11
38.09999999999739
 21
20.50000000000001
 31
0
  0
LINE
  8
1
 62
7
 10
28.59999999999739
 20
26.70000000000006
 30
0
 11
38.09999999999739
 21
26.70000000000006
 31
0
  0
LINE
  8
1
 62
7
 10
28.59999999999739
 20
26.70000000000006
 30
0
 11
28.59999999999739
 21
54.15000000000005
 31
0
  0
LINE
  8
1
 62
7
 10
38.09999999999739
 20
54.15000000000004
 30
0
 11
28.59999999999739
 21
54.15000000000005
 31
0
  0
LINE
  8
1
 62
7
 10
38.09999999999739
 20
56.50000000000001
 30
0
 11
38.09999999999739
 21
54.15000000000004
 31
0
  0
LINE
  8
1
 62
7
 10
26.83205080756632
 20
56.5
 30
0
 11
38.09999999999739
 21
56.50000000000001
 31
0
  0
LINE
  8
1
 62
7
 10
25.09999999999739
 20
53.50000000000001
 30
0
 11
26.83205080756632
 21
56.5
 31
0
  0
LINE
  8
1
 62
7
 10
23.59999999999739
 20
53.50000000000001
 30
0
 11
25.09999999999739
 21
53.50000000000001
 31
0
  0
LINE
  8
1
 62
7
 10
24.89999999999739
 20
27.00000000000001
 30
0
 11
23.59999999999739
 21
27.00000000000001
 31
0
  0
LINE
  8
1
 62
7
 10
24.89999999999739
 20
23.50000000000001
 30
0
 11
24.89999999999739
 21
27.00000000000001
 31
0
  0
LINE
  8
1
 62
7
 10
24.89999999999739
 20
-23.49999999999999
 30
0
 11
23.79999999999731
 21
-23.49999999999999
 31
0
  0
LINE
  8
1
 62
7
 10
24.89999999999739
 20
-26.99999999999999
 30
0
 11
24.89999999999739
 21
-23.49999999999999
 31
0
  0
LINE
  8
1
 62
7
 10
23.59999999999739
 20
-26.99999999999999
 30
0
 11
24.89999999999739
 21
-26.99999999999999
 31
0
  0
LINE
  8
1
 62
7
 10
25.09999999999739
 20
-53.50000000000006
 30
0
 11
23.59999999999739
 21
-53.50000000000006
 31
0
  0
LINE
  8
1
 62
7
 10
26.83205080756632
 20
-56.49999999999996
 30
0
 11
25.09999999999739
 21
-53.50000000000006
 31
0
  0
LINE
  8
1
 62
7
 10
38.09999999999739
 20
-56.49999999999996
 30
0
 11
26.83205080756632
 21
-56.49999999999996
 31
0
  0
LINE
  8
1
 62
7
 10
28.59999999999739
 20
-54.14999999999996
 30
0
 11
38.09999999999739
 21
-54.14999999999996
 31
0
  0
LINE
  8
1
 62
7
 10
38.09999999999739
 20
-26.70000000000006
 30
0
 11
28.59999999999739
 21
-26.70000000000006
 31
0
  0
LINE
  8
1
 62
7
 10
38.09999999999739
 20
-20.49999999999999
 30
0
 11
38.09999999999739
 21
-26.70000000000006
 31
0
  0
LINE
  8
1
 62
7
 10
38.09999999999739
 20
-20.49999999999999
 30
0
 11
43.1999999999974
 21
-20.49999999999999
 31
0
  0
LINE
  8
1
 62
7
 10
29.89999999999809
 20
-53.34999999999997
 30
0
 11
29.89999999999809
 21
-27.49999999999996
 31
0
  0
LINE
  8
1
 62
7
 10
43.1999999999974
 20
17.50000000000001
 30
0
 11
43.19999999999741
 21
29.00000000000001
 31
0
  0
LINE
  8
1
 62
7
 10
41.6999999999974
 20
23.89999999999998
 30
0
 11
43.19999999999741
 21
23.89999999999998
 31
0
  0
LINE
  8
1
 62
7
 10
41.6999999999974
 20
29.00000000000001
 30
0
 11
41.6999999999974
 21
21.45852420068974
 31
0
  0
LINE
  8
1
 62
7
 10
43.19999999999741
 20
29.00000000000001
 30
0
 11
41.6999999999974
 21
29.00000000000001
 31
0
  0
LINE
  8
1
 62
7
 10
28.59999999999739
 20
-26.70000000000006
 30
0
 11
28.59999999999739
 21
-54.14999999999996
 31
0
  0
LINE
  8
1
 62
7
 10
23.79999999999731
 20
23.50000000000001
 30
0
 11
24.89999999999739
 21
23.50000000000001
 31
0
  0
LINE
  8
1
 62
7
 10
43.04999999999731
 20
53.50000000000001
 30
0
 11
43.04999999999731
 21
70.53635867778252
 31
0
  0
LINE
  8
1
 62
7
 10
40.54999999999731
 20
53.50000000000001
 30
0
 11
40.54999999999731
 21
70.53635867778252
 31
0
  0
LINE
  8
1
 62
7
 10
40.54999999999731
 20
70.53635867778252
 30
0
 11
43.04999999999731
 21
70.53635867778252
 31
0
  0
LINE
  8
1
 62
7
 10
23.19999999999478
 20
13.5
 30
0
 11
23.19999999999478
 21
53.65
 31
0
  0
LINE
  8
1
 62
7
 10
19.19999999999478
 20
38
 30
0
 11
19.19999999999478
 21
53.65
 31
0
  0
LINE
  8
1
 62
7
 10
23.19999999999478
 20
53.65
 30
0
 11
19.19999999999478
 21
53.65
 31
0
  0
LINE
  8
1
 62
7
 10
23.19999999999478
 20
-53.64999999999996
 30
0
 11
19.19999999999478
 21
-53.64999999999996
 31
0
  0
LINE
  8
1
 62
7
 10
23.19999999999478
 20
-53.64999999999996
 30
0
 11
23.19999999999478
 21
-13.5
 31
0
  0
LINE
  8
1
 62
7
 10
17.79999999999466
 20
-53.00000000000006
 30
0
 11
17.79999999999466
 21
-13.5
 31
0
  0
LINE
  8
1
 62
7
 10
12.29999999999716
 20
34.00000000000001
 30
0
 11
12.29999999999628
 21
13.5
 31
0
  0
LINE
  8
1
 62
7
 10
12.29999999999517
 20
-17.5
 30
0
 11
4.099999999997369
 21
-17.5
 31
0
  0
LINE
  8
1
 62
7
 10
0.2999999999948564
 20
-20.99999999999984
 30
0
 11
4.099999999997369
 21
-21
 31
0
  0
LINE
  8
1
 62
7
 10
4.099999999997369
 20
-21
 30
0
 11
4.099999999997369
 21
21
 31
0
  0
LINE
  8
1
 62
7
 10
12.29999999999648
 20
17.5
 30
0
 11
4.099999999997369
 21
17.5
 31
0
  0
LINE
  8
1
 62
7
 10
4.099999999997369
 20
21
 30
0
 11
0.09999999999736886
 21
21
 31
0
  0
LINE
  8
1
 62
3
  6
DASHDOT
 10
15.29999999999696
 20
29
 30
0
 11
-2.900000000002631
 21
29
 31
0
  0
LINE
  8
1
 62
7
 10
0.09999999999736886
 20
31.4
 30
0
 11
12.29999999999696
 21
31.4
 31
0
  0
LINE
  8
1
 62
7
 10
12.29999999999696
 20
26.59999999999999
 30
0
 11
0.09999999999736886
 21
26.59999999999999
 31
0
  0
LINE
  8
1
 62
3
 10
0.09999999999736886
 20
32
 30
0
 11
12.29999999999696
 21
32
 31
0
  0
LINE
  8
1
 62
3
 10
12.29999999999696
 20
26
 30
0
 11
0.09999999999736886
 21
26
 31
0
  0
LINE
  8
1
 62
3
  6
DASHDOT
 10
-3.904327857671927
 20
0
 30
0
 11
0.09999999999736886
 21
0
 31
0
  0
LINE
  8
1
 62
7
 10
17.79999999999466
 20
25.00000000000003
 30
0
 11
16.79999999999696
 21
25.00000000000003
 31
0
  0
LINE
  8
1
 62
7
 10
16.79999999999628
 20
13.5
 30
0
 11
16.79999999999696
 21
29.49999999999998
 31
0
  0
LINE
  8
1
 62
7
 10
15.79999999999696
 20
30.50000000000003
 30
0
 11
12.29999999999696
 21
30.50000000000003
 31
0
  0
LINE
  8
1
 62
7
 10
2.099999999997369
 20
35.00000000000013
 30
0
 11
11.29999999999716
 21
35.00000000000006
 31
0
  0
LINE
  8
1
 62
7
 10
12.29999999999528
 20
-13.5
 30
0
 11
12.29999999999486
 21
-25.49999999999992
 31
0
  0
LINE
  8
1
 62
7
 10
13.29999999999477
 20
-26.49999999999997
 30
0
 11
15.79999999999466
 21
-26.49999999999997
 31
0
  0
LINE
  8
1
 62
7
 10
0.09999999999736886
 20
-20.99999999999983
 30
0
 11
0.09999999999736886
 21
33.00000000000013
 31
0
  0
LINE
  8
1
 62
7
 10
0.09999999999486775
 20
-20.99999999999984
 30
0
 11
0.2999999999948564
 21
-20.99999999999984
 31
0
  0
LINE
  8
1
 62
7
 10
0.2999999999948564
 20
-20.99999999999984
 30
0
 11
0.2999999999948564
 21
-24.50109924362593
 31
0
  0
LINE
  8
1
 62
7
 10
0.2999999999948564
 20
-24.50109924362593
 30
0
 11
1.299999999994856
 21
-24.50109924362593
 31
0
  0
LINE
  8
1
 62
7
 10
2.299999999994856
 20
-25.50109924362599
 30
0
 11
2.299999999994856
 21
-25.50410435609257
 31
0
  0
LINE
  8
1
 62
7
 10
1.299999999994856
 20
-26.50410435609254
 30
0
 11
0.7999999999946859
 21
-26.50410435609254
 31
0
  0
LINE
  8
1
 62
7
 10
0.2999999999946859
 20
-27.00410435609251
 30
0
 11
0.2999999999939469
 21
-47.49999999999976
 31
0
  0
LINE
  8
1
 62
7
 10
2.299999999993947
 20
-49.49999999999986
 30
0
 11
4.299999999993776
 21
-49.49999999999986
 31
0
  0
LINE
  8
1
 62
7
 10
4.299999999993776
 20
-49.49999999999986
 30
0
 11
4.299999999993776
 21
-49.99999999999986
 31
0
  0
LINE
  8
1
 62
7
 10
4.799999999993776
 20
-50.49999999999986
 30
0
 11
11.79999999999378
 21
-50.49999999999996
 31
0
  0
LINE
  8
1
 62
7
 10
12.29999999999378
 20
-49.99999999999996
 30
0
 11
12.29999999999378
 21
-49.49999999999996
 31
0
  0
LINE
  8
1
 62
7
 10
12.29999999999378
 20
-49.49999999999996
 30
0
 11
15.79999999999378
 21
-49.49999999999996
 31
0
  0
LINE
  8
1
 62
7
 10
16.79999999999466
 20
-27.50000000000006
 30
0
 11
16.79999999999378
 21
-48.50000000000006
 31
0
  0
LINE
  8
1
 62
7
 10
18.49999999999476
 20
38
 30
0
 11
19.19999999999478
 21
38
 31
0
  0
LINE
  8
1
 62
7
 10
18.49999999999448
 20
13.5
 30
0
 11
18.49999999999476
 21
38
 31
0
  0
LINE
  8
1
 62
7
 10
18.49999999999456
 20
26.5
 30
0
 11
23.19999999999478
 21
26.5
 31
0
  0
LINE
  8
1
 62
7
 10
18.49999999999476
 20
53
 30
0
 11
19.19999999999478
 21
53
 31
0
  0
LINE
  8
1
 62
7
 10
18.49999999999476
 20
40.54136836602153
 30
0
 11
18.49999999999476
 21
53
 31
0
  0
LINE
  8
1
 62
7
 10
17.79999999999466
 20
38
 30
0
 11
18.49999999999476
 21
40.54136836602153
 31
0
  0
LINE
  8
1
 62
7
 10
18.49999999999476
 20
38
 30
0
 11
19.19999999999478
 21
40.61243556529822
 31
0
  0
LINE
  8
1
 62
7
 10
16.69999999999478
 20
43
 30
0
 11
18.49999999999476
 21
43
 31
0
  0
LINE
  8
1
 62
7
 10
16.69999999999478
 20
52
 30
0
 11
18.49999999999476
 21
52
 31
0
  0
LINE
  8
1
 62
7
 10
17.79999999999466
 20
43
 30
0
 11
17.79999999999466
 21
52
 31
0
  0
LINE
  8
1
 62
7
 10
17.79999999999466
 20
13.5
 30
0
 11
17.79999999999466
 21
38
 31
0
  0
LINE
  8
1
 62
7
 10
18.49999999999476
 20
42
 30
0
 11
19.19999999999478
 21
42
 31
0
  0
LINE
  8
1
 62
7
 10
18.49999999999448
 20
-13.5
 30
0
 11
18.49999999999476
 21
-53.00000000000006
 31
0
  0
LINE
  8
1
 62
7
 10
23.19999999999478
 20
-26.50000000000003
 30
0
 11
18.49999999999448
 21
-26.50000000000003
 31
0
  0
LINE
  8
1
 62
7
 10
17.79999999999466
 20
-53.00000000000006
 30
0
 11
18.49999999999476
 21
-53.00000000000006
 31
0
  0
LINE
  8
1
 62
7
 10
17.79999999999466
 20
-30.00000000000006
 30
0
 11
18.49999999999476
 21
-30.00000000000006
 31
0
  0
LINE
  8
1
 62
7
 10
16.19999999999478
 20
51.5
 30
0
 11
16.19999999999478
 21
43.5
 31
0
  0
LINE
  8
1
 62
7
 10
16.69999999999478
 20
52
 30
0
 11
16.19999999999478
 21
51.5
 31
0
  0
LINE
  8
1
 62
7
 10
16.69999999999478
 20
52
 30
0
 11
16.19999999999478
 21
51.5
 31
0
  0
LINE
  8
1
 62
7
 10
16.69999999999478
 20
43
 30
0
 11
16.19999999999478
 21
43.5
 31
0
  0
LINE
  8
1
 62
7
 10
16.69999999999478
 20
43
 30
0
 11
16.19999999999478
 21
43.5
 31
0
  0
LINE
  8
1
 62
7
 10
23.89999999999457
 20
13.5
 30
0
 11
4.099999999997369
 21
13.5
 31
0
  0
LINE
  8
1
 62
7
 10
23.89999999999468
 20
-13.5
 30
0
 11
4.099999999997369
 21
-13.5
 31
0
  0
LINE
  8
1
 62
7
 10
19.19999999999478
 20
-37.99999999999996
 30
0
 11
18.49999999999476
 21
-37.99999999999996
 31
0
  0
LINE
  8
1
 62
7
 10
19.19999999999478
 20
-53.64999999999996
 30
0
 11
19.19999999999478
 21
-37.99999999999996
 31
0
  0
LINE
  8
1
 62
7
 10
16.79999999999398
 20
-43.99999999999996
 30
0
 11
17.79999999999466
 21
-43.99999999999996
 31
0
  0
LINE
  8
1
 62
7
 10
16.79999999999466
 20
-31.99999999999996
 30
0
 11
17.79999999999466
 21
-31.99999999999996
 31
0
  0
LINE
  8
1
 62
7
 10
18.49999999999476
 20
-47.49999999999996
 30
0
 11
17.79999999999466
 21
-47.49999999999996
 31
0
  0
LINE
  8
1
 62
7
 10
23.59999999999739
 20
-53.50000000000006
 30
0
 11
23.59999999999739
 21
-15.29170656737476
 31
0
  0
LINE
  8
1
 62
7
 10
23.59999999999739
 20
15.55029873365724
 30
0
 11
23.59999999999739
 21
53.50000000000001
 31
0
  0
LINE
  8
1
 62
7
 10
99.89999999999739
 20
-25.99114752577991
 30
0
 11
99.89999999999739
 21
-24.49939214217979
 31
0
  0
LINE
  8
1
 62
7
 10
100.3999999999974
 20
-26.49114752577991
 30
0
 11
103.8999999999974
 21
-26.49114752577991
 31
0
  0
LINE
  8
1
 62
7
 10
104.3999999999974
 20
-19.00000000000004
 30
0
 11
104.3999999999974
 21
-48.99696731187267
 31
0
  0
LINE
  8
1
 62
7
 10
103.8999999999974
 20
-23.99939214217979
 30
0
 11
100.3999999999974
 21
-23.99939214217979
 31
0
  0
LINE
  8
1
 62
7
 10
86.59999999999728
 20
-24.00000000000004
 30
0
 11
86.59999999999728
 21
-52.99999999999996
 31
0
  0
LINE
  8
1
 62
7
 10
81.89999999999729
 20
-19.00000000000004
 30
0
 11
81.89999999999721
 21
-53.65000000000006
 31
0
  0
LINE
  8
1
 62
3
  6
DASHDOT
 10
93.59999999999731
 20
37.87402731569875
 30
0
 11
93.59999999999731
 21
8.999999999999965
 31
0
  0
LINE
  8
1
 62
7
 10
95.49999999999729
 20
19.96197067551627
 30
0
 11
95.49999999999729
 21
11.99999999999996
 31
0
  0
LINE
  8
1
 62
7
 10
91.69999999999719
 20
11.99999999999996
 30
0
 11
91.69999999999719
 21
19.96197067551627
 31
0
  0
LINE
  8
1
 62
3
 10
96.09999999999731
 20
19.96197067551627
 30
0
 11
96.09999999999731
 21
11.99999999999996
 31
0
  0
LINE
  8
1
 62
3
 10
91.09999999999731
 20
11.99999999999996
 30
0
 11
91.09999999999731
 21
19.96197067551627
 31
0
  0
LINE
  8
1
 62
7
 10
90.09999999999731
 20
19.96197067551627
 30
0
 11
97.09999999999731
 21
19.96197067551627
 31
0
  0
LINE
  8
1
 62
7
 10
90.09999999999731
 20
19.96197067551627
 30
0
 11
90.09999999999731
 21
34.96197067551627
 31
0
  0
LINE
  8
1
 62
7
 10
97.09999999999731
 20
19.96197067551627
 30
0
 11
97.09999999999731
 21
34.96197067551627
 31
0
  0
LINE
  8
1
 62
7
 10
104.7999999999973
 20
9.99999999999995
 30
0
 11
4
 21
10
 31
0
  0
LINE
  8
1
 62
7
 10
23.79999999999731
 20
12.00000000000001
 30
0
 11
104.7999999999973
 21
11.99999999999996
 31
0
  0
LINE
  8
1
 62
7
 10
80.09999999999731
 20
-19.00000000000004
 30
0
 11
84.09999999999731
 21
-19.00000000000004
 31
0
  0
LINE
  8
1
 62
7
 10
84.59999999999731
 20
-19.50000000000004
 30
0
 11
84.59999999999731
 21
-23.50000000000004
 31
0
  0
LINE
  8
1
 62
7
 10
85.09999999999731
 20
-24.00000000000004
 30
0
 11
87.39999999999741
 21
-24.00000000000004
 31
0
  0
LINE
  8
1
 62
7
 10
87.89999999999741
 20
-24.50000000000004
 30
0
 11
87.89999999999741
 21
-48.99696731187267
 31
0
  0
LINE
  8
1
 62
7
 10
88.39999999999741
 20
-49.49696731187267
 30
0
 11
91.39999999999741
 21
-49.49696731187267
 31
0
  0
LINE
  8
1
 62
7
 10
91.89999999999741
 20
-49.99696731187267
 30
0
 11
91.89999999999741
 21
-50.99992802775826
 31
0
  0
LINE
  8
1
 62
7
 10
92.39999999999741
 20
-51.49992802775826
 30
0
 11
99.39999999999741
 21
-51.49992802775826
 31
0
  0
LINE
  8
1
 62
7
 10
99.89999999999739
 20
-50.99992802775826
 30
0
 11
99.89999999999739
 21
-49.99696731187267
 31
0
  0
LINE
  8
1
 62
7
 10
100.3999999999974
 20
-49.49696731187267
 30
0
 11
103.8999999999974
 21
-49.49696731187267
 31
0
  0
LINE
  8
1
 62
7
 10
104.3999999999974
 20
-19.00000000000004
 30
0
 11
104.5999999999973
 21
-19.00000000000004
 31
0
  0
LINE
  8
1
 62
7
 10
104.5999999999973
 20
-19.00000000000004
 30
0
 11
104.5999999999973
 21
23.49999999999996
 31
0
  0
LINE
  8
1
 62
7
 10
79.59999999999731
 20
-18.50000000000004
 30
0
 11
79.59999999999731
 21
18.49999999999996
 31
0
  0
LINE
  8
1
 62
7
 10
80.09999999999731
 20
18.99999999999996
 30
0
 11
84.09999999999731
 21
18.99999999999996
 31
0
  0
LINE
  8
1
 62
7
 10
84.59999999999731
 20
19.49999999999996
 30
0
 11
84.59999999999731
 21
23.49999999999996
 31
0
  0
LINE
  8
1
 62
7
 10
85.09999999999731
 20
23.99999999999996
 30
0
 11
87.39999999999741
 21
23.99999999999996
 31
0
  0
LINE
  8
1
 62
7
 10
87.89999999999741
 20
24.49999999999996
 30
0
 11
87.89999999999741
 21
34.46197067551627
 31
0
  0
LINE
  8
1
 62
7
 10
88.39999999999741
 20
34.96197067551627
 30
0
 11
99.39999999999741
 21
34.96197067551627
 31
0
  0
LINE
  8
1
 62
7
 10
99.89999999999739
 20
34.46197067551627
 30
0
 11
99.89999999999739
 21
24.49999999999996
 31
0
  0
LINE
  8
1
 62
7
 10
100.3999999999974
 20
23.99999999999996
 30
0
 11
104.0999999999973
 21
23.99999999999996
 31
0
  0
LINE
  8
1
 62
7
 10
86.59999999999728
 20
-30.00000000000006
 30
0
 11
87.29999999999718
 21
-30.00000000000006
 31
0
  0
LINE
  8
1
 62
7
 10
87.29999999999718
 20
-43.49999999999996
 30
0
 11
87.89999999999741
 21
-43.49999999999996
 31
0
  0
LINE
  8
1
 62
7
 10
87.29999999999718
 20
-32.49999999999996
 30
0
 11
87.89999999999741
 21
-32.49999999999996
 31
0
  0
LINE
  8
1
 62
7
 10
87.29999999999718
 20
-24.00000000000004
 30
0
 11
87.29999999999718
 21
-52.99999999999996
 31
0
  0
LINE
  8
1
 62
7
 10
86.59999999999728
 20
-52.99999999999996
 30
0
 11
87.29999999999718
 21
-52.99999999999996
 31
0
  0
LINE
  8
1
 62
7
 10
86.59999999999728
 20
-26.50000000000002
 30
0
 11
81.89999999999729
 21
-26.50000000000002
 31
0
  0
LINE
  8
1
 62
7
 10
85.89999999999721
 20
41.99999999999998
 30
0
 11
86.59999999999728
 21
41.99999999999998
 31
0
  0
LINE
  8
1
 62
7
 10
87.29999999999718
 20
37.99999999999999
 30
0
 11
87.29999999999718
 21
23.99999999999996
 31
0
  0
LINE
  8
1
 62
7
 10
88.89999999999721
 20
43.49999999999998
 30
0
 11
88.39999999999721
 21
42.99999999999998
 31
0
  0
LINE
  8
1
 62
7
 10
88.89999999999721
 20
51.49999999999998
 30
0
 11
88.89999999999721
 21
43.49999999999998
 31
0
  0
LINE
  8
1
 62
7
 10
86.59999999999728
 20
42.99999999999998
 30
0
 11
88.39999999999721
 21
42.99999999999998
 31
0
  0
LINE
  8
1
 62
7
 10
88.89999999999721
 20
51.49999999999998
 30
0
 11
88.39999999999721
 21
51.99999999999998
 31
0
  0
LINE
  8
1
 62
7
 10
86.59999999999728
 20
51.99999999999998
 30
0
 11
88.39999999999721
 21
51.99999999999998
 31
0
  0
LINE
  8
1
 62
7
 10
87.29999999999718
 20
51.99999999999998
 30
0
 11
87.29999999999718
 21
42.99999999999998
 31
0
  0
LINE
  8
1
 62
7
 10
86.59999999999728
 20
52.99999999999998
 30
0
 11
86.59999999999728
 21
40.54136836602156
 31
0
  0
LINE
  8
1
 62
7
 10
85.89999999999721
 20
40.61243556529818
 30
0
 11
86.59999999999728
 21
37.99999999999999
 31
0
  0
LINE
  8
1
 62
7
 10
86.59999999999728
 20
40.54136836602156
 30
0
 11
87.29999999999718
 21
37.99999999999999
 31
0
  0
LINE
  8
1
 62
7
 10
85.89999999999721
 20
52.99999999999998
 30
0
 11
86.59999999999728
 21
52.99999999999998
 31
0
  0
LINE
  8
1
 62
7
 10
86.59999999999728
 20
37.99999999999999
 30
0
 11
86.59999999999729
 21
23.99999999999996
 31
0
  0
LINE
  8
1
 62
7
 10
81.89999999999729
 20
26.49999999999998
 30
0
 11
86.59999999999728
 21
26.49999999999998
 31
0
  0
LINE
  8
1
 62
7
 10
85.89999999999721
 20
37.99999999999999
 30
0
 11
86.59999999999728
 21
37.99999999999999
 31
0
  0
LINE
  8
1
 62
7
 10
86.59999999999728
 20
-37.99999999999996
 30
0
 11
85.89999999999721
 21
-38.00000000000006
 31
0
  0
LINE
  8
1
 62
7
 10
85.89999999999721
 20
-38.00000000000006
 30
0
 11
85.89999999999721
 21
-53.65000000000006
 31
0
  0
LINE
  8
1
 62
3
  6
DASHDOT
 10
108.6197241571163
 20
-1.4210854715202e-014
 30
0
 11
104.5999999999973
 21
-1.4210854715202e-014
 31
0
  0
LINE
  8
1
 62
7
 10
79.59999999999731
 20
17.50000000000001
 30
0
 11
77.2999999999974
 21
17.50000000000001
 31
0
  0
LINE
  8
1
 62
7
 10
79.59999999999742
 20
-17.49999999999999
 30
0
 11
77.2999999999974
 21
-17.49999999999999
 31
0
  0
LINE
  8
1
 62
7
 10
85.89999999999721
 20
53.64999999999999
 30
0
 11
81.89999999999721
 21
53.64999999999999
 31
0
  0
LINE
  8
1
 62
7
 10
81.89999999999721
 20
53.64999999999999
 30
0
 11
81.89999999999729
 21
18.99999999999996
 31
0
  0
LINE
  8
1
 62
7
 10
85.89999999999721
 20
-53.65000000000006
 30
0
 11
81.89999999999721
 21
-53.65000000000006
 31
0
  0
LINE
  8
1
 62
7
 10
70.74999999999741
 20
70.53635867778252
 30
0
 11
70.74999999999741
 21
53.5
 31
0
  0
LINE
  8
1
 62
7
 10
77.1105968083272
 20
26.49999999999996
 30
0
 11
81.49999999999739
 21
26.49999999999996
 31
0
  0
LINE
  8
1
 62
7
 10
58.09999999999741
 20
24.49999999999998
 30
0
 11
53.1999999999974
 21
24.49999999999998
 31
0
  0
LINE
  8
1
 62
7
 10
58.09999999999761
 20
-24.50000000000002
 30
0
 11
53.1999999999974
 21
-24.50000000000002
 31
0
  0
LINE
  8
1
 62
3
  6
DASHDOT
 10
215.2999999999976
 20
0
 30
0
 11
209.4276411000749
 21
-1.4210854715202e-014
 31
0
  0
LINE
  8
1
 62
3
  6
DASHDOT
 10
215.2999999999976
 20
0
 30
0
 11
215.2999999999976
 21
-5.872358899922769
 31
0
  0
LINE
  8
1
 62
7
 10
217.7999999999976
 20
56.44466316668034
 30
0
 11
217.7999999999976
 21
70.55861913509679
 31
0
  0
LINE
  8
1
 62
7
 10
217.7999999999976
 20
70.55861913509679
 30
0
 11
212.7999999999976
 21
70.55861913509679
 31
0
  0
LINE
  8
1
 62
7
 10
4
 20
-9.999999999999989
 30
0
 11
104.7999999999973
 21
-9.999999999999989
 31
0
  0
LINE
  8
1
 62
7
 10
23.79999999999731
 20
23.50000000000001
 30
0
 11
23.79999999999731
 21
-23.49999999999999
 31
0
  0
LINE
  8
1
 62
7
 10
46.61965193706949
 20
19.94999999999999
 30
0
 11
43.1999999999974
 21
19.94999999999999
 31
0
  0
LINE
  8
1
 62
7
 10
49.78034806292531
 20
19.94999999999999
 30
0
 11
53.1999999999974
 21
19.94999999999999
 31
0
  0
LINE
  8
1
 62
7
 10
46.61965193706949
 20
25.04999999999999
 30
0
 11
43.1999999999974
 21
25.04999999999999
 31
0
  0
LINE
  8
1
 62
7
 10
49.78034806292531
 20
25.04999999999999
 30
0
 11
53.1999999999974
 21
25.04999999999999
 31
0
  0
LINE
  8
1
 62
7
 10
52.1999999999974
 20
25.66249999999999
 30
0
 11
52.1999999999974
 21
19.33749999999998
 31
0
  0
LINE
  8
1
 62
7
 10
44.1999999999974
 20
25.66249999999999
 30
0
 11
44.1999999999974
 21
19.33749999999998
 31
0
  0
LINE
  8
1
 62
7
 10
43.19999999999741
 20
27.5
 30
0
 11
53.1999999999974
 21
27.5
 31
0
  0
LINE
  8
1
 62
7
 10
42.99999999999741
 20
20.50000000000001
 30
0
 11
43.1999999999974
 21
20.50000000000001
 31
0
  0
LINE
  8
1
 62
7
 10
50.79999999999731
 20
50
 30
0
 11
50.79999999999751
 21
27.50000000000001
 31
0
  0
LINE
  8
1
 62
7
 10
53.1999999999974
 20
-19.94999999999999
 30
0
 11
49.78034806292531
 21
-19.94999999999999
 31
0
  0
LINE
  8
1
 62
7
 10
52.1999999999974
 20
-19.33749999999998
 30
0
 11
52.1999999999974
 21
-25.66249999999999
 31
0
  0
LINE
  8
1
 62
7
 10
53.1999999999974
 20
-25.04999999999999
 30
0
 11
49.78034806292531
 21
-25.04999999999999
 31
0
  0
LINE
  8
1
 62
7
 10
43.1999999999974
 20
-25.04999999999999
 30
0
 11
46.61965193706949
 21
-25.04999999999999
 31
0
  0
LINE
  8
1
 62
7
 10
44.1999999999974
 20
-19.33749999999998
 30
0
 11
44.1999999999974
 21
-25.66249999999999
 31
0
  0
LINE
  8
1
 62
7
 10
43.1999999999974
 20
-19.94999999999999
 30
0
 11
46.61965193706949
 21
-19.94999999999999
 31
0
  0
LINE
  8
1
 62
7
 10
43.1999999999974
 20
-27.49999999999996
 30
0
 11
53.1999999999974
 21
-27.49999999999996
 31
0
  0
LINE
  8
1
 62
7
 10
53.1999999999974
 20
-49.99999999999996
 30
0
 11
53.1999999999974
 21
-17.49999999999999
 31
0
  0
LINE
  8
1
 62
7
 10
50.79999999999731
 20
-49.99999999999996
 30
0
 11
50.79999999999731
 21
-27.49999999999996
 31
0
  0
LINE
  8
1
 62
7
 10
43.1999999999974
 20
-17.49999999999999
 30
0
 11
43.1999999999974
 21
-28.99999999999996
 31
0
  0
LINE
  8
1
 62
7
 10
29.89999999999809
 20
-27.49999999999996
 30
0
 11
41.69999999999741
 21
-27.49999999999996
 31
0
  0
LINE
  8
1
 62
7
 10
81.49999999999739
 20
53.5
 30
0
 11
66.49999999999741
 21
53.5
 31
0
  0
LINE
  8
1
 62
7
 10
64.10208423834109
 20
27.49999999999996
 30
0
 11
77.11059680832719
 21
27.49999999999996
 31
0
  0
LINE
  8
1
 62
7
 10
77.11059680832719
 20
27.49999999999996
 30
0
 11
77.11059680832719
 21
22.50799999999996
 31
0
  0
LINE
  8
1
 62
7
 10
77.11059680832719
 20
-27.49999999999999
 30
0
 11
64.10208423834081
 21
-27.50000000000006
 31
0
  0
LINE
  8
1
 62
7
 10
77.11059680832719
 20
-22.50799999999999
 30
0
 11
77.11059680832719
 21
-27.49999999999999
 31
0
  0
LINE
  8
1
 62
7
 10
81.49999999999739
 20
-26.49999999999999
 30
0
 11
77.1105968083272
 21
-26.49999999999999
 31
0
  0
LINE
  8
1
 62
7
 10
75.1999999999974
 20
25.66249999999999
 30
0
 11
75.1999999999974
 21
19.33749999999998
 31
0
  0
LINE
  8
1
 62
7
 10
72.78034806292531
 20
25.04999999999999
 30
0
 11
76.1999999999974
 21
25.04999999999999
 31
0
  0
LINE
  8
1
 62
7
 10
67.1999999999974
 20
25.66249999999999
 30
0
 11
67.1999999999974
 21
19.33749999999998
 31
0
  0
LINE
  8
1
 62
7
 10
69.61965193706949
 20
25.04999999999999
 30
0
 11
66.1999999999974
 21
25.04999999999999
 31
0
  0
LINE
  8
1
 62
7
 10
69.61965193706949
 20
19.94999999999999
 30
0
 11
66.1999999999974
 21
19.94999999999999
 31
0
  0
LINE
  8
1
 62
7
 10
72.78034806292531
 20
19.94999999999999
 30
0
 11
76.1999999999974
 21
19.94999999999999
 31
0
  0
LINE
  8
1
 62
7
 10
76.19999999999739
 20
16.84999999999999
 30
0
 11
76.19999999999739
 21
27.49999999999996
 31
0
  0
LINE
  8
1
 62
7
 10
66.1999999999974
 20
17.50000000000001
 30
0
 11
66.1999999999974
 21
27.49999999999996
 31
0
  0
LINE
  8
1
 62
7
 10
75.1999999999974
 20
-19.33749999999998
 30
0
 11
75.1999999999974
 21
-25.66249999999999
 31
0
  0
LINE
  8
1
 62
7
 10
76.1999999999974
 20
-19.94999999999999
 30
0
 11
72.78034806292531
 21
-19.94999999999999
 31
0
  0
LINE
  8
1
 62
7
 10
76.1999999999974
 20
-25.04999999999999
 30
0
 11
72.78034806292531
 21
-25.04999999999999
 31
0
  0
LINE
  8
1
 62
7
 10
66.1999999999974
 20
-25.04999999999999
 30
0
 11
69.61965193706949
 21
-25.04999999999999
 31
0
  0
LINE
  8
1
 62
7
 10
67.1999999999974
 20
-19.33749999999998
 30
0
 11
67.1999999999974
 21
-25.66249999999999
 31
0
  0
LINE
  8
1
 62
7
 10
66.1999999999974
 20
-19.94999999999999
 30
0
 11
69.61965193706949
 21
-19.94999999999999
 31
0
  0
LINE
  8
1
 62
7
 10
66.1999999999974
 20
-17.49999999999999
 30
0
 11
66.1999999999974
 21
-27.50000000000005
 31
0
  0
LINE
  8
1
 62
7
 10
76.19999999999739
 20
-16.85000000000001
 30
0
 11
76.19999999999739
 21
-27.49999999999999
 31
0
  0
LINE
  8
1
 62
7
 10
85.89999999999721
 20
53.64999999999999
 30
0
 11
85.89999999999721
 21
37.99999999999999
 31
0
  0
LINE
  8
1
 62
7
 10
-108.0107656982074
 20
70.55862016076284
 30
0
 11
-113.0107656982074
 21
70.55862016076284
 31
0
  0
LINE
  8
1
 62
3
  6
DASHDOT
 10
-110.4999999999997
 20
4.263256414560601e-014
 30
0
 11
-116.3723588999225
 21
4.263256414560601e-014
 31
0
  0
LINE
  8
1
 62
3
  6
DASHDOT
 10
-110.4999999999997
 20
4.263256414560601e-014
 30
0
 11
-110.4999999999997
 21
-5.87235889992272
 31
0
  0
LINE
  8
1
 62
7
 10
81.49999999999739
 20
253.9999999999999
 30
0
 11
81.49999999999739
 21
147.0000000000001
 31
0
  0
LINE
  8
1
 62
7
 10
85.89999999999726
 20
146.8499999999999
 30
0
 11
85.89999999999705
 21
254.1499999999999
 31
0
  0
LINE
  8
1
 62
7
 10
50.8999999999977
 20
150.5000000000001
 30
0
 11
60.59999999999761
 21
150.5000000000001
 31
0
  0
LINE
  8
1
 62
7
 10
50.8999999999977
 20
150.5000000000001
 30
0
 11
50.8999999999977
 21
250.4999999999999
 31
0
  0
LINE
  8
1
 62
7
 10
49.3999999999977
 20
249.7335136523793
 30
0
 11
49.3999999999977
 21
237.5335136523794
 31
0
  0
LINE
  8
1
 62
7
 10
60.59999999999761
 20
250.4999999999999
 30
0
 11
60.59999999999761
 21
150.5000000000001
 31
0
  0
LINE
  8
1
 62
7
 10
17.79999999999457
 20
147.4999999999998
 30
0
 11
17.79999999999457
 21
238.4999999999999
 31
0
  0
LINE
  8
1
 62
7
 10
17.79999999999457
 20
186.9999999999999
 30
0
 11
12.29999999999532
 21
186.9999999999999
 31
0
  0
LINE
  8
1
 62
7
 10
19.19999999999458
 20
254.1499999999999
 30
0
 11
19.19999999999458
 21
146.8499999999999
 31
0
  0
LINE
  8
1
 62
7
 10
23.59999999999743
 20
253.9999999999999
 30
0
 11
23.59999999999743
 21
146.9999999999998
 31
0
  0
LINE
  8
1
 62
7
 10
16.79999999999703
 20
225.4999999999999
 30
0
 11
17.79999999999457
 21
225.4999999999999
 31
0
  0
LINE
  8
1
 62
7
 10
0.09999999999745413
 20
179.5000000000001
 30
0
 11
0.2999999999952827
 21
179.5000000000001
 31
0
  0
ARC
  8
1
 62
7
 10
66.59999999999761
 20
153.0000000000001
 30
0
 40
6.00000000000002
 50
193.3315514224896
 51
270
  0
ARC
  8
1
 62
7
 10
44.8999999999977
 20
247.9999999999999
 30
0
 40
6.000000000000047
 50
16.79324573106736
 51
90
  0
ARC
  8
1
 62
7
 10
15.79999999999656
 20
208.9999999999999
 30
0
 40
1
 50
270
 51
0
  0
ARC
  8
1
 62
7
 10
15.79999999999716
 20
229.9999999999999
 30
0
 40
0.9999999999999982
 50
0
 51
90
  0
ARC
  8
1
 62
7
 10
13.29999999999508
 20
174.9999999999999
 30
0
 40
1.000000000000201
 50
180
 51
269.9999999999885
  0
ARC
  8
1
 62
7
 10
15.79999999999466
 20
172.9999999999999
 30
0
 40
1.000000000000002
 50
0
 51
90
  0
ARC
  8
1
 62
7
 10
11.29999999999736
 20
234.4999999999999
 30
0
 40
1
 50
0
 51
89.99999999999369
  0
ARC
  8
1
 62
7
 10
2.099999999997454
 20
233.5000000000001
 30
0
 40
2
 50
90
 51
180
  0
ARC
  8
1
 62
7
 10
15.79999999999386
 20
152.0000000000001
 30
0
 40
1
 50
270
 51
0
  0
ARC
  8
1
 62
7
 10
2.299999999994146
 20
153.0000000000001
 30
0
 40
2.000000000000284
 50
180
 51
269.9999999999919
  0
ARC
  8
1
 62
7
 10
11.79999999999406
 20
150.5000000000001
 30
0
 40
0.5
 50
270
 51
0
  0
ARC
  8
1
 62
7
 10
4.799999999994089
 20
150.5000000000001
 30
0
 40
0.5000000000003411
 50
180
 51
270
  0
ARC
  8
1
 62
7
 10
0.7999999999949985
 20
173.4958956439074
 30
0
 40
0.5
 50
90
 51
180
  0
ARC
  8
1
 62
7
 10
1.299999999995055
 20
174.9958956439074
 30
0
 40
1
 50
270
 51
0
  0
ARC
  8
1
 62
7
 10
1.299999999995055
 20
174.998900756374
 30
0
 40
1
 50
0
 51
90
  0
ARC
  8
1
 62
7
 10
11.29999999999696
 20
231.9972680811237
 30
0
 40
1
 50
0
 51
90
  0
ARC
  8
1
 62
7
 10
5.299999999993748
 20
231.9972680811237
 30
0
 40
1
 50
90
 51
180
  0
ARC
  8
1
 62
7
 10
1.299999999997159
 20
229.9999999999999
 30
0
 40
1
 50
90
 51
180
  0
ARC
  8
1
 62
7
 10
66.59999999999761
 20
247.9999999999999
 30
0
 40
6
 50
90
 51
166.6684485775112
  0
ARC
  8
1
 62
7
 10
44.8999999999977
 20
153.0000000000001
 30
0
 40
6
 50
270
 51
343.2067542689314
  0
ARC
  8
1
 62
7
 10
91.39999999999731
 20
174.50885247422
 30
0
 40
0.5
 50
270
 51
0
  0
ARC
  8
1
 62
7
 10
88.39999999999731
 20
173.50885247422
 30
0
 40
0.5
 50
90
 51
180
  0
ARC
  8
1
 62
7
 10
103.8999999999973
 20
177.0006078578201
 30
0
 40
0.5
 50
270
 51
0
  0
ARC
  8
1
 62
7
 10
103.8999999999971
 20
173.50885247422
 30
0
 40
0.5
 50
0
 51
90
  0
ARC
  8
1
 62
7
 10
100.3999999999971
 20
174.50885247422
 30
0
 40
0.5
 50
180
 51
270
  0
ARC
  8
1
 62
7
 10
100.3999999999971
 20
176.0006078578201
 30
0
 40
0.5
 50
90
 51
180
  0
ARC
  8
1
 62
7
 10
99.39999999999711
 20
234.9619706755162
 30
0
 40
0.5
 50
0
 51
90
  0
ARC
  8
1
 62
7
 10
88.39999999999711
 20
234.9619706755162
 30
0
 40
0.5
 50
90
 51
180
  0
ARC
  8
1
 62
7
 10
87.39999999999711
 20
224.9999999999999
 30
0
 40
0.5
 50
270
 51
0
  0
ARC
  8
1
 62
7
 10
87.39999999999731
 20
175.9999999999999
 30
0
 40
0.4999999999998011
 50
0
 51
90
  0
ARC
  8
1
 62
7
 10
88.39999999999731
 20
151.5030326881272
 30
0
 40
0.500000000000199
 50
180
 51
270
  0
ARC
  8
1
 62
7
 10
91.39999999999711
 20
150.5030326881272
 30
0
 40
0.5
 50
0
 51
90
  0
ARC
  8
1
 62
7
 10
92.39999999999731
 20
149.5000719722418
 30
0
 40
0.500000000000199
 50
180
 51
270
  0
ARC
  8
1
 62
7
 10
99.39999999999711
 20
149.5000719722418
 30
0
 40
0.5
 50
270
 51
0
  0
ARC
  8
1
 62
7
 10
100.3999999999971
 20
150.5030326881272
 30
0
 40
0.5
 50
90
 51
180
  0
ARC
  8
1
 62
7
 10
103.8999999999971
 20
151.5030326881272
 30
0
 40
0.5
 50
270
 51
0
  0
ARC
  8
1
 62
7
 10
91.39999999999731
 20
207.5000688002627
 30
0
 40
0.4999999999998011
 50
0
 51
90
  0
ARC
  8
1
 62
7
 10
88.39999999999731
 20
208.5000688002627
 30
0
 40
0.500000000000199
 50
180
 51
270
  0
ARC
  8
1
 62
7
 10
100.3999999999971
 20
207.5000688002627
 30
0
 40
0.5
 50
90
 51
180
  0
ARC
  8
1
 62
7
 10
104.0999999999972
 20
208.5000688002627
 30
0
 40
0.5
 50
270
 51
0
  0
ARC
  8
1
 62
7
 10
92.39999999999711
 20
234.9619706755162
 30
0
 40
0.5
 50
90
 51
180
  0
ARC
  8
1
 62
7
 10
100.3999999999971
 20
231.4702009502706
 30
0
 40
0.5
 50
180
 51
270
  0
ARC
  8
1
 62
7
 10
91.39999999999711
 20
231.4702009502706
 30
0
 40
0.5
 50
270
 51
0
  0
ARC
  8
1
 62
7
 10
88.39999999999731
 20
230.4702009502706
 30
0
 40
0.5
 50
90
 51
180
  0
ARC
  8
1
 62
7
 10
104.0999999999972
 20
230.4702009502706
 30
0
 40
0.5
 50
0
 51
90
  0
ARC
  8
1
 62
7
 10
87.39999999999711
 20
208.5000688002627
 30
0
 40
0.5
 50
270
 51
0
  0
ARC
  8
1
 62
7
 10
88.39999999999731
 20
188.9157496270087
 30
0
 40
0.5
 50
90
 51
180
  0
ARC
  8
1
 62
7
 10
91.39999999999711
 20
189.9157496270087
 30
0
 40
0.5
 50
270
 51
0
  0
ARC
  8
1
 62
7
 10
88.39999999999731
 20
177.7913939740265
 30
0
 40
0.500000000000199
 50
180
 51
270
  0
ARC
  8
1
 62
7
 10
91.39999999999711
 20
176.7913939740265
 30
0
 40
0.5
 50
0
 51
90
  0
ARC
  8
1
 62
7
 10
87.59999999999741
 20
194.7839375432419
 30
0
 40
0.2999999999996987
 50
0
 51
90
  0
ARC
  8
1
 62
7
 10
-96.09028961544988
 20
25.16664949160695
 30
0
 40
5.999999999999949
 50
341.5644067938445
 51
60.20577031500837
  0
ARC
  8
1
 62
7
 10
-81.50018701985448
 20
-0.1041494916068615
 30
0
 40
5.999999999999917
 50
359.7942296849923
 51
78.43559320615614
  0
ARC
  8
1
 62
7
 10
-89.01108059764067
 20
41.79983663746695
 30
0
 40
12.00000000000008
 50
242.7927123639784
 51
296.6055013110848
  0
ARC
  8
1
 62
7
 10
-63.55581989673442
 20
-2.289968216414209
 30
0
 40
11.99999999999995
 50
123.3944986889148
 51
177.2072876360211
  0
ARC
  8
1
 62
7
 10
-139.4998129801449
 20
-0.1041494916068331
 30
0
 40
5.999999999999996
 50
101.5644067938452
 51
180.205770315008
  0
ARC
  8
1
 62
7
 10
-124.9097103845495
 20
25.16664949160695
 30
0
 40
5.999999999999969
 50
119.7942296849918
 51
198.4355932061555
  0
ARC
  8
1
 62
7
 10
-157.4441801032651
 20
-2.289968216414209
 30
0
 40
12.00000000000011
 50
2.792712363978833
 51
56.60550131108494
  0
ARC
  8
1
 62
7
 10
-131.9889194023587
 20
41.79983663746695
 30
0
 40
12
 50
243.3944986889148
 51
297.2072876360214
  0
ARC
  8
1
 62
7
 10
-95.90989740440432
 20
-25.06249999999997
 30
0
 40
5.99999999999998
 50
221.5644067938443
 51
300.2057703150074
  0
ARC
  8
1
 62
7
 10
-125.0901025955951
 20
-25.06249999999994
 30
0
 40
6.000000000000025
 50
239.7942296849921
 51
318.4355932061553
  0
ARC
  8
1
 62
7
 10
-85.04473929909341
 20
-39.50986842105266
 30
0
 40
12.00000000000003
 50
122.7927123639785
 51
176.6055013110851
  0
ARC
  8
1
 62
7
 10
-135.9552607009061
 20
-39.50986842105256
 30
0
 40
11.99999999999997
 50
3.394498688914911
 51
57.20728763602098
  0
ARC
  8
1
 62
7
 10
189.8447392990912
 20
-39.50986842105266
 30
0
 40
11.99999999999997
 50
3.394498688914945
 51
57.20728763602108
  0
ARC
  8
1
 62
7
 10
236.7889194023566
 20
41.79983663746692
 30
0
 40
12.00000000000007
 50
242.7927123639786
 51
296.6055013110852
  0
ARC
  8
1
 62
7
 10
262.2441801032629
 20
-2.28996821641427
 30
0
 40
12.00000000000006
 50
123.3944986889151
 51
177.2072876360211
  0
ARC
  8
1
 62
7
 10
168.3558198967322
 20
-2.28996821641427
 30
0
 40
12.00000000000008
 50
2.792712363978926
 51
56.60550131108504
  0
ARC
  8
1
 62
7
 10
193.8110805976386
 20
41.7998366374669
 30
0
 40
11.99999999999998
 50
243.3944986889152
 51
297.2072876360207
  0
ARC
  8
1
 62
7
 10
240.755260700904
 20
-39.50986842105276
 30
0
 40
12.00000000000012
 50
122.7927123639793
 51
176.6055013110851
  0
ARC
  8
1
 62
7
 10
189.8447392990912
 20
-39.50986842105266
 30
0
 40
11.99999999999997
 50
3.394498688914945
 51
57.20728763602108
  0
ARC
  8
1
 62
7
 10
66.49999999999741
 20
33
 30
0
 40
6.000000000000007
 50
180
 51
246.4435356908993
  0
ARC
  8
1
 62
7
 10
66.49999999999741
 20
-47.49999999999996
 30
0
 40
6.000000000000007
 50
180
 51
270
  0
ARC
  8
1
 62
7
 10
66.49999999999741
 20
-32.99999999999996
 30
0
 40
6.000000000000004
 50
113.5564643091038
 51
180
  0
ARC
  8
1
 62
7
 10
66.49999999999741
 20
47.5
 30
0
 40
6
 50
90
 51
180
  0
ARC
  8
1
 62
7
 10
44.79999999999731
 20
-47.49999999999996
 30
0
 40
6
 50
270
 51
0
  0
ARC
  8
1
 62
7
 10
44.79999999999731
 20
-32.99999999999996
 30
0
 40
6
 50
0
 51
66.44353569089761
  0
ARC
  8
1
 62
7
 10
44.79999999999731
 20
47.50000000000001
 30
0
 40
6
 50
0
 51
90
  0
ARC
  8
1
 62
7
 10
44.79999999999731
 20
33.00000000000001
 30
0
 40
6.000000000000004
 50
293.5564643091014
 51
0
  0
ARC
  8
1
 62
7
 10
15.79999999999696
 20
29.50000000000003
 30
0
 40
1
 50
0
 51
90
  0
ARC
  8
1
 62
7
 10
13.29999999999486
 20
-25.49999999999997
 30
0
 40
1
 50
180
 51
269.9999999999948
  0
ARC
  8
1
 62
7
 10
15.79999999999466
 20
-27.49999999999996
 30
0
 40
1.000000000000002
 50
0
 51
90
  0
ARC
  8
1
 62
7
 10
11.29999999999716
 20
34.00000000000006
 30
0
 40
1
 50
0
 51
90
  0
ARC
  8
1
 62
7
 10
2.099999999997369
 20
33.00000000000013
 30
0
 40
2
 50
90
 51
180
  0
ARC
  8
1
 62
7
 10
15.79999999999378
 20
-48.49999999999996
 30
0
 40
1
 50
270
 51
0
  0
ARC
  8
1
 62
7
 10
2.299999999993947
 20
-47.49999999999986
 30
0
 40
2
 50
180
 51
270
  0
ARC
  8
1
 62
7
 10
11.79999999999378
 20
-49.99999999999996
 30
0
 40
0.5
 50
270
 51
0
  0
ARC
  8
1
 62
7
 10
4.799999999993776
 20
-49.99999999999986
 30
0
 40
0.5
 50
180
 51
270
  0
ARC
  8
1
 62
7
 10
0.7999999999946859
 20
-27.00410435609254
 30
0
 40
0.5
 50
90
 51
180
  0
ARC
  8
1
 62
7
 10
1.299999999994856
 20
-25.50410435609254
 30
0
 40
1
 50
270
 51
0
  0
ARC
  8
1
 62
7
 10
1.299999999994856
 20
-25.50109924362593
 30
0
 40
1
 50
0
 51
90
  0
ARC
  8
1
 62
7
 10
103.8999999999974
 20
-23.49939214217979
 30
0
 40
0.5
 50
270
 51
0
  0
ARC
  8
1
 62
7
 10
103.8999999999974
 20
-26.99114752577991
 30
0
 40
0.5
 50
0
 51
90
  0
ARC
  8
1
 62
7
 10
100.3999999999974
 20
-25.99114752577991
 30
0
 40
0.5000000000000142
 50
180
 51
270
  0
ARC
  8
1
 62
7
 10
100.3999999999974
 20
-24.49939214217979
 30
0
 40
0.5
 50
90
 51
180
  0
ARC
  8
1
 62
7
 10
99.39999999999741
 20
34.46197067551627
 30
0
 40
0.4999999999999858
 50
0
 51
90
  0
ARC
  8
1
 62
7
 10
100.3999999999974
 20
24.49999999999996
 30
0
 40
0.5000000000000142
 50
180
 51
270
  0
ARC
  8
1
 62
7
 10
88.39999999999741
 20
34.46197067551627
 30
0
 40
0.5
 50
90
 51
180
  0
ARC
  8
1
 62
7
 10
87.39999999999741
 20
24.49999999999996
 30
0
 40
0.5
 50
270
 51
0
  0
ARC
  8
1
 62
7
 10
85.09999999999731
 20
23.49999999999996
 30
0
 40
0.5
 50
90
 51
180
  0
ARC
  8
1
 62
7
 10
84.09999999999731
 20
19.49999999999996
 30
0
 40
0.5
 50
270
 51
0
  0
ARC
  8
1
 62
7
 10
80.09999999999731
 20
18.49999999999996
 30
0
 40
0.5
 50
90
 51
180
  0
ARC
  8
1
 62
7
 10
104.0999999999973
 20
23.49999999999996
 30
0
 40
0.5
 50
0
 51
90
  0
ARC
  8
1
 62
7
 10
80.09999999999731
 20
-18.50000000000004
 30
0
 40
0.5
 50
180
 51
270
  0
ARC
  8
1
 62
7
 10
84.09999999999731
 20
-19.50000000000004
 30
0
 40
0.5
 50
0
 51
90
  0
ARC
  8
1
 62
7
 10
85.09999999999731
 20
-23.50000000000004
 30
0
 40
0.5
 50
180
 51
270
  0
ARC
  8
1
 62
7
 10
87.39999999999741
 20
-24.50000000000004
 30
0
 40
0.5
 50
0
 51
90
  0
ARC
  8
1
 62
7
 10
88.39999999999741
 20
-48.99696731187267
 30
0
 40
0.5
 50
180
 51
270
  0
ARC
  8
1
 62
7
 10
91.39999999999741
 20
-49.99696731187267
 30
0
 40
0.5
 50
0
 51
90
  0
ARC
  8
1
 62
7
 10
92.39999999999741
 20
-50.99992802775826
 30
0
 40
0.5
 50
180
 51
270
  0
ARC
  8
1
 62
7
 10
99.39999999999741
 20
-50.99992802775826
 30
0
 40
0.5
 50
270
 51
0
  0
ARC
  8
1
 62
7
 10
100.3999999999974
 20
-49.99696731187267
 30
0
 40
0.5
 50
90
 51
180
  0
ARC
  8
1
 62
7
 10
103.8999999999974
 20
-48.99696731187267
 30
0
 40
0.5
 50
270
 51
0
  0
ARC
  8
1
 62
7
 10
62.24926106848741
 20
247.9460136523794
 30
0
 40
2.350738931510179
 50
322.3012451533177
 51
37.69875484668226
  0
ARC
  8
1
 62
7
 10
55.93316586717361
 20
243.6335136523794
 30
0
 40
8.666834132824015
 50
340.626529457676
 51
19.37347054232329
  0
ARC
  8
1
 62
7
 10
62.24926106848741
 20
239.3210136523793
 30
0
 40
2.350738931510179
 50
322.3012451533177
 51
37.69875484668226
  0
ARC
  8
1
 62
7
 10
46.7507389315079
 20
239.3210136523793
 30
0
 40
2.350738931510196
 50
142.3012451533181
 51
217.6987548466819
  0
ARC
  8
1
 62
7
 10
53.0668341328217
 20
243.6335136523794
 30
0
 40
8.666834132823995
 50
160.6265294576768
 51
199.373470542324
  0
ARC
  8
1
 62
7
 10
46.7507389315079
 20
247.9460136523794
 30
0
 40
2.350738931510196
 50
142.3012451533181
 51
217.6987548466819
  0
ARC
  8
1
 62
7
 10
62.24926106848741
 20
161.6789863476205
 30
0
 40
2.350738931510179
 50
322.3012451533177
 51
37.69875484668226
  0
ARC
  8
1
 62
7
 10
55.93316586717361
 20
157.3664863476205
 30
0
 40
8.666834132823977
 50
340.6265294576767
 51
19.37347054232329
  0
ARC
  8
1
 62
7
 10
62.24926106848741
 20
153.0539863476205
 30
0
 40
2.350738931510179
 50
322.3012451533177
 51
37.69875484668226
  0
ARC
  8
1
 62
7
 10
46.7507389315079
 20
153.0539863476205
 30
0
 40
2.350738931510196
 50
142.3012451533181
 51
217.6987548466819
  0
ARC
  8
1
 62
7
 10
53.06683413282181
 20
157.3664863476205
 30
0
 40
8.666834132824103
 50
160.626529457677
 51
199.373470542323
  0
ARC
  8
1
 62
7
 10
46.7507389315079
 20
161.6789863476205
 30
0
 40
2.350738931510196
 50
142.3012451533181
 51
217.6987548466819
  0
ARC
  8
1
 62
7
 10
-110.4999999999997
 20
4.263256414560601e-014
 30
0
 40
50.50000000000009
 50
263.3270588242186
 51
276.6729411757812
  0
ARC
  8
1
 62
7
 10
172.1664863476182
 20
43.13351365237939
 30
0
 40
5.000000000000012
 50
339.7987150426569
 51
290.2012849573434
  0
ARC
  8
1
 62
7
 10
172.1664863476182
 20
-43.13351365237927
 30
0
 40
4.999999999999973
 50
69.7987150426579
 51
20.20128495734208
  0
ARC
  8
1
 62
7
 10
258.433513652377
 20
-43.13351365237927
 30
0
 40
5.00000000000003
 50
159.7987150426582
 51
110.201284957342
  0
ARC
  8
1
 62
7
 10
258.433513652377
 20
43.13351365237939
 30
0
 40
4.999999999999992
 50
249.7987150426573
 51
200.2012849573433
  0
ARC
  8
1
 62
7
 10
215.2999999999976
 20
0
 30
0
 40
67.50000000000006
 50
42.20544640373231
 51
47.7945535962677
  0
ARC
  8
1
 62
7
 10
215.2999999999976
 20
0
 30
0
 40
67.50000000000006
 50
42.20544640373231
 51
47.7945535962677
  0
ARC
  8
1
 62
7
 10
215.2999999999976
 20
0
 30
0
 40
67.49999999999989
 50
312.2054464037324
 51
317.7945535962678
  0
ARC
  8
1
 62
7
 10
215.2999999999976
 20
0
 30
0
 40
67.49999999999996
 50
222.2054464037323
 51
227.7945535962677
  0
ARC
  8
1
 62
7
 10
215.2999999999976
 20
0
 30
0
 40
67.5
 50
132.2054464037323
 51
137.7945535962677
  0
ARC
  8
1
 62
7
 10
-110.4999999999997
 20
4.263256414560601e-014
 30
0
 40
52.99999999999992
 50
299.9999999999999
 51
359.9999999999999
  0
ARC
  8
1
 62
7
 10
-96.49999999999977
 20
-24.24871130596422
 30
0
 40
24.99999999999998
 50
256.9521670332321
 51
299.9999999999999
  0
ARC
  8
1
 62
7
 10
-110.4999999999997
 20
4.263256414560601e-014
 30
0
 40
41.99999999999988
 50
305
 51
354.9999999999999
  0
ARC
  8
1
 62
7
 10
-93.8662833458194
 20
-23.75540928438069
 30
0
 40
12.99999999999993
 50
257.6392844908667
 51
305.0000000000001
  0
ARC
  8
1
 62
7
 10
-110.4999999999997
 20
4.263256414560601e-014
 30
0
 40
42.00000000000009
 50
184.9999999999999
 51
234.9999999999999
  0
ARC
  8
1
 62
7
 10
-110.4999999999997
 20
4.263256414560601e-014
 30
0
 40
53.0000000000001
 50
180
 51
240
  0
ARC
  8
1
 62
7
 10
-138.4999999999997
 20
2.842170943040401e-014
 30
0
 40
25.00000000000008
 50
136.952167033232
 51
179.9999999999999
  0
ARC
  8
1
 62
7
 10
-139.3896462446603
 20
-2.527516539682049
 30
0
 40
13.00000000000009
 50
137.6392844908665
 51
184.9999999999998
  0
ARC
  8
1
 62
7
 10
-110.4999999999997
 20
4.263256414560601e-014
 30
0
 40
41.99999999999997
 50
65.00000000000013
 51
115
  0
ARC
  8
1
 62
7
 10
-110.4999999999997
 20
4.263256414560601e-014
 30
0
 40
53.00000000000001
 50
60.00000000000002
 51
120
  0
ARC
  8
1
 62
7
 10
-98.24407040951951
 20
26.2829258240629
 30
0
 40
13.00000000000004
 50
17.63928449086626
 51
65.00000000000003
  0
ARC
  8
1
 62
7
 10
-96.49999999999972
 20
24.24871130596433
 30
0
 40
25
 50
16.95216703323216
 51
59.99999999999999
  0
ARC
  8
1
 62
7
 10
-77.59103465619097
 20
19
 30
0
 40
13.49999999999999
 50
55.76495724485223
 51
116.6055013110853
  0
ARC
  8
1
 62
7
 10
-77.59103465619097
 20
19
 30
0
 40
13.50000000000009
 50
161.5644067938445
 51
258.4355932061549
  0
ARC
  8
1
 62
7
 10
-143.4089653438084
 20
19.00000000000003
 30
0
 40
13.5
 50
175.7649572448519
 51
236.6055013110851
  0
ARC
  8
1
 62
7
 10
-143.4089653438084
 20
19.00000000000003
 30
0
 40
13.49999999999997
 50
281.5644067938445
 51
18.43559320615544
  0
ARC
  8
1
 62
7
 10
-110.4999999999997
 20
-37.99999999999996
 30
0
 40
13.49999999999995
 50
295.7649572448516
 51
356.6055013110849
  0
ARC
  8
1
 62
7
 10
-110.4999999999997
 20
-37.99999999999996
 30
0
 40
13.49999999999999
 50
41.56440679384473
 51
138.4355932061554
  0
ARC
  8
1
 62
7
 10
-110.4999999999997
 20
4.263256414560601e-014
 30
0
 40
34.99999999999996
 50
62.79271236397889
 51
117.2072876360212
  0
ARC
  8
1
 62
7
 10
-110.4999999999997
 20
4.263256414560601e-014
 30
0
 40
34.99999999999996
 50
182.7927123639788
 51
237.2072876360211
  0
ARC
  8
1
 62
7
 10
-77.59103465619097
 20
19
 30
0
 40
13.49999999999993
 50
303.3944986889147
 51
4.235042755148191
  0
ARC
  8
1
 62
7
 10
-110.4999999999997
 20
4.263256414560601e-014
 30
0
 40
50.50000000000001
 50
23.32705882421869
 51
36.67294117578128
  0
ARC
  8
1
 62
7
 10
-110.4999999999997
 20
-37.99999999999996
 30
0
 40
13.50000000000007
 50
183.3944986889147
 51
244.2350427551477
  0
ARC
  8
1
 62
7
 10
-143.4089653438084
 20
19.00000000000003
 30
0
 40
13.50000000000001
 50
63.394498688915
 51
124.2350427551474
  0
ARC
  8
1
 62
7
 10
-110.4999999999997
 20
4.263256414560601e-014
 30
0
 40
50.5
 50
143.3270588242186
 51
156.6729411757813
  0
ARC
  8
1
 62
7
 10
-82.49999999999972
 20
1.4210854715202e-014
 30
0
 40
24.99999999999999
 50
359.9999999999999
 51
43.04783296676776
  0
ARC
  8
1
 62
7
 10
-81.61035375533908
 20
-2.527516539682049
 30
0
 40
12.99999999999997
 50
354.9999999999998
 51
42.36071550913356
  0
ARC
  8
1
 62
7
 10
-124.4999999999998
 20
-24.24871130596419
 30
0
 40
25.00000000000002
 50
240.0000000000003
 51
283.0478329667681
  0
ARC
  8
1
 62
7
 10
-127.13371665418
 20
-23.75540928438075
 30
0
 40
12.99999999999999
 50
234.9999999999995
 51
282.3607155091334
  0
ARC
  8
1
 62
7
 10
-110.4999999999997
 20
4.263256414560601e-014
 30
0
 40
38.00000000000004
 50
172.0158443336108
 51
247.9841556663891
  0
ARC
  8
1
 62
7
 10
-110.4999999999997
 20
4.263256414560601e-014
 30
0
 40
37.99999999999999
 50
52.01584433361091
 51
127.984155666389
  0
ARC
  8
1
 62
7
 10
-122.75592959048
 20
26.28292582406288
 30
0
 40
13.00000000000003
 50
115
 51
162.3607155091333
  0
ARC
  8
1
 62
7
 10
-124.4999999999997
 20
24.24871130596437
 30
0
 40
25
 50
120
 51
163.0478329667679
  0
ARC
  8
1
 62
7
 10
-110.4999999999997
 20
4.263256414560601e-014
 30
0
 40
67.49999999999999
 50
42.20544640373231
 51
47.79455359626775
  0
ARC
  8
1
 62
7
 10
-110.4999999999997
 20
4.263256414560601e-014
 30
0
 40
67.49999999999996
 50
312.2054464037323
 51
317.7945535962677
  0
ARC
  8
1
 62
7
 10
-110.4999999999997
 20
4.263256414560601e-014
 30
0
 40
67.50000000000003
 50
222.2054464037322
 51
227.7945535962677
  0
ARC
  8
1
 62
7
 10
-110.4999999999997
 20
4.263256414560601e-014
 30
0
 40
67.50000000000004
 50
132.2054464037323
 51
137.7945535962678
  0
ARC
  8
1
 62
7
 10
-67.36648634762031
 20
-43.13351365237936
 30
0
 40
5.000000000000016
 50
159.7987150426558
 51
110.2012849573434
  0
ARC
  8
1
 62
7
 10
-67.36648634762031
 20
43.13351365237943
 30
0
 40
4.999999999999999
 50
249.7987150426566
 51
200.2012849573426
  0
ARC
  8
1
 62
7
 10
-153.6335136523792
 20
43.13351365237943
 30
0
 40
5.000000000000033
 50
339.7987150426562
 51
290.2012849573449
  0
ARC
  8
1
 62
7
 10
-153.6335136523792
 20
-43.13351365237936
 30
0
 40
5.000000000000028
 50
69.79871504265569
 51
20.20128495734392
  0
ARC
  8
1
 62
7
 10
215.2999999999976
 20
0
 30
0
 40
9.999999999999986
 50
104.4775121859299
 51
75.52248781407005
  0
ARC
  8
1
 62
7
 10
248.2089653438063
 20
18.99999999999995
 30
0
 40
13.49999999999987
 50
303.3944986889146
 51
116.605501311085
  0
ARC
  8
1
 62
7
 10
215.2999999999976
 20
-38.00000000000006
 30
0
 40
13.50000000000005
 50
183.3944986889147
 51
356.6055013110849
  0
ARC
  8
1
 62
7
 10
182.3910346561889
 20
18.99999999999996
 30
0
 40
13.50000000000006
 50
63.3944986889147
 51
236.605501311085
  0
ARC
  8
1
 62
7
 10
215.2999999999976
 20
0
 30
0
 40
38.00000000000006
 50
292.0158443336109
 51
7.984155666389118
  0
ARC
  8
1
 62
7
 10
215.2999999999976
 20
0
 30
0
 40
52.99999999999997
 50
299.9999999999999
 51
359.9999999999999
  0
ARC
  8
1
 62
7
 10
229.2999999999975
 20
-24.24871130596428
 30
0
 40
24.99999999999999
 50
256.9521670332324
 51
299.9999999999999
  0
ARC
  8
1
 62
7
 10
215.2999999999976
 20
0
 30
0
 40
42.00000000000001
 50
304.9999999999999
 51
354.9999999999998
  0
ARC
  8
1
 62
7
 10
231.933716654178
 20
-23.75540928438075
 30
0
 40
12.99999999999998
 50
257.6392844908662
 51
304.9999999999996
  0
ARC
  8
1
 62
7
 10
215.2999999999976
 20
0
 30
0
 40
42.00000000000007
 50
185
 51
234.9999999999999
  0
ARC
  8
1
 62
7
 10
215.2999999999976
 20
0
 30
0
 40
53.00000000000009
 50
180
 51
240.0000000000001
  0
ARC
  8
1
 62
7
 10
187.2999999999976
 20
-2.842170943040401e-014
 30
0
 40
25.00000000000008
 50
136.9521670332319
 51
179.9999999999999
  0
ARC
  8
1
 62
7
 10
186.4103537553369
 20
-2.527516539682109
 30
0
 40
13.00000000000001
 50
137.6392844908661
 51
185
  0
ARC
  8
1
 62
7
 10
215.2999999999976
 20
0
 30
0
 40
41.99999999999996
 50
65.0000000000001
 51
114.9999999999999
  0
ARC
  8
1
 62
7
 10
215.2999999999976
 20
0
 30
0
 40
53
 50
59.99999999999999
 51
120
  0
ARC
  8
1
 62
7
 10
227.5559295904779
 20
26.28292582406285
 30
0
 40
13.00000000000004
 50
17.63928449086631
 51
65.00000000000036
  0
ARC
  8
1
 62
7
 10
229.2999999999976
 20
24.2487113059643
 30
0
 40
24.99999999999997
 50
16.95216703323214
 51
59.99999999999997
  0
ARC
  8
1
 62
7
 10
215.2999999999976
 20
0
 30
0
 40
35
 50
302.7927123639786
 51
0
  0
ARC
  8
1
 62
7
 10
215.2999999999976
 20
0
 30
0
 40
34.99999999999996
 50
62.79271236397886
 51
117.2072876360213
  0
ARC
  8
1
 62
7
 10
215.2999999999976
 20
0
 30
0
 40
34.99999999999997
 50
182.7927123639788
 51
237.2072876360212
  0
ARC
  8
1
 62
7
 10
243.2999999999976
 20
-4.263256414560601e-014
 30
0
 40
25.00000000000003
 50
359.9999999999999
 51
43.04783296676786
  0
ARC
  8
1
 62
7
 10
244.1896462446581
 20
-2.527516539682109
 30
0
 40
13.00000000000014
 50
354.9999999999998
 51
42.36071550913328
  0
ARC
  8
1
 62
7
 10
201.2999999999976
 20
-24.24871130596425
 30
0
 40
25.00000000000013
 50
240.0000000000002
 51
283.0478329667678
  0
ARC
  8
1
 62
7
 10
198.6662833458172
 20
-23.7554092843808
 30
0
 40
12.99999999999998
 50
234.9999999999999
 51
282.3607155091339
  0
ARC
  8
1
 62
7
 10
215.2999999999976
 20
0
 30
0
 40
38.00000000000003
 50
172.0158443336108
 51
247.9841556663891
  0
ARC
  8
1
 62
7
 10
215.2999999999976
 20
0
 30
0
 40
38.00000000000004
 50
52.01584433361078
 51
127.9841556663892
  0
ARC
  8
1
 62
7
 10
203.0440704095173
 20
26.28292582406281
 30
0
 40
13
 50
114.9999999999996
 51
162.3607155091334
  0
ARC
  8
1
 62
7
 10
201.2999999999976
 20
24.24871130596432
 30
0
 40
25
 50
120
 51
163.047832966768
  0
ARC
  8
1
 62
7
 10
-110.4999999999997
 20
4.263256414560601e-014
 30
0
 40
34.99999999999999
 50
302.7927123639788
 51
357.2072876360212
  0
ARC
  8
1
 62
7
 10
-110.4999999999997
 20
4.263256414560601e-014
 30
0
 40
38.00000000000006
 50
292.0158443336109
 51
7.984155666389219
  0
CIRCLE
  8
1
 62
7
 10
41.8999999999977
 20
201.7499999999999
 30
0
 40
1.25
  0
CIRCLE
  8
1
 62
7
 10
41.8999999999977
 20
199.2499999999999
 30
0
 40
1.25
  0
CIRCLE
  8
1
 62
7
 10
69.59999999999761
 20
199.2499999999999
 30
0
 40
1.25
  0
CIRCLE
  8
1
 62
7
 10
69.59999999999761
 20
201.7499999999999
 30
0
 40
1.25
  0
CIRCLE
  8
1
 62
7
 10
215.2999999999976
 20
79.99999999999997
 30
0
 40
5
  0
CIRCLE
  8
1
 62
7
 10
-110.4999999999997
 20
80.00000000000004
 30
0
 40
5
  0
CIRCLE
  8
1
 62
7
 10
-110.4999999999997
 20
4.263256414560601e-014
 30
0
 40
54.0000000000001
  0
CIRCLE
  8
1
 62
7
 10
-151.6362066797606
 20
-23.74999999999999
 30
0
 40
4.5
  0
CIRCLE
  8
1
 62
7
 10
-143.4089653438084
 20
19.00000000000003
 30
0
 40
2.5
  0
CIRCLE
  8
1
 62
7
 10
-69.36379332023893
 20
-23.75
 30
0
 40
4.499999999999986
  0
CIRCLE
  8
1
 62
7
 10
-151.6362066797606
 20
-23.74999999999999
 30
0
 40
4.5
  0
CIRCLE
  8
1
 62
7
 10
-110.4999999999997
 20
-37.99999999999996
 30
0
 40
2.5
  0
CIRCLE
  8
1
 62
7
 10
-110.4999999999997
 20
47.50000000000003
 30
0
 40
4.5
  0
CIRCLE
  8
1
 62
7
 10
-77.59103465619097
 20
19
 30
0
 40
8.5
  0
CIRCLE
  8
1
 62
7
 10
-143.4089653438084
 20
19.00000000000003
 30
0
 40
8.499999999999915
  0
CIRCLE
  8
1
 62
7
 10
-110.4999999999997
 20
-37.99999999999996
 30
0
 40
8.5
  0
CIRCLE
  8
1
 62
7
 10
-96.09028961544988
 20
25.16664949160695
 30
0
 40
2.399999999999977
  0
CIRCLE
  8
1
 62
3
 10
-96.09028961544988
 20
25.16664949160695
 30
0
 40
3
  0
CIRCLE
  8
1
 62
7
 10
-125.0901025955951
 20
25.06250000000005
 30
0
 40
2.399999999999992
  0
CIRCLE
  8
1
 62
3
 10
-125.0901025955951
 20
25.06250000000005
 30
0
 40
3
  0
CIRCLE
  8
1
 62
7
 10
-139.4998129801449
 20
-0.1041494916068331
 30
0
 40
2.400000000000006
  0
CIRCLE
  8
1
 62
3
 10
-139.4998129801449
 20
-0.1041494916068331
 30
0
 40
3
  0
CIRCLE
  8
1
 62
7
 10
-124.9097103845495
 20
-25.16664949160686
 30
0
 40
2.399999999999992
  0
CIRCLE
  8
1
 62
3
 10
-124.9097103845495
 20
-25.16664949160686
 30
0
 40
3
  0
CIRCLE
  8
1
 62
7
 10
-95.90989740440432
 20
-25.06249999999997
 30
0
 40
2.399999999999977
  0
CIRCLE
  8
1
 62
3
 10
-95.90989740440432
 20
-25.06249999999997
 30
0
 40
2.999999999999972
  0
CIRCLE
  8
1
 62
7
 10
-81.50018701985448
 20
0.1041494916069183
 30
0
 40
2.399999999999977
  0
CIRCLE
  8
1
 62
3
 10
-81.50018701985448
 20
0.1041494916069183
 30
0
 40
3
  0
CIRCLE
  8
1
 62
7
 10
-110.4999999999997
 20
4.263256414560601e-014
 30
0
 40
17.49999999999999
  0
CIRCLE
  8
1
 62
7
 10
-110.4999999999997
 20
4.263256414560601e-014
 30
0
 40
20.99999999999999
  0
CIRCLE
  8
1
 62
7
 10
-77.59103465619097
 20
19
 30
0
 40
11.5
  0
CIRCLE
  8
1
 62
7
 10
-110.4999999999997
 20
-37.99999999999996
 30
0
 40
11.49999999999999
  0
CIRCLE
  8
1
 62
7
 10
-143.4089653438084
 20
19.00000000000003
 30
0
 40
11.5
  0
CIRCLE
  8
1
 62
7
 10
-110.4999999999997
 20
4.263256414560601e-014
 30
0
 40
10
  0
CIRCLE
  8
1
 62
7
 10
-110.4999999999997
 20
4.263256414560601e-014
 30
0
 40
13.49999999999999
  0
CIRCLE
  8
1
 62
7
 10
-67.36648634762031
 20
-43.13351365237936
 30
0
 40
3
  0
CIRCLE
  8
1
 62
3
 10
-67.36648634762031
 20
-43.13351365237936
 30
0
 40
2.399999999999977
  0
CIRCLE
  8
1
 62
7
 10
-67.36648634762031
 20
43.13351365237943
 30
0
 40
3
  0
CIRCLE
  8
1
 62
3
 10
-67.36648634762031
 20
43.13351365237943
 30
0
 40
2.399999999999977
  0
CIRCLE
  8
1
 62
7
 10
-153.6335136523792
 20
43.13351365237943
 30
0
 40
2.999999999999915
  0
CIRCLE
  8
1
 62
3
 10
-153.6335136523792
 20
43.13351365237943
 30
0
 40
2.39999999999992
  0
CIRCLE
  8
1
 62
7
 10
-153.6335136523792
 20
-43.13351365237936
 30
0
 40
3
  0
CIRCLE
  8
1
 62
3
 10
-153.6335136523792
 20
-43.13351365237936
 30
0
 40
2.400000000000006
  0
CIRCLE
  8
1
 62
7
 10
215.2999999999976
 20
0
 30
0
 40
24
  0
CIRCLE
  8
1
 62
3
 10
228.2903810567642
 20
-7.500000000000018
 30
0
 40
2.5
  0
CIRCLE
  8
1
 62
7
 10
228.2903810567642
 20
-7.500000000000018
 30
0
 40
1.900000000000006
  0
CIRCLE
  8
1
 62
3
 10
202.309618943231
 20
7.499999999999986
 30
0
 40
2.5
  0
CIRCLE
  8
1
 62
7
 10
202.309618943231
 20
7.499999999999986
 30
0
 40
1.900000000000006
  0
CIRCLE
  8
1
 62
7
 10
248.2089653438063
 20
18.99999999999995
 30
0
 40
8.499999999999886
  0
CIRCLE
  8
1
 62
7
 10
248.2089653438063
 20
18.99999999999995
 30
0
 40
2.5
  0
CIRCLE
  8
1
 62
7
 10
215.2999999999976
 20
-38.00000000000006
 30
0
 40
8.499999999999915
  0
CIRCLE
  8
1
 62
7
 10
215.2999999999976
 20
-38.00000000000006
 30
0
 40
2.5
  0
CIRCLE
  8
1
 62
7
 10
182.3910346561889
 20
18.99999999999996
 30
0
 40
8.5
  0
CIRCLE
  8
1
 62
7
 10
174.1637933202368
 20
-23.75000000000004
 30
0
 40
4.5
  0
CIRCLE
  8
1
 62
7
 10
182.3910346561889
 20
18.99999999999996
 30
0
 40
2.5
  0
CIRCLE
  8
1
 62
7
 10
256.4362066797585
 20
-23.75000000000006
 30
0
 40
4.5
  0
CIRCLE
  8
1
 62
7
 10
174.1637933202368
 20
-23.75000000000004
 30
0
 40
4.5
  0
CIRCLE
  8
1
 62
7
 10
215.2999999999976
 20
47.49999999999997
 30
0
 40
4.5
  0
CIRCLE
  8
1
 62
7
 10
215.2999999999976
 20
0
 30
0
 40
53.64999999999989
  0
CIRCLE
  8
1
 62
7
 10
215.2999999999976
 20
0
 30
0
 40
56.50000000000001
  0
CIRCLE
  8
1
 62
7
 10
182.3910346561889
 20
18.99999999999996
 30
0
 40
11.49999999999998
  0
CIRCLE
  8
1
 62
7
 10
248.2089653438063
 20
18.99999999999995
 30
0
 40
6.00000000000002
  0
CIRCLE
  8
1
 62
7
 10
215.2999999999976
 20
-38.00000000000006
 30
0
 40
5.999999999999891
  0
CIRCLE
  8
1
 62
7
 10
182.3910346561889
 20
18.99999999999996
 30
0
 40
6.000000000000022
  0
CIRCLE
  8
1
 62
7
 10
248.2089653438063
 20
18.99999999999995
 30
0
 40
11.5
  0
CIRCLE
  8
1
 62
7
 10
215.2999999999976
 20
-38.00000000000006
 30
0
 40
11.5
  0
CIRCLE
  8
1
 62
7
 10
48.1999999999974
 20
22.49999999999999
 30
0
 40
3
  0
CIRCLE
  8
1
 62
7
 10
48.1999999999974
 20
-22.49999999999999
 30
0
 40
3
  0
CIRCLE
  8
1
 62
7
 10
71.1999999999974
 20
22.49999999999999
 30
0
 40
3
  0
CIRCLE
  8
1
 62
7
 10
71.1999999999974
 20
-22.49999999999999
 30
0
 40
3
  0
CIRCLE
  8
1
 62
7
 10
-110.4999999999997
 20
4.263256414560601e-014
 30
0
 40
56.49999999999999
  0
CIRCLE
  8
1
 62
7
 10
-77.59103465619097
 20
19
 30
0
 40
2.499999999999995
  0
CIRCLE
  8
1
 62
7
 10
-77.59103465619097
 20
19
 30
0
 40
6.000000000000035
  0
CIRCLE
  8
1
 62
7
 10
-143.4089653438084
 20
19.00000000000003
 30
0
 40
5.999999999999993
  0
CIRCLE
  8
1
 62
7
 10
-110.4999999999997
 20
-37.99999999999996
 30
0
 40
5.999999999999989
  0
TEXT
  8
1
 62
7
 10
-123.5870635721487
 20
225.792897097185
 30
0
 40
6
  1
DC2407
 41
0.9
  7
SIMPLEX
  0
TEXT
  8
1
 62
7
 10
-123.0999999999997
 20
236.887659962977
 30
0
 40
6
  1
TMAT 2.5
 41
0.9
  7
SIMPLEX
  0
ENDSEC
  0
EOF
