  0
SECTION
  2
HEADER
  9
$ACADVER
  1
AC1009
  9
$INSBASE
 10
0
 20
0
  9
$EXTMIN
 10
-387.7882847580004
 20
-117.734907071947
  9
$EXTMAX
 10
322.7816762154456
 20
361.478700299956
  9
$LIMMIN
 10
-387.7882847580004
 20
-117.734907071947
  9
$LIMMAX
 10
322.7816762154456
 20
361.478700299956
  9
$VIEWCTR
 10
10
 20
10
  9
$VIEWSIZE
 40
10
  9
$SNAPMODE
 70
0
  9
$SNAPUNIT
 10
1
 20
1
  9
$SNAPBASE
 10
0
 20
0
  9
$SNAPANG
 50
0
  9
$SNAPSTYLE
 70
0
  9
$SNAPISOPAIR
 70
0
  9
$GRIDMODE
 70
0
  9
$GRIDUNIT
 10
0
 20
0
  9
$ORTHOMODE
 70
0
  9
$REGENMODE
 70
1
  9
$FILLMODE
 70
1
  9
$QTEXTMODE
 70
0
  9
$DRAGMODE
 70
2
  9
$LTSCALE
 40
1
  9
$OSMODE
 70
0
  9
$ATTMODE
 70
1
  9
$TEXTSIZE
 40
3.5
  9
$TRACEWID
 40
0.5
  9
$TEXTSTYLE
  7
STANDARD
  9
$CLAYER
  8
0
  9
$CELTYPE
  6
BYLAYER
  9
$CECOLOR
 62
256
  9
$DIMSCALE
 40
1
  9
$DIMASZ
 40
0.18
  9
$DIMEXO
 40
0.0625
  9
$DIMDLI
 40
0.38
  9
$DIMRND
 40
0
  9
$DIMDLE
 40
0
  9
$DIMEXE
 40
0.18
  9
$DIMTP
 40
0
  9
$DIMTM
 40
0
  9
$DIMTXT
 40
0.18
  9
$DIMCEN
 40
0.09
  9
$DIMTSZ
 40
0
  9
$DIMTOL
 70
0
  9
$DIMLIM
 70
0
  9
$DIMTIH
 70
1
  9
$DIMTOH
 70
1
  9
$DIMSE1
 70
0
  9
$DIMSE2
 70
0
  9
$DIMTAD
 70
0
  9
$DIMZIN
 70
0
  9
$DIMBLK
  1

  9
$DIMASO
 70
1
  9
$DIMSHO
 70
1
  9
$DIMPOST
  1

  9
$DIMAPOST
  1

  9
$DIMALT
 70
0
  9
$DIMALTD
 70
2
  9
$DIMALTF
 40
25.4
  9
$DIMLFAC
 40
1
  9
$DIMTOFL
 70
0
  9
$DIMTVP
 40
0
  9
$DIMTIX
 70
0
  9
$DIMSOXD
 70
0
  9
$DIMSAH
 70
0
  9
$DIMBLK1
  1

  9
$DIMBLK2
  1

  9
$DIMSTYLE
  2
*UNNAMED
  9
$DIMCLRD
 70
0
  9
$DIMCLRE
 70
0
  9
$DIMCLRT
 70
0
  9
$DIMTFAC
 40
1
  9
$DIMGAP
 40
0.09
  9
$LUNITS
 70
2
  9
$LUPREC
 70
4
  9
$AXISMODE
 70
0
  9
$AXISUNIT
 10
0
 20
0
  9
$SKETCHINC
 40
0.1
  9
$FILLETRAD
 40
2
  9
$AUNITS
 70
0
  9
$AUPREC
 70
0
  9
$MENU
  1
ACAD
  9
$ELEVATION
 40
0
  9
$THICKNESS
 40
0
  9
$VIEWDIR
 10
0
 20
0
 30
1
  9
$LIMCHECK
 70
0
  9
$BLIPMODE
 70
1
  9
$CHAMFERA
 40
0
  9
$CHAMFERB
 40
0
  9
$FASTZOOM
 70
1
  9
$SKPOLY
 70
0
  9
$ANGBASE
 50
0
  9
$ANGDIR
 70
0
  9
$PDMODE
 70
0
  9
$PDSIZE
 40
0
  9
$PLINEWID
 40
0
  9
$COORDS
 70
2
  0
ENDSEC
  0
SECTION
  2
TABLES
  0
TABLE
  2
DIMSTYLE
 70
0
  0
ENDTAB
  0
TABLE
  2
LTYPE
 70
9
  0
LTYPE
  2
CONTINUOUS
 70
64
  3
Solid line
 72
65
 73
0
 40
0
  0
LTYPE
  2
BORDER
 70
64
  3
__ __ . __ __ .
 72
65
 73
6
 40
32.72361662377711
 49
9.349604749650604
 49
-4.674802374825302
 49
9.349604749650604
 49
-4.674802374825302
 49
0
 49
-4.674802374825302
  0
LTYPE
  2
CENTER
 70
64
  3
____ _ ____ _
 72
65
 73
4
 40
37.39841899860242
 49
23.37401187412651
 49
-4.674802374825302
 49
4.674802374825302
 49
-4.674802374825302
  0
LTYPE
  2
DASHDOT
 70
64
  3
__ . __ . __ .
 72
65
 73
4
 40
18.69920949930121
 49
9.349604749650604
 49
-4.674802374825302
 49
0
 49
-4.674802374825302
  0
LTYPE
  2
DASHED
 70
64
  3
__ __ __ __ __
 72
65
 73
2
 40
14.02440712447591
 49
9.349604749650604
 49
-4.674802374825302
  0
LTYPE
  2
DIVIDE
 70
64
  3
__ . . __ . . 
 72
65
 73
6
 40
23.37401187412651
 49
9.349604749650604
 49
-4.674802374825302
 49
0
 49
-4.674802374825302
 49
0
 49
-4.674802374825302
  0
LTYPE
  2
DOT
 70
64
  3
..............
 72
65
 73
4
 40
9.349604749650604
 49
0
 49
-4.674802374825302
 49
0
 49
-4.674802374825302
  0
LTYPE
  2
HIDDEN
 70
64
  3
_ _ _ _ _ _ _
 72
65
 73
2
 40
7.012203562237954
 49
4.674802374825302
 49
-2.337401187412651
  0
LTYPE
  2
PHANTOM
 70
64
  3
_____ _ _ _____ _ _ 
 72
65
 73
6
 40
46.74802374825302
 49
23.37401187412651
 49
-4.674802374825302
 49
4.674802374825302
 49
-4.674802374825302
 49
4.674802374825302
 49
-4.674802374825302
  0
ENDTAB
  0
TABLE
  2
LAYER
 70
3
  0
LAYER
  2
1
 70
0
 62
7
  6
CONTINUOUS
  0
LAYER
  2
0
 70
0
 62
7
  6
CONTINUOUS
  0
ENDTAB
  0
TABLE
  2
STYLE
 70
4
  0
STYLE
  2
STANDARD
 70
0
 40
0
 41
1
 50
0
 71
0
 42
3.5
  3
txt
  4

  0
STYLE
  2
SIMPLEX
 70
0
 40
0
 41
1
 50
0
 71
0
 42
3.5
  3
simplex
  4

  0
STYLE
  2
COMPLEX
 70
0
 40
0
 41
1
 50
0
 71
0
 42
3.5
  3
complex
  4

  0
STYLE
  2
ITALIC
 70
0
 40
0
 41
1
 50
0
 71
0
 42
3.5
  3
italic
  4

  0
ENDTAB
  0
TABLE
  2
VIEW
 70
0
  0
ENDTAB
  0
ENDSEC
  0
SECTION
  2
BLOCKS
  0
ENDSEC
  0
SECTION
  2
ENTITIES
  0
POLYLINE
  8
1
 62
7
 66
1
  0
VERTEX
  8
1
 10
-341
 20
11.62347538297979
 30
0
 42
0.006663071849730164
  0
VERTEX
  8
1
 10
-340.7184104191066
 20
11.62722585384144
 30
0
 42
0.00306273975998955
  0
VERTEX
  8
1
 10
-340.5955381228753
 20
11.63125376504457
 30
0
 42
0.002293321657328911
  0
VERTEX
  8
1
 10
-340.5039785640511
 20
11.63523743583288
 30
0
 42
0.002447580430097095
  0
VERTEX
  8
1
 10
-340.4124610267356
 20
11.64008905561225
 30
0
 42
0.001575744814549589
  0
VERTEX
  8
1
 10
-340.352938963336
 20
11.64372501302064
 30
0
 42
0.001664468633496069
  0
VERTEX
  8
1
 10
-340.2949030015609
 20
11.64764784627481
 30
0
 42
0.001662591345344583
  0
VERTEX
  8
1
 10
-340.2368944856735
 20
11.65195676340031
 30
0
 42
0.001792299216472243
  0
VERTEX
  8
1
 10
-340.178917336254
 20
11.65666638330249
 30
0
 42
0.00179058726657325
  0
VERTEX
  8
1
 10
-340.1209754738824
 20
11.66179132488669
 30
0
 42
0.001852391065169217
  0
VERTEX
  8
1
 10
-340.0652087204089
 20
11.66713364244876
 30
0
 42
0.001820123883962073
  0
VERTEX
  8
1
 10
-340.0116174589909
 20
11.67266508147041
 30
0
 42
0.001990412605704501
  0
VERTEX
  8
1
 10
-339.958069949246
 20
11.67860477384789
 30
0
 42
0.00202978872712042
  0
VERTEX
  8
1
 10
-339.9045718150921
 20
11.68497482591367
 30
0
 42
0.00220023971551377
  0
VERTEX
  8
1
 10
-339.8511286804472
 20
11.69179734400019
 30
0
 42
0.002126430854309512
  0
VERTEX
  8
1
 10
-339.8004851825856
 20
11.69870834249682
 30
0
 42
0.001148518159862072
  0
VERTEX
  8
1
 10
-339.7765550055876
 20
11.70213374673623
 30
0
 42
0.001082367701255244
  0
VERTEX
  8
1
 10
-339.7526403307384
 20
11.70566589032794
 30
0
 42
0.00124456691086012
  0
VERTEX
  8
1
 10
-339.7287425243554
 20
11.70930926485157
 30
0
 42
0.00117851513747076
  0
VERTEX
  8
1
 10
-339.7048629527562
 20
11.71306836188673
 30
0
 42
0.001340803120490804
  0
VERTEX
  8
1
 10
-339.6810029822582
 20
11.716947673013
 30
0
 42
0.001274827405505953
  0
VERTEX
  8
1
 10
-339.6571639791788
 20
11.72095168980999
 30
0
 42
0.001437176031354931
  0
VERTEX
  8
1
 10
-339.6333473098355
 20
11.72508490385731
 30
0
 42
0.001371242503223203
  0
VERTEX
  8
1
 10
-339.6095543405457
 20
11.72935180673456
 30
0
 42
0.001533611943588498
  0
VERTEX
  8
1
 10
-339.5857864376269
 20
11.73375689002134
 30
0
 42
0.001270779567034243
  0
VERTEX
  8
1
 10
-339.5652844161524
 20
11.73767574934583
 30
0
 42
0.001465016210151208
  0
VERTEX
  8
1
 10
-339.5448039997411
 20
11.74170675642951
 30
0
 42
0.001415110534230083
  0
VERTEX
  8
1
 10
-339.5243470847308
 20
11.74585568002706
 30
0
 42
0.001609456044005489
  0
VERTEX
  8
1
 10
-339.503915567459
 20
11.75012828889314
 30
0
 42
0.001559628191043466
  0
VERTEX
  8
1
 10
-339.4835113442637
 20
11.75453035178244
 30
0
 42
0.00175401309453035
  0
VERTEX
  8
1
 10
-339.4631363114822
 20
11.7590676374496
 30
0
 42
0.001704178018473532
  0
VERTEX
  8
1
 10
-339.4427923654525
 20
11.76374591464932
 30
0
 42
0.001898500990984226
  0
VERTEX
  8
1
 10
-339.4224814025121
 20
11.76857095213625
 30
0
 42
0.001848540371546
  0
VERTEX
  8
1
 10
-339.4022053189987
 20
11.77354851866507
 30
0
 42
0.002042665456868661
  0
VERTEX
  8
1
 10
-339.3819660112501
 20
11.77868438299045
 30
0
 42
0.001670824788450638
  0
VERTEX
  8
1
 10
-339.3653607843065
 20
11.78302959232432
 30
0
 42
0.002016078298990775
  0
VERTEX
  8
1
 10
-339.3487871216945
 20
11.78749737603027
 30
0
 42
0.002042171358931784
  0
VERTEX
  8
1
 10
-339.3322504635381
 20
11.79209947642398
 30
0
 42
0.002388418303879563
  0
VERTEX
  8
1
 10
-339.3157562499615
 20
11.79684763582113
 30
0
 42
0.002415453864554771
  0
VERTEX
  8
1
 10
-339.2993099210886
 20
11.80175359653742
 30
0
 42
0.002762519629545962
  0
VERTEX
  8
1
 10
-339.2829169170437
 20
11.80682910088852
 30
0
 42
0.002790168521201013
  0
VERTEX
  8
1
 10
-339.2665826779506
 20
11.81208589119012
 30
0
 42
0.003137555926875999
  0
VERTEX
  8
1
 10
-339.2503126439335
 20
11.81753570975791
 30
0
 42
0.003165139401614832
  0
VERTEX
  8
1
 10
-339.2341122551163
 20
11.82319029890755
 30
0
 42
0.003511975546016598
  0
VERTEX
  8
1
 10
-339.2179869516233
 20
11.82906140095475
 30
0
 42
0.002742752693049485
  0
VERTEX
  8
1
 10
-339.2056412980821
 20
11.83373207985884
 30
0
 42
0.003164016212437155
  0
VERTEX
  8
1
 10
-339.193350623066
 20
11.83854868977989
 30
0
 42
0.003229473736120488
  0
VERTEX
  8
1
 10
-339.181122280888
 20
11.84352216745776
 30
0
 42
0.003652629585627872
  0
VERTEX
  8
1
 10
-339.1689636258612
 20
11.84866344963228
 30
0
 42
0.0037195401755017
  0
VERTEX
  8
1
 10
-339.1568820122988
 20
11.8539834730433
 30
0
 42
0.004143513073415445
  0
VERTEX
  8
1
 10
-339.1448847945138
 20
11.85949317443065
 30
0
 42
0.004210387627841158
  0
VERTEX
  8
1
 10
-339.1329793268193
 20
11.86520349053418
 30
0
 42
0.004633245838378177
  0
VERTEX
  8
1
 10
-339.1211729635284
 20
11.87112535809372
 30
0
 42
0.004697684352436554
  0
VERTEX
  8
1
 10
-339.1094730589542
 20
11.87726971384913
 30
0
 42
0.005116540431817512
  0
VERTEX
  8
1
 10
-339.0978869674097
 20
11.88364749454024
 30
0
 42
0.003970243268870766
  0
VERTEX
  8
1
 10
-339.0897873458168
 20
11.8882998436284
 30
0
 42
0.005632714266733921
  0
VERTEX
  8
1
 10
-339.0817784788111
 20
11.89310693584371
 30
0
 42
0.006330361291484983
  0
VERTEX
  8
1
 10
-339.0738907714836
 20
11.89810180574297
 30
0
 42
0.008014693841779592
  0
VERTEX
  8
1
 10
-339.0661546289251
 20
11.90331748788303
 30
0
 42
0.00872645899566407
  0
VERTEX
  8
1
 10
-339.0586004562264
 20
11.90878701682069
 30
0
 42
0.01040736440881024
  0
VERTEX
  8
1
 10
-339.0512586584783
 20
11.91454342711279
 30
0
 42
0.01108660178176961
  0
VERTEX
  8
1
 10
-339.0441596407718
 20
11.92061975331614
 30
0
 42
0.01269353165858564
  0
VERTEX
  8
1
 10
-339.0373338081976
 20
11.92704902998758
 30
0
 42
0.01324509219822417
  0
VERTEX
  8
1
 10
-339.0308115658466
 20
11.93386429168391
 30
0
 42
0.01466073185088117
  0
VERTEX
  8
1
 10
-339.0246233188097
 20
11.94109857296197
 30
0
 42
0.01031615691332716
  0
VERTEX
  8
1
 10
-339.0205951751825
 20
11.94631378646493
 30
0
 42
0.01184926177672282
  0
VERTEX
  8
1
 10
-339.0167865379785
 20
11.95172448719057
 30
0
 42
0.01246382786007279
  0
VERTEX
  8
1
 10
-339.0132455766013
 20
11.95731361153044
 30
0
 42
0.01433326009379734
  0
VERTEX
  8
1
 10
-339.0100204604543
 20
11.96306409587613
 30
0
 42
0.01529933389652924
  0
VERTEX
  8
1
 10
-339.007159358941
 20
11.96895887661919
 30
0
 42
0.01752031315419238
  0
VERTEX
  8
1
 10
-339.0047104414647
 20
11.97498089015119
 30
0
 42
0.01880961917738791
  0
VERTEX
  8
1
 10
-339.0027218774291
 20
11.98111307286371
 30
0
 42
0.02128093052437475
  0
VERTEX
  8
1
 10
-339.0012418362375
 20
11.9873383611483
 30
0
 42
0.02268432479577081
  0
VERTEX
  8
1
 10
-339.0003184872933
 20
11.99363969139654
 30
0
 42
0.02505706909050971
  0
VERTEX
  8
1
 10
-339
 20
12
 30
0
  0
SEQEND
  8
1
  0
POLYLINE
  8
1
 62
7
 66
1
  0
VERTEX
  8
1
 10
-41
 20
11.62347538297979
 30
0
 42
-0.006663071849733273
  0
VERTEX
  8
1
 10
-41.28158958089346
 20
11.62722585384144
 30
0
 42
-0.00306273975999288
  0
VERTEX
  8
1
 10
-41.40446187712475
 20
11.63125376504457
 30
0
 42
-0.00229332165732669
  0
VERTEX
  8
1
 10
-41.49602143594886
 20
11.63523743583288
 30
0
 42
-0.002447580430081552
  0
VERTEX
  8
1
 10
-41.58753897326439
 20
11.64008905561225
 30
0
 42
-0.001575744814584672
  0
VERTEX
  8
1
 10
-41.64706103666401
 20
11.64372501302064
 30
0
 42
-0.00166446863349074
  0
VERTEX
  8
1
 10
-41.70509699843906
 20
11.64764784627481
 30
0
 42
-0.001662591345311277
  0
VERTEX
  8
1
 10
-41.76310551432643
 20
11.65195676340031
 30
0
 42
-0.001792299216479793
  0
VERTEX
  8
1
 10
-41.82108266374598
 20
11.65666638330249
 30
0
 42
-0.001790587266585906
  0
VERTEX
  8
1
 10
-41.87902452611758
 20
11.66179132488669
 30
0
 42
-0.001852391065145014
  0
VERTEX
  8
1
 10
-41.93479127959108
 20
11.66713364244876
 30
0
 42
-0.001820123883991605
  0
VERTEX
  8
1
 10
-41.98838254100905
 20
11.67266508147041
 30
0
 42
-0.001990412605663201
  0
VERTEX
  8
1
 10
-42.041930050754
 20
11.67860477384789
 30
0
 42
-0.002029788727183925
  0
VERTEX
  8
1
 10
-42.09542818490793
 20
11.68497482591366
 30
0
 42
-0.002200239715418291
  0
VERTEX
  8
1
 10
-42.14887131955281
 20
11.69179734400019
 30
0
 42
-0.002126430854387894
  0
VERTEX
  8
1
 10
-42.19951481741445
 20
11.69870834249682
 30
0
 42
-0.001148518159836092
  0
VERTEX
  8
1
 10
-42.22344499441251
 20
11.70213374673622
 30
0
 42
-0.001082367701238813
  0
VERTEX
  8
1
 10
-42.24735966926172
 20
11.70566589032794
 30
0
 42
-0.001244566910993569
  0
VERTEX
  8
1
 10
-42.27125747564464
 20
11.70930926485157
 30
0
 42
-0.001178515137292014
  0
VERTEX
  8
1
 10
-42.29513704724381
 20
11.71306836188672
 30
0
 42
-0.001340803120648678
  0
VERTEX
  8
1
 10
-42.31899701774181
 20
11.716947673013
 30
0
 42
-0.001274827405382718
  0
VERTEX
  8
1
 10
-42.34283602082119
 20
11.72095168980999
 30
0
 42
-0.00143717603150681
  0
VERTEX
  8
1
 10
-42.36665269016449
 20
11.72508490385731
 30
0
 42
-0.001371242502970072
  0
VERTEX
  8
1
 10
-42.39044565945428
 20
11.72935180673456
 30
0
 42
-0.00153361194398396
  0
VERTEX
  8
1
 10
-42.41421356237311
 20
11.73375689002134
 30
0
 42
-0.001270779566497561
  0
VERTEX
  8
1
 10
-42.43471558384762
 20
11.73767574934583
 30
0
 42
-0.001465016210719422
  0
VERTEX
  8
1
 10
-42.45519600025889
 20
11.74170675642952
 30
0
 42
-0.001415110533795097
  0
VERTEX
  8
1
 10
-42.47565291526922
 20
11.74585568002707
 30
0
 42
-0.001609456044409389
  0
VERTEX
  8
1
 10
-42.49608443254094
 20
11.75012828889315
 30
0
 42
-0.00155962819038488
  0
VERTEX
  8
1
 10
-42.51648865573635
 20
11.75453035178244
 30
0
 42
-0.001754013095407651
  0
VERTEX
  8
1
 10
-42.53686368851778
 20
11.75906763744961
 30
0
 42
-0.001704178017474329
  0
VERTEX
  8
1
 10
-42.55720763454753
 20
11.76374591464932
 30
0
 42
-0.001898500992099115
  0
VERTEX
  8
1
 10
-42.57751859748793
 20
11.76857095213625
 30
0
 42
-0.001848540370275456
  0
VERTEX
  8
1
 10
-42.59779468100128
 20
11.77354851866507
 30
0
 42
-0.002042665458138983
  0
VERTEX
  8
1
 10
-42.61803398874991
 20
11.77868438299045
 30
0
 42
-0.001670824787264917
  0
VERTEX
  8
1
 10
-42.63463921569353
 20
11.78302959232432
 30
0
 42
-0.002016078299636705
  0
VERTEX
  8
1
 10
-42.65121287830556
 20
11.78749737603026
 30
0
 42
-0.002042171358993513
  0
VERTEX
  8
1
 10
-42.6677495364619
 20
11.79209947642397
 30
0
 42
-0.002388418303366415
  0
VERTEX
  8
1
 10
-42.68424375003854
 20
11.79684763582113
 30
0
 42
-0.002415453865356357
  0
VERTEX
  8
1
 10
-42.70069007891139
 20
11.80175359653741
 30
0
 42
-0.002762519628379553
  0
VERTEX
  8
1
 10
-42.7170830829564
 20
11.80682910088851
 30
0
 42
-0.002790168522780207
  0
VERTEX
  8
1
 10
-42.7334173220495
 20
11.81208589119011
 30
0
 42
-0.003137555924880465
  0
VERTEX
  8
1
 10
-42.74968735606666
 20
11.8175357097579
 30
0
 42
-0.003165139404191463
  0
VERTEX
  8
1
 10
-42.76588774488378
 20
11.82319029890755
 30
0
 42
-0.003511975543129539
  0
VERTEX
  8
1
 10
-42.78201304837683
 20
11.82906140095475
 30
0
 42
-0.002742752696385064
  0
VERTEX
  8
1
 10
-42.79435870191802
 20
11.83373207985884
 30
0
 42
-0.00316401620862994
  0
VERTEX
  8
1
 10
-42.80664937693415
 20
11.83854868977989
 30
0
 42
-0.003229473740429086
  0
VERTEX
  8
1
 10
-42.81887771911211
 20
11.84352216745776
 30
0
 42
-0.003652629580979084
  0
VERTEX
  8
1
 10
-42.83103637413883
 20
11.84866344963229
 30
0
 42
-0.003719540180535743
  0
VERTEX
  8
1
 10
-42.84311798770123
 20
11.8539834730433
 30
0
 42
-0.004143513068220622
  0
VERTEX
  8
1
 10
-42.85511520548621
 20
11.85949317443065
 30
0
 42
-0.00421038763269314
  0
VERTEX
  8
1
 10
-42.8670206731807
 20
11.86520349053418
 30
0
 42
-0.004633245834060871
  0
VERTEX
  8
1
 10
-42.8788270364716
 20
11.87112535809373
 30
0
 42
-0.004697684356446324
  0
VERTEX
  8
1
 10
-42.89052694104583
 20
11.87726971384913
 30
0
 42
-0.005116540427381166
  0
VERTEX
  8
1
 10
-42.90211303259031
 20
11.88364749454024
 30
0
 42
-0.003970243273353474
  0
VERTEX
  8
1
 10
-42.91021265418323
 20
11.8882998436284
 30
0
 42
-0.005632714262145002
  0
VERTEX
  8
1
 10
-42.91822152118888
 20
11.89310693584371
 30
0
 42
-0.006330361297072738
  0
VERTEX
  8
1
 10
-42.9261092285164
 20
11.89810180574298
 30
0
 42
-0.008014693835486888
  0
VERTEX
  8
1
 10
-42.93384537107494
 20
11.90331748788303
 30
0
 42
-0.008726459001064606
  0
VERTEX
  8
1
 10
-42.94139954377366
 20
11.90878701682069
 30
0
 42
-0.01040736440387632
  0
VERTEX
  8
1
 10
-42.94874134152171
 20
11.91454342711279
 30
0
 42
-0.01108660178689702
  0
VERTEX
  8
1
 10
-42.95584035922825
 20
11.92061975331614
 30
0
 42
-0.01269353165382024
  0
VERTEX
  8
1
 10
-42.96266619180243
 20
11.92704902998758
 30
0
 42
-0.01324509220303384
  0
VERTEX
  8
1
 10
-42.9691884341534
 20
11.93386429168391
 30
0
 42
-0.01466073184802828
  0
VERTEX
  8
1
 10
-42.97537668119031
 20
11.94109857296197
 30
0
 42
-0.01031615691167675
  0
VERTEX
  8
1
 10
-42.97940482481759
 20
11.94631378646493
 30
0
 42
-0.01184926178183956
  0
VERTEX
  8
1
 10
-42.98321346202155
 20
11.95172448719057
 30
0
 42
-0.01246382785500983
  0
VERTEX
  8
1
 10
-42.98675442339875
 20
11.95731361153044
 30
0
 42
-0.01433326009564302
  0
VERTEX
  8
1
 10
-42.98997953954574
 20
11.96306409587613
 30
0
 42
-0.01529933389991587
  0
VERTEX
  8
1
 10
-42.99284064105905
 20
11.96895887661919
 30
0
 42
-0.01752031314835693
  0
VERTEX
  8
1
 10
-42.99528955853526
 20
11.97498089015119
 30
0
 42
-0.01880961918116901
  0
VERTEX
  8
1
 10
-42.99727812257091
 20
11.98111307286371
 30
0
 42
-0.02128093052323804
  0
VERTEX
  8
1
 10
-42.99875816376255
 20
11.9873383611483
 30
0
 42
-0.0226843247963161
  0
VERTEX
  8
1
 10
-42.99968151270673
 20
11.99363969139655
 30
0
 42
-0.02505706908936846
  0
VERTEX
  8
1
 10
-43
 20
12
 30
0
  0
SEQEND
  8
1
  0
LINE
  8
1
 62
7
 10
233.7816762154457
 20
63.8812793625461
 30
0
 11
233.7816762154457
 21
40.86907910409818
 31
0
  0
LINE
  8
1
 62
7
 10
-249.25
 20
-94
 30
0
 11
-280.5
 21
-94
 31
0
  0
LINE
  8
1
 62
7
 10
-322.2499999999999
 20
-52
 30
0
 11
-263.25
 21
-52
 31
0
  0
LINE
  8
1
 62
7
 10
-322.2499999999999
 20
-52
 30
0
 11
-263.25
 21
-52
 31
0
  0
LINE
  8
1
 62
7
 10
-261.25
 20
-53.99999999999999
 30
0
 11
-261.25
 21
-68
 31
0
  0
LINE
  8
1
 62
7
 10
-259.25
 20
-70
 30
0
 11
-248.25
 21
-70
 31
0
  0
LINE
  8
1
 62
7
 10
-246.25
 20
-91
 30
0
 11
-246.25
 21
90
 31
0
  0
LINE
  8
1
 62
7
 10
227.7816762154456
 20
40.86907910409819
 30
0
 11
227.7816762154456
 21
63.8812793625461
 31
0
  0
LINE
  8
1
 62
7
 10
-283.5
 20
184.978700299956
 30
0
 11
-283.5
 21
221.6495384356902
 31
0
  0
LINE
  8
1
 62
7
 10
-248.25
 20
199.478700299956
 30
0
 11
-259.25
 21
199.478700299956
 31
0
  0
LINE
  8
1
 62
7
 10
-263.25
 20
231.978700299956
 30
0
 11
-322.25
 21
231.978700299956
 31
0
  0
LINE
  8
1
 62
7
 10
-263.2220265943665
 20
266.478700299956
 30
0
 11
-319.9990157327751
 21
266.478700299956
 31
0
  0
LINE
  8
1
 62
7
 10
-329
 20
254.478700299956
 30
0
 11
-325.95
 21
254.4787002999559
 31
0
  0
LINE
  8
1
 62
7
 10
-378.5
 20
257.478700299956
 30
0
 11
-329
 21
257.478700299956
 31
0
  0
LINE
  8
1
 62
7
 10
-378.5
 20
257.478700299956
 30
0
 11
-379
 21
257.978700299956
 31
0
  0
LINE
  8
1
 62
7
 10
-342.5
 20
265.978700299956
 30
0
 11
-379
 21
265.978700299956
 31
0
  0
LINE
  8
1
 62
7
 10
-261.25
 20
201.478700299956
 30
0
 11
-261.25
 21
264.8120336332893
 31
0
  0
LINE
  8
1
 62
7
 10
-378.5
 20
257.478700299956
 30
0
 11
-378.4999999999999
 21
265.978700299956
 31
0
  0
LINE
  8
1
 62
7
 10
-283.5
 20
-97
 30
0
 11
-283.5
 21
-112
 31
0
  0
LINE
  8
1
 62
7
 10
-283.5
 20
-112
 30
0
 11
-236
 21
-112
 31
0
  0
LINE
  8
1
 62
7
 10
-248.25
 20
70
 30
0
 11
-259.25
 21
70
 31
0
  0
LINE
  8
1
 62
7
 10
-263.25
 20
37.5
 30
0
 11
-322.2499999999999
 21
37.5
 31
0
  0
LINE
  8
1
 62
7
 10
-246.25
 20
58.41574841508899
 30
0
 11
-246.25
 21
90
 31
0
  0
LINE
  8
1
 62
7
 10
-325.95
 20
16.75000000000009
 30
0
 11
-324.2499999999999
 21
16.75000000000009
 31
0
  0
LINE
  8
1
 62
7
 10
-324.2499999999999
 20
-16.75000000000007
 30
0
 11
-325.95
 21
-16.75000000000008
 31
0
  0
LINE
  8
1
 62
7
 10
-326.05
 20
15
 30
0
 11
-329
 21
15
 31
0
  0
LINE
  8
1
 62
7
 10
-329
 20
-14.99999999999999
 30
0
 11
-326.05
 21
-15
 31
0
  0
LINE
  8
1
 62
7
 10
-329
 20
15
 30
0
 11
-329
 21
-14.99999999999999
 31
0
  0
LINE
  8
1
 62
7
 10
-329
 20
12
 30
0
 11
-339
 21
12
 31
0
  0
LINE
  8
1
 62
7
 10
-339
 20
12
 30
0
 11
-339
 21
15
 31
0
  0
LINE
  8
1
 62
7
 10
-339
 20
15
 30
0
 11
-379
 21
15
 31
0
  0
LINE
  8
1
 62
7
 10
-378.5
 20
-12
 30
0
 11
-329
 21
-12
 31
0
  0
LINE
  8
1
 62
7
 10
-324.2499999999999
 20
35.5
 30
0
 11
-324.2499999999999
 21
-50.00000000000001
 31
0
  0
LINE
  8
1
 62
7
 10
-378.5
 20
11.62347538297979
 30
0
 11
-341
 21
11.62347538297979
 31
0
  0
LINE
  8
1
 62
7
 10
-322.2499999999999
 20
37.5
 30
0
 11
-261.25
 21
68
 31
0
  0
LINE
  8
1
 62
7
 10
-261.25
 20
68
 30
0
 11
-261.25
 21
-55
 31
0
  0
LINE
  8
1
 62
7
 10
-265.25
 20
-14.66292839209649
 30
0
 11
-321.5680715417879
 21
-14.66292839209649
 31
0
  0
LINE
  8
1
 62
7
 10
-320.9725931177253
 20
-18.49586740289227
 30
0
 11
-262.6951862354506
 21
-33.59488753514309
 31
0
  0
LINE
  8
1
 62
7
 10
-263.8048137645494
 20
-29.81039299456999
 30
0
 11
-320.8048137645494
 21
-15.08021025797716
 31
0
  0
LINE
  8
1
 62
7
 10
-214
 20
-62.5
 30
0
 11
-214
 21
-41.5
 31
0
  0
LINE
  8
1
 62
3
 10
-209.8162446581088
 20
-46.07692150578631
 30
0
 11
-207.1837553418912
 21
-44.55705309042925
 31
0
  0
LINE
  8
1
 62
3
 10
-206.6837553418912
 20
-45.42307849421368
 30
0
 11
-209.3162446581088
 21
-46.94294690957075
 31
0
  0
LINE
  8
1
 62
7
 10
-211.375
 20
-39.5
 30
0
 11
-211.375
 21
-26
 31
0
  0
LINE
  8
1
 62
7
 10
-214.375
 20
-23
 30
0
 11
-228.5
 21
-23
 31
0
  0
LINE
  8
1
 62
7
 10
-209.375
 20
-26
 30
0
 11
-209.375
 21
-39.5
 31
0
  0
LINE
  8
1
 62
7
 10
-194.625
 20
-26
 30
0
 11
-194.625
 21
-39.5
 31
0
  0
LINE
  8
1
 62
7
 10
-196.625
 20
-39.5
 30
0
 11
-196.625
 21
-26
 31
0
  0
LINE
  8
1
 62
7
 10
-199.625
 20
-21
 30
0
 11
-228.5
 21
-21
 31
0
  0
LINE
  8
1
 62
7
 10
-199.625
 20
-23
 30
0
 11
-210.375
 21
-23
 31
0
  0
LINE
  8
1
 62
7
 10
-228.5
 20
-20.75
 30
0
 11
-223.5
 21
-20.75
 31
0
  0
LINE
  8
1
 62
7
 10
-228.5
 20
-23.25
 30
0
 11
-223.5
 21
-23.25
 31
0
  0
LINE
  8
1
 62
7
 10
137.3558828253998
 20
-17.83751622053936
 30
0
 11
140.2499747606106
 21
-17.12229519999932
 31
0
  0
LINE
  8
1
 62
7
 10
139.7444338047209
 20
-27.54806843033591
 30
0
 11
137.3558828253998
 21
-17.83751622053936
 31
0
  0
LINE
  8
1
 62
7
 10
140.2499747606106
 20
-17.12229519999932
 30
0
 11
142.6389865133834
 21
-26.83608145394157
 31
0
  0
LINE
  8
1
 62
7
 10
125.2816762154456
 20
-39.5
 30
0
 11
143.2816762154456
 21
-39.5
 31
0
  0
LINE
  8
1
 62
7
 10
125.2816762154456
 20
-64.5
 30
0
 11
125.2816762154456
 21
-39.5
 31
0
  0
LINE
  8
1
 62
7
 10
143.2816762154456
 20
-64.5
 30
0
 11
125.2816762154456
 21
-64.5
 31
0
  0
LINE
  8
1
 62
7
 10
138.3112150320997
 20
-23.93497282931836
 30
0
 11
138.8178902960722
 21
-23.78124528388549
 31
0
  0
LINE
  8
1
 62
7
 10
138.264931499759
 20
-38.32522050279464
 30
0
 11
138.264931499759
 21
-39.5
 31
0
  0
LINE
  8
1
 62
7
 10
135.7687176491339
 20
-38.32640590489795
 30
0
 11
135.7687176491339
 21
-39.5
 31
0
  0
LINE
  8
1
 62
7
 10
138.3397974728371
 20
-21.83757928665718
 30
0
 11
137.7888885760736
 21
-21.99670992857222
 31
0
  0
LINE
  8
1
 62
7
 10
-378.5
 20
-12
 30
0
 11
-379
 21
-11.5
 31
0
  0
LINE
  8
1
 62
7
 10
-379
 20
-11.5
 30
0
 11
-379
 21
15
 31
0
  0
LINE
  8
1
 62
7
 10
-379
 20
11.12347538297979
 30
0
 11
-378.5
 21
11.62347538297979
 31
0
  0
LINE
  8
1
 62
7
 10
-378.5
 20
-12
 30
0
 11
-378.5
 21
11.62347538297979
 31
0
  0
LINE
  8
1
 62
7
 10
-223.9994769523979
 20
177.478700299956
 30
0
 11
-223.9994769523979
 21
163.978700299956
 31
0
  0
LINE
  8
1
 62
7
 10
-325.95
 20
16.75000000000009
 30
0
 11
-325.95
 21
-16.75000000000008
 31
0
  0
LINE
  8
1
 62
3
  6
DASHDOT
 10
236.7816762154456
 20
0
 30
0
 11
224.7816762154456
 21
0
 31
0
  0
LINE
  8
1
 62
3
  6
DASHDOT
 10
230.7816762154456
 20
5.000000000000003
 30
0
 11
230.7816762154456
 21
-6.000000000000002
 31
0
  0
LINE
  8
1
 62
7
 10
-246.25
 20
56.56854249492381
 30
0
 11
-247.75
 21
55.06854249492381
 31
0
  0
LINE
  8
1
 62
7
 10
-246.25
 20
58.06854249492381
 30
0
 11
-247.75
 21
56.56854249492381
 31
0
  0
LINE
  8
1
 62
7
 10
-246.25
 20
50.4685424949238
 30
0
 11
-247.75
 21
50.46854249492381
 31
0
  0
LINE
  8
1
 62
7
 10
-247.75
 20
50.46854249492381
 30
0
 11
-247.75
 21
62.6685424949238
 31
0
  0
LINE
  8
1
 62
7
 10
-247.75
 20
62.6685424949238
 30
0
 11
-246.25
 21
62.6685424949238
 31
0
  0
LINE
  8
1
 62
7
 10
-247.75
 20
51.56854249492381
 30
0
 11
-253.35
 21
51.56854249492381
 31
0
  0
LINE
  8
1
 62
7
 10
-253.35
 20
51.56854249492381
 30
0
 11
-253.75
 21
52.26136281795137
 31
0
  0
LINE
  8
1
 62
7
 10
-253.75
 20
52.26136281795137
 30
0
 11
-253.75
 21
60.87572217189627
 31
0
  0
LINE
  8
1
 62
7
 10
-253.75
 20
60.87572217189627
 30
0
 11
-253.35
 21
61.56854249492381
 31
0
  0
LINE
  8
1
 62
7
 10
-253.35
 20
61.56854249492381
 30
0
 11
-247.75
 21
61.56854249492381
 31
0
  0
LINE
  8
1
 62
7
 10
-253.35
 20
51.56854249492381
 30
0
 11
-253.35
 21
61.56854249492381
 31
0
  0
LINE
  8
1
 62
7
 10
-247.75
 20
-55.06854249492376
 30
0
 11
-246.25
 21
-56.56854249492376
 31
0
  0
LINE
  8
1
 62
7
 10
-247.75
 20
-56.56854249492376
 30
0
 11
-246.25
 21
-58.06854249492376
 31
0
  0
LINE
  8
1
 62
7
 10
-247.75
 20
-50.46854249492377
 30
0
 11
-246.25
 21
-50.46854249492376
 31
0
  0
LINE
  8
1
 62
7
 10
-247.75
 20
-62.66854249492377
 30
0
 11
-247.75
 21
-50.46854249492377
 31
0
  0
LINE
  8
1
 62
7
 10
-246.25
 20
-62.66854249492377
 30
0
 11
-247.75
 21
-62.66854249492377
 31
0
  0
LINE
  8
1
 62
7
 10
-253.35
 20
-51.56854249492377
 30
0
 11
-247.75
 21
-51.56854249492376
 31
0
  0
LINE
  8
1
 62
7
 10
-253.75
 20
-52.26136281795132
 30
0
 11
-253.35
 21
-51.56854249492377
 31
0
  0
LINE
  8
1
 62
7
 10
-253.75
 20
-60.87572217189621
 30
0
 11
-253.75
 21
-52.26136281795132
 31
0
  0
LINE
  8
1
 62
7
 10
-253.35
 20
-61.56854249492378
 30
0
 11
-253.75
 21
-60.87572217189621
 31
0
  0
LINE
  8
1
 62
7
 10
-247.75
 20
-61.56854249492376
 30
0
 11
-253.35
 21
-61.56854249492378
 31
0
  0
LINE
  8
1
 62
7
 10
-253.35
 20
-61.56854249492378
 30
0
 11
-253.35
 21
-51.56854249492377
 31
0
  0
LINE
  8
1
 62
7
 10
273.2816762154456
 20
-112
 30
0
 11
318.2816762154456
 21
-112
 31
0
  0
LINE
  8
1
 62
7
 10
316.2816762154456
 20
-94
 30
0
 11
275.2816762154456
 21
-94
 31
0
  0
LINE
  8
1
 62
7
 10
273.2816762154456
 20
-112
 30
0
 11
273.2816762154456
 21
-96
 31
0
  0
LINE
  8
1
 62
7
 10
318.2816762154456
 20
-28.42094298224462
 30
0
 11
318.2816762154456
 21
-112
 31
0
  0
LINE
  8
1
 62
7
 10
132.9982157913127
 20
-26.99232621857685
 30
0
 11
135.7154983838814
 21
-37.59883435355
 31
0
  0
LINE
  8
1
 62
7
 10
135.4769108133693
 20
-26.92375457448503
 30
0
 11
138.2120548401513
 21
-37.59998215925109
 31
0
  0
LINE
  8
1
 62
7
 10
139.7444338047209
 20
-27.54806843033591
 30
0
 11
142.6403057061253
 21
-26.84148807637633
 31
0
  0
LINE
  8
1
 62
7
 10
-236
 20
-111
 30
0
 11
-236
 21
-112
 31
0
  0
LINE
  8
1
 62
7
  6
DASHED
 10
-379
 20
2.4
 30
0
 11
-362.1999999999999
 21
2.4
 31
0
  0
LINE
  8
1
 62
7
  6
DASHED
 10
-362.1999999999999
 20
2.4
 30
0
 11
-362.1999999999999
 21
-2.400000000000002
 31
0
  0
LINE
  8
1
 62
7
  6
DASHED
 10
-362.1999999999999
 20
-2.400000000000002
 30
0
 11
-379
 21
-2.400000000000002
 31
0
  0
LINE
  8
1
 62
7
  6
DASHED
 10
-362.1999999999999
 20
2.4
 30
0
 11
-360.4679491924311
 21
0
 31
0
  0
LINE
  8
1
 62
7
  6
DASHED
 10
-360.4679491924311
 20
0
 30
0
 11
-362.1999999999999
 21
-2.400000000000002
 31
0
  0
LINE
  8
1
 62
3
  6
DASHED
 10
-379
 20
3
 30
0
 11
-367
 21
3
 31
0
  0
LINE
  8
1
 62
3
  6
DASHED
 10
-367
 20
3
 30
0
 11
-367
 21
-3.000000000000002
 31
0
  0
LINE
  8
1
 62
3
  6
DASHED
 10
-367
 20
-3.000000000000002
 30
0
 11
-379
 21
-3.000000000000002
 31
0
  0
LINE
  8
1
 62
3
  6
DASHED
 10
-367
 20
3
 30
0
 11
-365.9607695154586
 21
2.4
 31
0
  0
LINE
  8
1
 62
3
  6
DASHED
 10
-367
 20
-3.000000000000002
 30
0
 11
-365.9607695154586
 21
-2.400000000000002
 31
0
  0
LINE
  8
1
 62
3
  6
DASHDOT
 10
-382
 20
0
 30
0
 11
-356.6143593539448
 21
0
 31
0
  0
LINE
  8
1
 62
7
 10
-201.5
 20
-44.5
 30
0
 11
-201.5
 21
-59.5
 31
0
  0
LINE
  8
1
 62
7
 10
-203.5
 20
-59.5
 30
0
 11
-203.5
 21
-44.5
 31
0
  0
LINE
  8
1
 62
3
 10
-197.8162446581088
 20
-44.55705309042925
 30
0
 11
-195.1837553418912
 21
-46.07692150578631
 31
0
  0
LINE
  8
1
 62
3
 10
-195.6837553418912
 20
-46.94294690957075
 30
0
 11
-198.3162446581088
 21
-45.42307849421368
 31
0
  0
LINE
  8
1
 62
3
 10
-195.1837553418912
 20
-57.92307849421368
 30
0
 11
-197.8162446581088
 21
-59.44294690957075
 31
0
  0
LINE
  8
1
 62
3
 10
-198.3162446581088
 20
-58.57692150578632
 30
0
 11
-195.6837553418912
 21
-57.05705309042925
 31
0
  0
LINE
  8
1
 62
3
 10
-207.1837553418912
 20
-59.44294690957075
 30
0
 11
-209.8162446581088
 21
-57.92307849421368
 31
0
  0
LINE
  8
1
 62
3
 10
-209.3162446581088
 20
-57.05705309042925
 30
0
 11
-206.6837553418912
 21
-58.57692150578632
 31
0
  0
LINE
  8
1
 62
7
 10
-223.1724137931034
 20
-49.93103448275862
 30
0
 11
-214
 21
-41.5
 31
0
  0
LINE
  8
1
 62
7
 10
-223.1724137931034
 20
-54.06896551724138
 30
0
 11
-214
 21
-62.5
 31
0
  0
LINE
  8
1
 62
7
 10
-192
 20
-59.5
 30
0
 11
-192
 21
-55.48060076922076
 31
0
  0
LINE
  8
1
 62
7
 10
-247.7499999999999
 20
214.4101578050322
 30
0
 11
-246.2499999999999
 21
212.9101578050322
 31
0
  0
LINE
  8
1
 62
7
 10
-247.7499999999999
 20
212.9101578050322
 30
0
 11
-246.2499999999999
 21
211.4101578050322
 31
0
  0
LINE
  8
1
 62
7
 10
-247.75
 20
219.0101578050322
 30
0
 11
-246.25
 21
219.0101578050322
 31
0
  0
LINE
  8
1
 62
7
 10
-247.7499999999999
 20
206.8101578050322
 30
0
 11
-247.75
 21
219.0101578050322
 31
0
  0
LINE
  8
1
 62
7
 10
-246.2499999999999
 20
206.8101578050322
 30
0
 11
-247.7499999999999
 21
206.8101578050322
 31
0
  0
LINE
  8
1
 62
7
 10
-253.35
 20
217.9101578050322
 30
0
 11
-247.75
 21
217.9101578050322
 31
0
  0
LINE
  8
1
 62
7
 10
-253.75
 20
217.2173374820046
 30
0
 11
-253.35
 21
217.9101578050322
 31
0
  0
LINE
  8
1
 62
7
 10
-253.75
 20
208.6029781280597
 30
0
 11
-253.75
 21
217.2173374820046
 31
0
  0
LINE
  8
1
 62
7
 10
-253.35
 20
207.9101578050322
 30
0
 11
-253.75
 21
208.6029781280597
 31
0
  0
LINE
  8
1
 62
7
 10
-247.7499999999999
 20
207.9101578050322
 30
0
 11
-253.35
 21
207.9101578050322
 31
0
  0
LINE
  8
1
 62
7
 10
-253.35
 20
207.9101578050322
 30
0
 11
-253.35
 21
217.9101578050322
 31
0
  0
LINE
  8
1
 62
7
 10
-217.25
 20
-52.2625
 30
0
 11
-217.25
 21
-51.7375
 31
0
  0
LINE
  8
1
 62
7
 10
-218.7375
 20
-50.25
 30
0
 11
-219.2625
 21
-50.25
 31
0
  0
LINE
  8
1
 62
7
 10
-220.75
 20
-51.7375
 30
0
 11
-220.75
 21
-52.2625
 31
0
  0
LINE
  8
1
 62
7
 10
-219.2625
 20
-53.75
 30
0
 11
-218.7375
 21
-53.75
 31
0
  0
LINE
  8
1
 62
7
 10
-192
 20
-48.51939923077924
 30
0
 11
-192
 21
-44.5
 31
0
  0
LINE
  8
1
 62
7
 10
135.8425560738211
 20
-49.25
 30
0
 11
136.2816762154456
 21
-49.25
 31
0
  0
LINE
  8
1
 62
7
 10
136.5816762154457
 20
-49.55
 30
0
 11
136.5816762154457
 21
-54.45
 31
0
  0
LINE
  8
1
 62
7
 10
136.2816762154456
 20
-54.75
 30
0
 11
135.8425560738211
 21
-54.75
 31
0
  0
LINE
  8
1
 62
7
 10
136.5816762154457
 20
-52
 30
0
 11
137.2816762154456
 21
-51.3
 31
0
  0
LINE
  8
1
 62
7
 10
136.5816762154457
 20
-52.7
 30
0
 11
137.2816762154456
 21
-52
 31
0
  0
LINE
  8
1
 62
7
 10
137.2816762154456
 20
-49.25
 30
0
 11
136.5816762154457
 21
-49.25
 31
0
  0
LINE
  8
1
 62
7
 10
136.5816762154457
 20
-49.25
 30
0
 11
136.5816762154457
 21
-54.75
 31
0
  0
LINE
  8
1
 62
7
 10
136.5816762154457
 20
-54.75
 30
0
 11
137.2816762154456
 21
-54.75
 31
0
  0
LINE
  8
1
 62
7
 10
129.5707101945946
 20
-46.9935153251839
 30
0
 11
135.2816762154456
 21
-46.9935153251839
 31
0
  0
LINE
  8
1
 62
7
 10
135.2816762154456
 20
-57.00648467481611
 30
0
 11
129.5707101945946
 21
-57.00648467481611
 31
0
  0
LINE
  8
1
 62
7
 10
137.2816762154456
 20
-48.9935153251839
 30
0
 11
137.2816762154456
 21
-55.00648467481611
 31
0
  0
LINE
  8
1
 62
7
 10
227.2816762154456
 20
15
 30
0
 11
234.2816762154456
 21
15
 31
0
  0
LINE
  8
1
 62
7
 10
234.2816762154456
 20
15
 30
0
 11
234.2816762154456
 21
8
 31
0
  0
LINE
  8
1
 62
7
 10
234.2816762154456
 20
8
 30
0
 11
227.2816762154456
 21
8
 31
0
  0
LINE
  8
1
 62
7
 10
227.2816762154456
 20
8
 30
0
 11
227.2816762154456
 21
15
 31
0
  0
LINE
  8
1
 62
7
 10
237.7816762154456
 20
-16.79693845669907
 30
0
 11
237.7816762154456
 21
-16.17011235918212
 31
0
  0
LINE
  8
1
 62
7
 10
223.7816762154456
 20
-16.79693845669907
 30
0
 11
223.7816762154456
 21
-16.17011235918212
 31
0
  0
LINE
  8
1
 62
7
 10
233.7816762154456
 20
-14.69693845669907
 30
0
 11
233.7816762154456
 21
-18.79693845669907
 31
0
  0
LINE
  8
1
 62
7
 10
233.7816762154456
 20
-18.79693845669907
 30
0
 11
235.7816762154456
 21
-18.79693845669907
 31
0
  0
LINE
  8
1
 62
7
 10
227.7816762154456
 20
-14.69693845669907
 30
0
 11
227.7816762154456
 21
-18.79693845669907
 31
0
  0
LINE
  8
1
 62
7
 10
227.7816762154456
 20
-18.79693845669907
 30
0
 11
225.7816762154456
 21
-18.79693845669907
 31
0
  0
LINE
  8
1
 62
7
 10
285.3089772580502
 20
54.52730104260447
 30
0
 11
288.0973649371761
 21
53.78015481579776
 31
0
  0
LINE
  8
1
 62
7
 10
288.0973649371761
 20
53.78015481579776
 30
0
 11
290.1386063894954
 21
55.8213962681171
 31
0
  0
LINE
  8
1
 62
7
 10
290.1386063894954
 20
55.8213962681171
 30
0
 11
289.3914601626886
 21
58.60978394724312
 31
0
  0
LINE
  8
1
 62
7
 10
289.3914601626886
 20
58.60978394724312
 30
0
 11
286.6030724835628
 21
59.35693017404982
 31
0
  0
LINE
  8
1
 62
7
 10
286.6030724835628
 20
59.35693017404982
 30
0
 11
284.5618310312434
 21
57.3156887217305
 31
0
  0
LINE
  8
1
 62
7
 10
284.5618310312434
 20
57.3156887217305
 30
0
 11
285.3089772580502
 21
54.52730104260447
 31
0
  0
LINE
  8
1
 62
7
 10
173.9588654612301
 20
-29.34256346991964
 30
0
 11
193.8880154820207
 21
-17.83646334069569
 31
0
  0
LINE
  8
1
 62
7
 10
196.8880154820208
 20
-23.03261576340242
 30
0
 11
176.9588654612301
 21
-34.53871589262637
 31
0
  0
LINE
  8
1
 62
7
 10
284.604486969661
 20
-34.53871589262657
 30
0
 11
264.6753369488704
 21
-23.0326157634026
 31
0
  0
LINE
  8
1
 62
7
 10
267.6753369488704
 20
-17.83646334069587
 30
0
 11
287.6044869696611
 21
-29.34256346991984
 31
0
  0
LINE
  8
1
 62
7
 10
176.2543751728413
 20
54.52730104260451
 30
0
 11
177.0015213996479
 21
57.31568872173051
 31
0
  0
LINE
  8
1
 62
7
 10
177.0015213996479
 20
57.31568872173051
 30
0
 11
174.9602799473286
 21
59.35693017404981
 31
0
  0
LINE
  8
1
 62
7
 10
174.9602799473286
 20
59.35693017404981
 30
0
 11
172.1718922682026
 21
58.6097839472431
 31
0
  0
LINE
  8
1
 62
7
 10
172.1718922682026
 20
58.6097839472431
 30
0
 11
171.4247460413958
 21
55.8213962681171
 31
0
  0
LINE
  8
1
 62
7
 10
171.4247460413958
 20
55.8213962681171
 30
0
 11
173.4659874937153
 21
53.7801548157978
 31
0
  0
LINE
  8
1
 62
7
 10
173.4659874937153
 20
53.7801548157978
 30
0
 11
176.2543751728413
 21
54.52730104260451
 31
0
  0
LINE
  8
1
 62
7
 10
176.2543751728412
 20
-54.52730104260444
 30
0
 11
173.4659874937151
 21
-53.78015481579774
 31
0
  0
LINE
  8
1
 62
7
 10
173.4659874937151
 20
-53.78015481579774
 30
0
 11
171.4247460413958
 21
-55.82139626811707
 31
0
  0
LINE
  8
1
 62
7
 10
171.4247460413958
 20
-55.82139626811707
 30
0
 11
172.1718922682026
 21
-58.60978394724309
 31
0
  0
LINE
  8
1
 62
7
 10
172.1718922682026
 20
-58.60978394724309
 30
0
 11
174.9602799473286
 21
-59.35693017404979
 31
0
  0
LINE
  8
1
 62
7
 10
174.9602799473286
 20
-59.35693017404979
 30
0
 11
177.0015213996478
 21
-57.31568872173047
 31
0
  0
LINE
  8
1
 62
7
 10
177.0015213996478
 20
-57.31568872173047
 30
0
 11
176.2543751728412
 21
-54.52730104260444
 31
0
  0
LINE
  8
1
 62
7
 10
285.30897725805
 20
-54.52730104260451
 30
0
 11
284.5618310312434
 21
-57.31568872173052
 31
0
  0
LINE
  8
1
 62
7
 10
284.5618310312434
 20
-57.31568872173052
 30
0
 11
286.6030724835628
 21
-59.35693017404982
 31
0
  0
LINE
  8
1
 62
7
 10
286.6030724835628
 20
-59.35693017404982
 30
0
 11
289.3914601626886
 21
-58.60978394724312
 31
0
  0
LINE
  8
1
 62
7
 10
289.3914601626886
 20
-58.60978394724312
 30
0
 11
290.1386063894954
 21
-55.82139626811711
 31
0
  0
LINE
  8
1
 62
7
 10
290.1386063894954
 20
-55.82139626811711
 30
0
 11
288.0973649371761
 21
-53.78015481579781
 31
0
  0
LINE
  8
1
 62
7
 10
288.0973649371761
 20
-53.78015481579781
 30
0
 11
285.30897725805
 21
-54.52730104260451
 31
0
  0
LINE
  8
1
 62
7
 10
143.2816762154456
 20
-112
 30
0
 11
188.2816762154456
 21
-112
 31
0
  0
LINE
  8
1
 62
7
 10
186.2816762154456
 20
-94
 30
0
 11
145.2816762154456
 21
-94
 31
0
  0
LINE
  8
1
 62
7
 10
188.2816762154456
 20
-96
 30
0
 11
188.2816762154456
 21
-112
 31
0
  0
LINE
  8
1
 62
7
 10
190.2816762154456
 20
-109
 30
0
 11
271.2816762154456
 21
-109
 31
0
  0
LINE
  8
1
 62
7
 10
143.2816762154456
 20
-112
 30
0
 11
143.2816762154456
 21
-28.42094298224462
 31
0
  0
LINE
  8
1
 62
3
  6
DASHDOT
 10
-271
 20
-88.9521085078687
 30
0
 11
-271
 21
-117.734907071947
 31
0
  0
LINE
  8
1
 62
7
 10
-313.8863006786131
 20
231.978700299956
 30
0
 11
-262.6951862354506
 21
214.5773946034143
 31
0
  0
LINE
  8
1
 62
7
 10
-246.25
 20
181.978700299956
 30
0
 11
-280.5
 21
181.978700299956
 31
0
  0
LINE
  8
1
 62
7
 10
-324.25
 20
250.6817618432362
 30
0
 11
-325.85
 21
250.6817618432362
 31
0
  0
LINE
  8
1
 62
7
 10
-265.5
 20
208.478700299956
 30
0
 11
-265.5
 21
195.478700299956
 31
0
  0
LINE
  8
1
 62
7
 10
-276.5
 20
195.478700299956
 30
0
 11
-276.5
 21
208.478700299956
 31
0
  0
LINE
  8
1
 62
3
  6
DASHDOT
 10
-271
 20
214.3084493091422
 30
0
 11
-271
 21
189.6489512907697
 31
0
  0
LINE
  8
1
 62
3
  6
DASHDOT
 10
-263.1388638615973
 20
201.978700299956
 30
0
 11
-278.9508786351393
 21
201.978700299956
 31
0
  0
LINE
  8
1
 62
3
  6
DASHDOT
 10
163.2816762154456
 20
-89.72979578194691
 30
0
 11
163.2816762154456
 21
-116.997588817424
 31
0
  0
LINE
  8
1
 62
3
  6
DASHDOT
 10
298.2816762154457
 20
-116.997588817424
 30
0
 11
298.2816762154457
 21
-89.72979578194691
 31
0
  0
LINE
  8
1
 62
7
 10
-283.5
 20
317.3078621642218
 30
0
 11
-283.5
 21
353.978700299956
 31
0
  0
LINE
  8
1
 62
7
 10
-259.25
 20
339.478700299956
 30
0
 11
-248.25
 21
339.478700299956
 31
0
  0
LINE
  8
1
 62
7
 10
-322.25
 20
306.978700299956
 30
0
 11
-263.25
 21
306.978700299956
 31
0
  0
LINE
  8
1
 62
7
 10
-324.25
 20
233.978700299956
 30
0
 11
-324.25
 21
304.9787002999561
 31
0
  0
LINE
  8
1
 62
7
 10
-319.9990157327751
 20
272.478700299956
 30
0
 11
-263.2220265943665
 21
272.478700299956
 31
0
  0
LINE
  8
1
 62
7
 10
-325.95
 20
284.4787002999561
 30
0
 11
-329
 21
284.478700299956
 31
0
  0
LINE
  8
1
 62
7
 10
-329
 20
284.478700299956
 30
0
 11
-329
 21
254.478700299956
 31
0
  0
LINE
  8
1
 62
7
 10
-329
 20
281.478700299956
 30
0
 11
-378.5
 21
281.478700299956
 31
0
  0
LINE
  8
1
 62
7
 10
-379
 20
280.978700299956
 30
0
 11
-378.5
 21
281.478700299956
 31
0
  0
LINE
  8
1
 62
7
 10
-379
 20
272.978700299956
 30
0
 11
-342.5
 21
272.978700299956
 31
0
  0
LINE
  8
1
 62
7
 10
-246.25
 20
359.478700299956
 30
0
 11
-246.25
 21
179.478700299956
 31
0
  0
LINE
  8
1
 62
7
 10
-379
 20
257.978700299956
 30
0
 11
-379
 21
280.978700299956
 31
0
  0
LINE
  8
1
 62
7
 10
-261.25
 20
274.1453669666227
 30
0
 11
-261.25
 21
337.478700299956
 31
0
  0
LINE
  8
1
 62
7
 10
-378.4999999999999
 20
272.978700299956
 30
0
 11
-378.5
 21
281.478700299956
 31
0
  0
LINE
  8
1
 62
7
 10
-246.2499999999999
 20
326.0472427948798
 30
0
 11
-247.7499999999999
 21
324.5472427948798
 31
0
  0
LINE
  8
1
 62
7
 10
-246.2499999999999
 20
327.5472427948798
 30
0
 11
-247.7499999999999
 21
326.0472427948798
 31
0
  0
LINE
  8
1
 62
7
 10
-246.25
 20
319.9472427948798
 30
0
 11
-247.75
 21
319.9472427948798
 31
0
  0
LINE
  8
1
 62
7
 10
-247.75
 20
319.9472427948798
 30
0
 11
-247.7499999999999
 21
332.1472427948798
 31
0
  0
LINE
  8
1
 62
7
 10
-247.7499999999999
 20
332.1472427948798
 30
0
 11
-246.2499999999999
 21
332.1472427948798
 31
0
  0
LINE
  8
1
 62
7
 10
-247.75
 20
321.0472427948798
 30
0
 11
-253.35
 21
321.0472427948798
 31
0
  0
LINE
  8
1
 62
7
 10
-253.35
 20
321.0472427948798
 30
0
 11
-253.75
 21
321.7400631179074
 31
0
  0
LINE
  8
1
 62
7
 10
-253.75
 20
321.7400631179074
 30
0
 11
-253.75
 21
330.3544224718523
 31
0
  0
LINE
  8
1
 62
7
 10
-253.75
 20
330.3544224718523
 30
0
 11
-253.35
 21
331.0472427948798
 31
0
  0
LINE
  8
1
 62
7
 10
-253.35
 20
331.0472427948798
 30
0
 11
-247.7499999999999
 21
331.0472427948798
 31
0
  0
LINE
  8
1
 62
7
 10
-253.35
 20
321.0472427948798
 30
0
 11
-253.35
 21
331.0472427948798
 31
0
  0
LINE
  8
1
 62
7
 10
-262.6951862354506
 20
324.3800059964977
 30
0
 11
-313.8863006786131
 21
306.978700299956
 31
0
  0
LINE
  8
1
 62
7
 10
-280.5
 20
356.978700299956
 30
0
 11
-246.25
 21
356.978700299956
 31
0
  0
LINE
  8
1
 62
7
 10
-325.85
 20
288.2756387566758
 30
0
 11
-324.25
 21
288.2756387566758
 31
0
  0
LINE
  8
1
 62
7
 10
-325.85
 20
250.6817618432362
 30
0
 11
-325.85
 21
288.2756387566758
 31
0
  0
LINE
  8
1
 62
7
 10
-265.5
 20
343.478700299956
 30
0
 11
-265.5
 21
330.478700299956
 31
0
  0
LINE
  8
1
 62
7
 10
-276.5
 20
330.478700299956
 30
0
 11
-276.5
 21
343.478700299956
 31
0
  0
LINE
  8
1
 62
3
  6
DASHDOT
 10
-271
 20
349.3084493091423
 30
0
 11
-271
 21
324.6489512907698
 31
0
  0
LINE
  8
1
 62
3
  6
DASHDOT
 10
-278.9508786351393
 20
336.978700299956
 30
0
 11
-263.1388638615973
 21
336.978700299956
 31
0
  0
LINE
  8
1
 62
3
 10
-379
 20
269.478700299956
 30
0
 11
-383.5688779078224
 21
269.478700299956
 31
0
  0
LINE
  8
1
 62
7
 10
-101.5
 20
-94
 30
0
 11
-132.75
 21
-94
 31
0
  0
LINE
  8
1
 62
7
 10
-118.75
 20
-52
 30
0
 11
-59.75
 21
-52
 31
0
  0
LINE
  8
1
 62
7
 10
-118.75
 20
-52
 30
0
 11
-59.75
 21
-52
 31
0
  0
LINE
  8
1
 62
7
 10
-133.75
 20
-70
 30
0
 11
-122.75
 21
-70
 31
0
  0
LINE
  8
1
 62
7
 10
-135.75
 20
90
 30
0
 11
-135.75
 21
-91
 31
0
  0
LINE
  8
1
 62
7
 10
-98.5
 20
221.6495384356902
 30
0
 11
-98.5
 21
184.978700299956
 31
0
  0
LINE
  8
1
 62
7
 10
-122.75
 20
199.478700299956
 30
0
 11
-133.75
 21
199.478700299956
 31
0
  0
LINE
  8
1
 62
7
 10
-59.75
 20
231.978700299956
 30
0
 11
-118.75
 21
231.978700299956
 31
0
  0
LINE
  8
1
 62
7
 10
-57.75
 20
304.9787002999561
 30
0
 11
-57.75
 21
233.978700299956
 31
0
  0
LINE
  8
1
 62
7
 10
-62.00098426722491
 20
266.478700299956
 30
0
 11
-118.7779734056335
 21
266.478700299956
 31
0
  0
LINE
  8
1
 62
7
 10
-56.05000000000001
 20
254.4787002999559
 30
0
 11
-53
 21
254.478700299956
 31
0
  0
LINE
  8
1
 62
7
 10
-53
 20
257.478700299956
 30
0
 11
-3.5
 21
257.478700299956
 31
0
  0
LINE
  8
1
 62
7
 10
-3
 20
257.978700299956
 30
0
 11
-3.5
 21
257.478700299956
 31
0
  0
LINE
  8
1
 62
7
 10
-3
 20
265.978700299956
 30
0
 11
-39.5
 21
265.978700299956
 31
0
  0
LINE
  8
1
 62
7
 10
-120.75
 20
264.8120336332893
 30
0
 11
-120.75
 21
201.478700299956
 31
0
  0
LINE
  8
1
 62
7
 10
-137.75
 20
177.478700299956
 30
0
 11
-244.25
 21
177.478700299956
 31
0
  0
LINE
  8
1
 62
7
 10
-3.5
 20
265.978700299956
 30
0
 11
-3.5
 21
257.478700299956
 31
0
  0
LINE
  8
1
 62
7
 10
-244.25
 20
92
 30
0
 11
-137.75
 21
92
 31
0
  0
LINE
  8
1
 62
7
 10
-98.5
 20
-112
 30
0
 11
-98.5
 21
-97
 31
0
  0
LINE
  8
1
 62
7
 10
-146
 20
-112
 30
0
 11
-98.5
 21
-112
 31
0
  0
LINE
  8
1
 62
7
 10
-234
 20
-109
 30
0
 11
-148
 21
-109
 31
0
  0
LINE
  8
1
 62
7
 10
-122.75
 20
70
 30
0
 11
-133.75
 21
70
 31
0
  0
LINE
  8
1
 62
7
 10
-59.75
 20
37.5
 30
0
 11
-118.75
 21
37.5
 31
0
  0
LINE
  8
1
 62
7
 10
-135.75
 20
90
 30
0
 11
-135.75
 21
58.41574841508899
 31
0
  0
LINE
  8
1
 62
7
 10
-57.75
 20
16.75000000000009
 30
0
 11
-56.05000000000001
 21
16.75000000000009
 31
0
  0
LINE
  8
1
 62
7
 10
-56.05000000000001
 20
-16.75000000000008
 30
0
 11
-57.75
 21
-16.75000000000007
 31
0
  0
LINE
  8
1
 62
7
 10
-53
 20
15
 30
0
 11
-55.94999999999999
 21
15
 31
0
  0
LINE
  8
1
 62
7
 10
-55.94999999999999
 20
-15
 30
0
 11
-53
 21
-14.99999999999999
 31
0
  0
LINE
  8
1
 62
7
 10
-53
 20
-14.99999999999999
 30
0
 11
-53
 21
15
 31
0
  0
LINE
  8
1
 62
7
 10
-43
 20
12
 30
0
 11
-53
 21
12
 31
0
  0
LINE
  8
1
 62
7
 10
-43
 20
15
 30
0
 11
-43
 21
12
 31
0
  0
LINE
  8
1
 62
7
 10
-3
 20
15
 30
0
 11
-43
 21
15
 31
0
  0
LINE
  8
1
 62
7
 10
-53
 20
-12
 30
0
 11
-3.5
 21
-12
 31
0
  0
LINE
  8
1
 62
7
 10
-57.75
 20
-50.00000000000001
 30
0
 11
-57.75
 21
35.5
 31
0
  0
LINE
  8
1
 62
7
 10
-41
 20
11.62347538297979
 30
0
 11
-3.5
 21
11.62347538297979
 31
0
  0
LINE
  8
1
 62
7
 10
-120.75
 20
68
 30
0
 11
-59.75
 21
37.5
 31
0
  0
LINE
  8
1
 62
7
 10
-120.75
 20
-68
 30
0
 11
-120.75
 21
68
 31
0
  0
LINE
  8
1
 62
7
 10
-60.4319284582121
 20
-14.66292839209649
 30
0
 11
-116.75
 21
-14.66292839209649
 31
0
  0
LINE
  8
1
 62
7
 10
-119.3048137645494
 20
-33.59488753514309
 30
0
 11
-61.0274068822747
 21
-18.49586740289227
 31
0
  0
LINE
  8
1
 62
7
 10
-61.19518623545059
 20
-15.08021025797716
 30
0
 11
-118.1951862354506
 21
-29.81039299456999
 31
0
  0
LINE
  8
1
 62
7
 10
-212
 20
-39.5
 30
0
 11
-170
 21
-39.5
 31
0
  0
LINE
  8
1
 62
7
 10
-170
 20
-64.5
 30
0
 11
-212
 21
-64.5
 31
0
  0
LINE
  8
1
 62
7
 10
-168
 20
-41.5
 30
0
 11
-168
 21
-62.5
 31
0
  0
LINE
  8
1
 62
3
 10
-174.8162446581088
 20
-44.55705309042925
 30
0
 11
-172.1837553418912
 21
-46.07692150578631
 31
0
  0
LINE
  8
1
 62
3
 10
-172.6837553418912
 20
-46.94294690957075
 30
0
 11
-175.3162446581088
 21
-45.42307849421368
 31
0
  0
LINE
  8
1
 62
7
 10
-170.625
 20
-26
 30
0
 11
-170.625
 21
-39.5
 31
0
  0
LINE
  8
1
 62
7
 10
-153.5
 20
-23
 30
0
 11
-167.625
 21
-23
 31
0
  0
LINE
  8
1
 62
7
 10
-172.625
 20
-39.5
 30
0
 11
-172.625
 21
-26
 31
0
  0
LINE
  8
1
 62
7
 10
-187.375
 20
-39.5
 30
0
 11
-187.375
 21
-26
 31
0
  0
LINE
  8
1
 62
7
 10
-185.375
 20
-26
 30
0
 11
-185.375
 21
-39.5
 31
0
  0
LINE
  8
1
 62
7
 10
-153.5
 20
-21
 30
0
 11
-182.375
 21
-21
 31
0
  0
LINE
  8
1
 62
7
 10
-171.625
 20
-23
 30
0
 11
-182.375
 21
-23
 31
0
  0
LINE
  8
1
 62
7
 10
-158.5
 20
-20.75
 30
0
 11
-153.5
 21
-20.75
 31
0
  0
LINE
  8
1
 62
7
 10
-158.5
 20
-23.25
 30
0
 11
-153.5
 21
-23.25
 31
0
  0
LINE
  8
1
 62
7
 10
-3
 20
-11.5
 30
0
 11
-3.5
 21
-12
 31
0
  0
LINE
  8
1
 62
7
 10
-3
 20
15
 30
0
 11
-3
 21
-11.5
 31
0
  0
LINE
  8
1
 62
7
 10
-3.5
 20
11.62347538297979
 30
0
 11
-3
 21
11.12347538297979
 31
0
  0
LINE
  8
1
 62
7
 10
-3.5
 20
11.62347538297979
 30
0
 11
-3.5
 21
-12
 31
0
  0
LINE
  8
1
 62
7
 10
-158.0005230476021
 20
163.978700299956
 30
0
 11
-158.0005230476021
 21
177.478700299956
 31
0
  0
LINE
  8
1
 62
7
 10
-56.05000000000001
 20
-16.75000000000008
 30
0
 11
-56.05000000000001
 21
16.75000000000009
 31
0
  0
LINE
  8
1
 62
7
 10
-134.25
 20
55.06854249492381
 30
0
 11
-135.75
 21
56.56854249492381
 31
0
  0
LINE
  8
1
 62
7
 10
-134.25
 20
56.56854249492381
 30
0
 11
-135.75
 21
58.06854249492381
 31
0
  0
LINE
  8
1
 62
7
 10
-134.25
 20
50.46854249492381
 30
0
 11
-135.75
 21
50.4685424949238
 31
0
  0
LINE
  8
1
 62
7
 10
-134.25
 20
62.6685424949238
 30
0
 11
-134.25
 21
50.46854249492381
 31
0
  0
LINE
  8
1
 62
7
 10
-135.75
 20
62.6685424949238
 30
0
 11
-134.25
 21
62.6685424949238
 31
0
  0
LINE
  8
1
 62
7
 10
-128.65
 20
51.56854249492381
 30
0
 11
-134.25
 21
51.56854249492381
 31
0
  0
LINE
  8
1
 62
7
 10
-128.25
 20
52.26136281795137
 30
0
 11
-128.65
 21
51.56854249492381
 31
0
  0
LINE
  8
1
 62
7
 10
-128.25
 20
60.87572217189627
 30
0
 11
-128.25
 21
52.26136281795137
 31
0
  0
LINE
  8
1
 62
7
 10
-128.65
 20
61.56854249492381
 30
0
 11
-128.25
 21
60.87572217189627
 31
0
  0
LINE
  8
1
 62
7
 10
-134.25
 20
61.56854249492381
 30
0
 11
-128.65
 21
61.56854249492381
 31
0
  0
LINE
  8
1
 62
7
 10
-128.65
 20
61.56854249492381
 30
0
 11
-128.65
 21
51.56854249492381
 31
0
  0
LINE
  8
1
 62
7
 10
-135.75
 20
-56.56854249492376
 30
0
 11
-134.25
 21
-55.06854249492376
 31
0
  0
LINE
  8
1
 62
7
 10
-135.75
 20
-58.06854249492376
 30
0
 11
-134.25
 21
-56.56854249492376
 31
0
  0
LINE
  8
1
 62
7
 10
-135.75
 20
-50.46854249492376
 30
0
 11
-134.25
 21
-50.46854249492377
 31
0
  0
LINE
  8
1
 62
7
 10
-134.25
 20
-50.46854249492377
 30
0
 11
-134.25
 21
-62.66854249492377
 31
0
  0
LINE
  8
1
 62
7
 10
-134.25
 20
-62.66854249492377
 30
0
 11
-135.75
 21
-62.66854249492377
 31
0
  0
LINE
  8
1
 62
7
 10
-134.25
 20
-51.56854249492376
 30
0
 11
-128.65
 21
-51.56854249492377
 31
0
  0
LINE
  8
1
 62
7
 10
-128.65
 20
-51.56854249492377
 30
0
 11
-128.25
 21
-52.26136281795132
 31
0
  0
LINE
  8
1
 62
7
 10
-128.25
 20
-52.26136281795132
 30
0
 11
-128.25
 21
-60.87572217189621
 31
0
  0
LINE
  8
1
 62
7
 10
-128.25
 20
-60.87572217189621
 30
0
 11
-128.65
 21
-61.56854249492378
 31
0
  0
LINE
  8
1
 62
7
 10
-128.65
 20
-61.56854249492378
 30
0
 11
-134.25
 21
-61.56854249492376
 31
0
  0
LINE
  8
1
 62
7
 10
-128.65
 20
-51.56854249492377
 30
0
 11
-128.65
 21
-61.56854249492378
 31
0
  0
LINE
  8
1
 62
7
 10
-223.9994769523979
 20
163.978700299956
 30
0
 11
-158.0005230476021
 21
163.978700299956
 31
0
  0
LINE
  8
1
 62
7
 10
-146
 20
-112
 30
0
 11
-146
 21
-111
 31
0
  0
LINE
  8
1
 62
7
  6
DASHED
 10
-19.80000000000013
 20
2.4
 30
0
 11
-3
 21
2.4
 31
0
  0
LINE
  8
1
 62
7
  6
DASHED
 10
-19.80000000000013
 20
-2.400000000000002
 30
0
 11
-19.80000000000013
 21
2.4
 31
0
  0
LINE
  8
1
 62
7
  6
DASHED
 10
-3
 20
-2.400000000000002
 30
0
 11
-19.80000000000013
 21
-2.400000000000002
 31
0
  0
LINE
  8
1
 62
7
  6
DASHED
 10
-21.53205080756891
 20
0
 30
0
 11
-19.80000000000013
 21
2.4
 31
0
  0
LINE
  8
1
 62
7
  6
DASHED
 10
-19.80000000000013
 20
-2.400000000000002
 30
0
 11
-21.53205080756891
 21
0
 31
0
  0
LINE
  8
1
 62
3
  6
DASHED
 10
-15
 20
3
 30
0
 11
-3
 21
3
 31
0
  0
LINE
  8
1
 62
3
  6
DASHED
 10
-15
 20
-3.000000000000002
 30
0
 11
-15
 21
3
 31
0
  0
LINE
  8
1
 62
3
  6
DASHED
 10
-3
 20
-3.000000000000002
 30
0
 11
-15
 21
-3.000000000000002
 31
0
  0
LINE
  8
1
 62
3
  6
DASHED
 10
-16.03923048454141
 20
2.4
 30
0
 11
-15
 21
3
 31
0
  0
LINE
  8
1
 62
3
  6
DASHED
 10
-16.03923048454141
 20
-2.400000000000002
 30
0
 11
-15
 21
-3.000000000000002
 31
0
  0
LINE
  8
1
 62
3
  6
DASHDOT
 10
-25.38564064605509
 20
0
 30
0
 11
0
 21
0
 31
0
  0
LINE
  8
1
 62
7
 10
-180.5
 20
-59.5
 30
0
 11
-180.5
 21
-44.5
 31
0
  0
LINE
  8
1
 62
7
 10
-178.5
 20
-44.5
 30
0
 11
-178.5
 21
-59.5
 31
0
  0
LINE
  8
1
 62
3
 10
-186.8162446581088
 20
-46.07692150578631
 30
0
 11
-184.1837553418912
 21
-44.55705309042925
 31
0
  0
LINE
  8
1
 62
3
 10
-183.6837553418912
 20
-45.42307849421368
 30
0
 11
-186.3162446581088
 21
-46.94294690957075
 31
0
  0
LINE
  8
1
 62
3
 10
-184.1837553418912
 20
-59.44294690957075
 30
0
 11
-186.8162446581088
 21
-57.92307849421368
 31
0
  0
LINE
  8
1
 62
3
 10
-186.3162446581088
 20
-57.05705309042925
 30
0
 11
-183.6837553418912
 21
-58.57692150578632
 31
0
  0
LINE
  8
1
 62
3
 10
-172.1837553418912
 20
-57.92307849421368
 30
0
 11
-174.8162446581088
 21
-59.44294690957075
 31
0
  0
LINE
  8
1
 62
3
 10
-175.3162446581088
 20
-58.57692150578632
 30
0
 11
-172.6837553418912
 21
-57.05705309042925
 31
0
  0
LINE
  8
1
 62
7
 10
-168
 20
-41.5
 30
0
 11
-158.8275862068966
 21
-49.93103448275862
 31
0
  0
LINE
  8
1
 62
7
 10
-168
 20
-62.5
 30
0
 11
-158.8275862068966
 21
-54.06896551724138
 31
0
  0
LINE
  8
1
 62
7
 10
-190
 20
-55.48060076922076
 30
0
 11
-190
 21
-59.5
 31
0
  0
LINE
  8
1
 62
7
 10
-135.75
 20
212.9101578050322
 30
0
 11
-134.25
 21
214.4101578050322
 31
0
  0
LINE
  8
1
 62
7
 10
-135.75
 20
211.4101578050322
 30
0
 11
-134.25
 21
212.9101578050322
 31
0
  0
LINE
  8
1
 62
7
 10
-135.75
 20
219.0101578050322
 30
0
 11
-134.25
 21
219.0101578050322
 31
0
  0
LINE
  8
1
 62
7
 10
-134.25
 20
219.0101578050322
 30
0
 11
-134.25
 21
206.8101578050322
 31
0
  0
LINE
  8
1
 62
7
 10
-134.25
 20
206.8101578050322
 30
0
 11
-135.75
 21
206.8101578050322
 31
0
  0
LINE
  8
1
 62
7
 10
-134.25
 20
217.9101578050322
 30
0
 11
-128.6500000000001
 21
217.9101578050322
 31
0
  0
LINE
  8
1
 62
7
 10
-128.6500000000001
 20
217.9101578050322
 30
0
 11
-128.25
 21
217.2173374820046
 31
0
  0
LINE
  8
1
 62
7
 10
-128.25
 20
217.2173374820046
 30
0
 11
-128.25
 21
208.6029781280597
 31
0
  0
LINE
  8
1
 62
7
 10
-128.25
 20
208.6029781280597
 30
0
 11
-128.6500000000001
 21
207.9101578050322
 31
0
  0
LINE
  8
1
 62
7
 10
-128.6500000000001
 20
207.9101578050322
 30
0
 11
-134.25
 21
207.9101578050322
 31
0
  0
LINE
  8
1
 62
7
 10
-128.6500000000001
 20
217.9101578050322
 30
0
 11
-128.6500000000001
 21
207.9101578050322
 31
0
  0
LINE
  8
1
 62
7
 10
-164.75
 20
-51.7375
 30
0
 11
-164.75
 21
-52.2625
 31
0
  0
LINE
  8
1
 62
7
 10
-162.7375
 20
-50.25
 30
0
 11
-163.2625
 21
-50.25
 31
0
  0
LINE
  8
1
 62
7
 10
-161.25
 20
-52.2625
 30
0
 11
-161.25
 21
-51.7375
 31
0
  0
LINE
  8
1
 62
7
 10
-163.2625
 20
-53.75
 30
0
 11
-162.7375
 21
-53.75
 31
0
  0
LINE
  8
1
 62
7
 10
-190
 20
-44.5
 30
0
 11
-190
 21
-48.51939923077924
 31
0
  0
LINE
  8
1
 62
3
  6
DASHDOT
 10
-111
 20
-117.734907071947
 30
0
 11
-111
 21
-88.9521085078687
 31
0
  0
LINE
  8
1
 62
7
 10
-119.3048137645494
 20
214.5773946034143
 30
0
 11
-68.11369932138689
 21
231.978700299956
 31
0
  0
LINE
  8
1
 62
7
 10
-101.5
 20
181.978700299956
 30
0
 11
-135.75
 21
181.978700299956
 31
0
  0
LINE
  8
1
 62
7
 10
-56.14999999999998
 20
250.6817618432362
 30
0
 11
-57.75
 21
250.6817618432362
 31
0
  0
LINE
  8
1
 62
7
 10
-116.5
 20
195.478700299956
 30
0
 11
-116.5
 21
208.478700299956
 31
0
  0
LINE
  8
1
 62
7
 10
-105.5
 20
208.478700299956
 30
0
 11
-105.5
 21
195.478700299956
 31
0
  0
LINE
  8
1
 62
3
  6
DASHDOT
 10
-111
 20
189.6489512907697
 30
0
 11
-111
 21
214.3084493091422
 31
0
  0
LINE
  8
1
 62
3
  6
DASHDOT
 10
-103.0491213648607
 20
201.978700299956
 30
0
 11
-118.8611361384027
 21
201.978700299956
 31
0
  0
LINE
  8
1
 62
7
 10
-98.5
 20
353.978700299956
 30
0
 11
-98.5
 21
317.3078621642218
 31
0
  0
LINE
  8
1
 62
7
 10
-133.75
 20
339.478700299956
 30
0
 11
-122.75
 21
339.478700299956
 31
0
  0
LINE
  8
1
 62
7
 10
-118.75
 20
306.978700299956
 30
0
 11
-59.75
 21
306.978700299956
 31
0
  0
LINE
  8
1
 62
7
 10
-118.7779734056335
 20
272.478700299956
 30
0
 11
-62.00098426722491
 21
272.478700299956
 31
0
  0
LINE
  8
1
 62
7
 10
-53
 20
284.478700299956
 30
0
 11
-56.05000000000001
 21
284.4787002999561
 31
0
  0
LINE
  8
1
 62
7
 10
-53
 20
254.478700299956
 30
0
 11
-53
 21
284.478700299956
 31
0
  0
LINE
  8
1
 62
7
 10
-3.5
 20
281.478700299956
 30
0
 11
-53
 21
281.478700299956
 31
0
  0
LINE
  8
1
 62
7
 10
-3.5
 20
281.478700299956
 30
0
 11
-3
 21
280.978700299956
 31
0
  0
LINE
  8
1
 62
7
 10
-39.5
 20
272.978700299956
 30
0
 11
-3
 21
272.978700299956
 31
0
  0
LINE
  8
1
 62
7
 10
-135.75
 20
179.478700299956
 30
0
 11
-135.75
 21
359.478700299956
 31
0
  0
LINE
  8
1
 62
7
 10
-3
 20
280.978700299956
 30
0
 11
-3
 21
257.978700299956
 31
0
  0
LINE
  8
1
 62
7
 10
-120.75
 20
337.478700299956
 30
0
 11
-120.75
 21
274.1453669666227
 31
0
  0
LINE
  8
1
 62
7
 10
-244.25
 20
361.478700299956
 30
0
 11
-137.75
 21
361.478700299956
 31
0
  0
LINE
  8
1
 62
7
 10
-3.5
 20
281.478700299956
 30
0
 11
-3.5
 21
272.978700299956
 31
0
  0
LINE
  8
1
 62
7
 10
-134.25
 20
324.5472427948798
 30
0
 11
-135.75
 21
326.0472427948798
 31
0
  0
LINE
  8
1
 62
7
 10
-134.25
 20
326.0472427948798
 30
0
 11
-135.75
 21
327.5472427948798
 31
0
  0
LINE
  8
1
 62
7
 10
-134.25
 20
319.9472427948798
 30
0
 11
-135.75
 21
319.9472427948798
 31
0
  0
LINE
  8
1
 62
7
 10
-134.25
 20
332.1472427948798
 30
0
 11
-134.25
 21
319.9472427948798
 31
0
  0
LINE
  8
1
 62
7
 10
-135.75
 20
332.1472427948798
 30
0
 11
-134.25
 21
332.1472427948798
 31
0
  0
LINE
  8
1
 62
7
 10
-128.6500000000001
 20
321.0472427948798
 30
0
 11
-134.25
 21
321.0472427948798
 31
0
  0
LINE
  8
1
 62
7
 10
-128.25
 20
321.7400631179074
 30
0
 11
-128.6500000000001
 21
321.0472427948798
 31
0
  0
LINE
  8
1
 62
7
 10
-128.25
 20
330.3544224718523
 30
0
 11
-128.25
 21
321.7400631179074
 31
0
  0
LINE
  8
1
 62
7
 10
-128.6500000000001
 20
331.0472427948798
 30
0
 11
-128.25
 21
330.3544224718523
 31
0
  0
LINE
  8
1
 62
7
 10
-134.25
 20
331.0472427948798
 30
0
 11
-128.6500000000001
 21
331.0472427948798
 31
0
  0
LINE
  8
1
 62
7
 10
-128.6500000000001
 20
331.0472427948798
 30
0
 11
-128.6500000000001
 21
321.0472427948798
 31
0
  0
LINE
  8
1
 62
7
 10
-68.11369932138689
 20
306.978700299956
 30
0
 11
-119.3048137645494
 21
324.3800059964977
 31
0
  0
LINE
  8
1
 62
7
 10
-135.75
 20
356.978700299956
 30
0
 11
-101.5
 21
356.978700299956
 31
0
  0
LINE
  8
1
 62
7
 10
-57.75
 20
288.2756387566758
 30
0
 11
-56.14999999999998
 21
288.2756387566758
 31
0
  0
LINE
  8
1
 62
7
 10
-56.14999999999998
 20
288.2756387566758
 30
0
 11
-56.14999999999998
 21
250.6817618432362
 31
0
  0
LINE
  8
1
 62
7
 10
-116.5
 20
330.478700299956
 30
0
 11
-116.5
 21
343.478700299956
 31
0
  0
LINE
  8
1
 62
7
 10
-105.5
 20
343.478700299956
 30
0
 11
-105.5
 21
330.478700299956
 31
0
  0
LINE
  8
1
 62
3
  6
DASHDOT
 10
-111
 20
324.6489512907698
 30
0
 11
-111
 21
349.3084493091423
 31
0
  0
LINE
  8
1
 62
3
  6
DASHDOT
 10
-118.8611361384027
 20
336.978700299956
 30
0
 11
-103.0491213648607
 21
336.978700299956
 31
0
  0
LINE
  8
1
 62
3
 10
1.568877907822412
 20
269.478700299956
 30
0
 11
-3
 21
269.478700299956
 31
0
  0
ARC
  8
1
 62
7
 10
-228.5
 20
-22
 30
0
 40
1
 50
90
 51
270
  0
ARC
  8
1
 62
7
 10
-226
 20
-22
 30
0
 40
5.000000000000043
 50
11.53695903281539
 51
348.4630409671846
  0
ARC
  8
1
 62
7
 10
-228.5
 20
-22
 30
0
 40
1.25
 50
90
 51
270
  0
ARC
  8
1
 62
7
 10
-223.5
 20
-22
 30
0
 40
1.25
 50
53.13010235415598
 51
90
  0
ARC
  8
1
 62
7
 10
-223.5
 20
-22
 30
0
 40
1.25
 50
270
 51
306.8698976458441
  0
ARC
  8
1
 62
7
 10
-217.25
 20
-53.75
 30
0
 40
1.487499999999997
 50
90
 51
180
  0
ARC
  8
1
 62
7
 10
-217.25
 20
-50.25
 30
0
 40
1.487500000000011
 50
180
 51
270
  0
ARC
  8
1
 62
7
 10
-220.75
 20
-50.25
 30
0
 40
1.487499999999997
 50
270
 51
0
  0
ARC
  8
1
 62
7
 10
-220.75
 20
-53.75
 30
0
 40
1.487500000000011
 50
0
 51
90
  0
ARC
  8
1
 62
7
 10
-191
 20
-52
 30
0
 40
3.621406041125481
 50
106.0297142583966
 51
253.9702857416035
  0
ARC
  8
1
 62
7
 10
141.5816762154457
 20
-52
 30
0
 40
7.000000000000025
 50
163.042236699996
 51
196.957763300004
  0
ARC
  8
1
 62
7
 10
230.7816762154456
 20
0
 30
0
 40
12.00000000000001
 50
106.9577633000041
 51
73.04223669999587
  0
ARC
  8
1
 62
7
 10
230.7816762154456
 20
0.9625000000000004
 30
0
 40
16.83750000000001
 50
300.2713464848801
 51
239.7286535151199
  0
ARC
  8
1
 62
7
 10
230.7816762154456
 20
0
 30
0
 40
15
 50
103.4933988215517
 51
76.50660117844831
  0
ARC
  8
1
 62
7
 10
-153.5
 20
-22
 30
0
 40
1
 50
270
 51
90
  0
ARC
  8
1
 62
7
 10
-156
 20
-22
 30
0
 40
5.000000000000043
 50
191.5369590328154
 51
168.4630409671846
  0
ARC
  8
1
 62
7
 10
-153.5
 20
-22
 30
0
 40
1.25
 50
270
 51
90
  0
ARC
  8
1
 62
7
 10
-158.5
 20
-22
 30
0
 40
1.25
 50
90
 51
126.869897645844
  0
ARC
  8
1
 62
7
 10
-158.5
 20
-22
 30
0
 40
1.25
 50
233.130102354156
 51
270
  0
ARC
  8
1
 62
7
 10
-164.75
 20
-53.75
 30
0
 40
1.487500000000011
 50
0
 51
90
  0
ARC
  8
1
 62
7
 10
-164.75
 20
-50.25
 30
0
 40
1.487499999999997
 50
270
 51
0
  0
ARC
  8
1
 62
7
 10
-161.25
 20
-50.25
 30
0
 40
1.487500000000011
 50
180
 51
270
  0
ARC
  8
1
 62
7
 10
-161.25
 20
-53.75
 30
0
 40
1.487499999999997
 50
90
 51
180
  0
ARC
  8
1
 62
7
 10
-191
 20
-52
 30
0
 40
3.621406041125481
 50
286.0297142583965
 51
73.97028574160346
  0
ARC
  8
1
 62
7
 10
237.7816762154457
 20
40.86907910409819
 30
0
 40
4
 50
180
 51
258.6401891674871
  0
ARC
  8
1
 62
7
 10
237.7816762154457
 20
63.8812793625461
 30
0
 40
3.999999999999993
 50
90
 51
180
  0
ARC
  8
1
 62
7
 10
223.7816762154456
 20
40.86907910409819
 30
0
 40
4.00000000000002
 50
281.3598108325153
 51
0
  0
ARC
  8
1
 62
7
 10
-280.5
 20
-97
 30
0
 40
3
 50
90
 51
180
  0
ARC
  8
1
 62
7
 10
-249.25
 20
-91
 30
0
 40
3
 50
270
 51
0
  0
ARC
  8
1
 62
7
 10
-322.2499999999999
 20
-50
 30
0
 40
2
 50
180
 51
270
  0
ARC
  8
1
 62
7
 10
-263.25
 20
-54
 30
0
 40
2
 50
0
 51
90
  0
ARC
  8
1
 62
7
 10
-259.25
 20
-68
 30
0
 40
2
 50
180
 51
270
  0
ARC
  8
1
 62
7
 10
-248.25
 20
-72
 30
0
 40
2
 50
0
 51
90
  0
ARC
  8
1
 62
7
 10
223.7816762154456
 20
63.8812793625461
 30
0
 40
4
 50
0
 51
90
  0
ARC
  8
1
 62
7
 10
-244.25
 20
179.478700299956
 30
0
 40
2
 50
180
 51
270
  0
ARC
  8
1
 62
7
 10
-248.25
 20
197.478700299956
 30
0
 40
2
 50
0
 51
90
  0
ARC
  8
1
 62
7
 10
-259.25
 20
201.478700299956
 30
0
 40
2
 50
180
 51
270
  0
ARC
  8
1
 62
7
 10
-263.25
 20
212.6558895457404
 30
0
 40
2
 50
0
 51
73.89449987642034
  0
ARC
  8
1
 62
7
 10
-263.2220265943665
 20
264.478700299956
 30
0
 40
1.999999999999974
 50
9.594068226858385
 51
90
  0
ARC
  8
1
 62
7
 10
-319.9990157327751
 20
264.478700299956
 30
0
 40
2
 50
90
 51
187.1807557814584
  0
ARC
  8
1
 62
7
 10
-263.25
 20
229.978700299956
 30
0
 40
2
 50
0
 51
90
  0
ARC
  8
1
 62
7
 10
-322.25
 20
233.978700299956
 30
0
 40
2
 50
180
 51
270
  0
ARC
  8
1
 62
7
 10
-234
 20
-111
 30
0
 40
2
 50
90
 51
180
  0
ARC
  8
1
 62
7
 10
-248.25
 20
72
 30
0
 40
2
 50
270
 51
0
  0
ARC
  8
1
 62
7
 10
-263.25
 20
39.5
 30
0
 40
2
 50
270
 51
0
  0
ARC
  8
1
 62
7
 10
-259.25
 20
68
 30
0
 40
2
 50
90
 51
180
  0
ARC
  8
1
 62
7
 10
-322.2499999999999
 20
35.5
 30
0
 40
2
 50
90
 51
180
  0
ARC
  8
1
 62
7
 10
-244.25
 20
90
 30
0
 40
2
 50
90
 51
180
  0
ARC
  8
1
 62
7
 10
-263.25
 20
-35.51639259281703
 30
0
 40
2
 50
0
 51
73.89449987642068
  0
ARC
  8
1
 62
7
 10
-263.25
 20
-27.88888793689605
 30
0
 40
2.000000000000004
 50
253.8944998764206
 51
0
  0
ARC
  8
1
 62
7
 10
-320.2499999999999
 20
-13.15870520030322
 30
0
 40
2
 50
180
 51
253.8944998764176
  0
ARC
  8
1
 62
7
 10
-321.2499999999999
 20
-19.45661993172924
 30
0
 40
0.9999999999999708
 50
73.89449987642695
 51
180
  0
ARC
  8
1
 62
7
 10
-214.375
 20
-26
 30
0
 40
3
 50
0
 51
90
  0
ARC
  8
1
 62
7
 10
-214.375
 20
-26
 30
0
 40
5
 50
0
 51
90
  0
ARC
  8
1
 62
7
 10
-199.625
 20
-26
 30
0
 40
5
 50
0
 51
90
  0
ARC
  8
1
 62
7
 10
-199.625
 20
-26
 30
0
 40
3
 50
0
 51
90
  0
ARC
  8
1
 62
7
 10
316.2816762154456
 20
-96
 30
0
 40
2
 50
0
 51
90
  0
ARC
  8
1
 62
7
 10
275.2816762154456
 20
-96
 30
0
 40
2
 50
90
 51
180
  0
ARC
  8
1
 62
7
 10
271.2816762154456
 20
-111
 30
0
 40
2
 50
0
 51
90
  0
ARC
  8
1
 62
7
 10
137.9982157913128
 20
-26.99232621857686
 30
0
 40
4.999999999999953
 50
92.39941445755721
 51
180
  0
ARC
  8
1
 62
7
 10
138.4769034666042
 20
-26.93039389198579
 30
0
 40
3.000000000000036
 50
93.16602694981974
 51
179.8731982726105
  0
ARC
  8
1
 62
7
 10
130.7687176491339
 20
-38.32640590489795
 30
0
 40
5
 50
0
 51
8.367062884878154
  0
ARC
  8
1
 62
7
 10
133.264931499759
 20
-38.32522050279464
 30
0
 40
5
 50
0
 51
8.340039587214047
  0
ARC
  8
1
 62
7
 10
-202.5
 20
-44.5
 30
0
 40
1
 50
0
 51
180
  0
ARC
  8
1
 62
7
 10
-202.5
 20
-59.5
 30
0
 40
1
 50
180
 51
0
  0
ARC
  8
1
 62
7
 10
-212
 20
-41.5
 30
0
 40
2
 50
90
 51
180
  0
ARC
  8
1
 62
7
 10
-212
 20
-62.5
 30
0
 40
2
 50
180
 51
270
  0
ARC
  8
1
 62
7
 10
-221
 20
-52
 30
0
 40
2.999999999999968
 50
136.3971810272957
 51
223.6028189727043
  0
ARC
  8
1
 62
7
 10
-280.5
 20
184.978700299956
 30
0
 40
3
 50
180
 51
270
  0
ARC
  8
1
 62
7
 10
135.8425560738211
 20
-50.25
 30
0
 40
1
 50
90
 51
163.0422366999952
  0
ARC
  8
1
 62
7
 10
135.8425560738211
 20
-53.75
 30
0
 40
0.9999999999999314
 50
196.9577633000048
 51
270
  0
ARC
  8
1
 62
7
 10
136.2816762154456
 20
-49.55
 30
0
 40
0.3000000000000966
 50
0
 51
90
  0
ARC
  8
1
 62
7
 10
136.2816762154456
 20
-54.45
 30
0
 40
0.2999999999999972
 50
270
 51
0
  0
ARC
  8
1
 62
7
 10
135.2816762154456
 20
-48.9935153251839
 30
0
 40
2
 50
0
 51
90
  0
ARC
  8
1
 62
7
 10
135.2816762154456
 20
-55.00648467481611
 30
0
 40
2
 50
270
 51
0
  0
ARC
  8
1
 62
7
 10
235.7816762154456
 20
-16.79693845669907
 30
0
 40
2
 50
270
 51
0
  0
ARC
  8
1
 62
7
 10
225.7816762154456
 20
-16.79693845669907
 30
0
 40
2
 50
180
 51
270
  0
ARC
  8
1
 62
7
 10
240.7816762154456
 20
-16.17011235918212
 30
0
 40
2.99999999999999
 50
120.2713464848807
 51
180
  0
ARC
  8
1
 62
7
 10
220.7816762154456
 20
-16.17011235918212
 30
0
 40
3
 50
0
 51
59.72865351511955
  0
ARC
  8
1
 62
7
 10
191.8880154820207
 20
-14.37236172555793
 30
0
 40
4.000000000000005
 50
299.9999999999999
 51
18.64018916748545
  0
ARC
  8
1
 62
7
 10
171.9588654612301
 20
-25.87846185478188
 30
0
 40
4.000000000000033
 50
209.9999999999997
 51
299.9999999999999
  0
ARC
  8
1
 62
7
 10
198.8880154820208
 20
-26.49671737854017
 30
0
 40
4.000000000000049
 50
41.35981083251338
 51
120
  0
ARC
  8
1
 62
7
 10
178.9588654612301
 20
-38.00281750776414
 30
0
 40
4.000000000000014
 50
119.9999999999999
 51
209.9999999999996
  0
ARC
  8
1
 62
7
 10
262.6753369488704
 20
-26.49671737854035
 30
0
 40
3.999999999999996
 50
59.99999999999997
 51
138.6401891674872
  0
ARC
  8
1
 62
7
 10
282.604486969661
 20
-38.00281750776433
 30
0
 40
4.000000000000033
 50
330.0000000000002
 51
60.00000000000002
  0
ARC
  8
1
 62
7
 10
269.6753369488704
 20
-14.37236172555812
 30
0
 40
3.999999999999963
 50
161.3598108325139
 51
240
  0
ARC
  8
1
 62
7
 10
289.6044869696611
 20
-25.87846185478209
 30
0
 40
3.999999999999996
 50
240
 51
329.9999999999998
  0
ARC
  8
1
 62
7
 10
145.2816762154456
 20
-96
 30
0
 40
2
 50
90
 51
180
  0
ARC
  8
1
 62
7
 10
186.2816762154456
 20
-96
 30
0
 40
2
 50
0
 51
90
  0
ARC
  8
1
 62
7
 10
190.2816762154456
 20
-111
 30
0
 40
2
 50
90
 51
180
  0
ARC
  8
1
 62
7
 10
-271
 20
208.478700299956
 30
0
 40
5.5
 50
0
 51
180
  0
ARC
  8
1
 62
7
 10
-271
 20
195.478700299956
 30
0
 40
5.5
 50
180
 51
0
  0
ARC
  8
1
 62
7
 10
-244.25
 20
359.478700299956
 30
0
 40
2
 50
90
 51
180
  0
ARC
  8
1
 62
7
 10
-248.25
 20
341.478700299956
 30
0
 40
2
 50
270
 51
0
  0
ARC
  8
1
 62
7
 10
-259.25
 20
337.478700299956
 30
0
 40
2
 50
90
 51
180
  0
ARC
  8
1
 62
7
 10
-263.25
 20
326.3015110541716
 30
0
 40
1.999999999999991
 50
286.1055001235794
 51
0
  0
ARC
  8
1
 62
7
 10
-263.2220265943665
 20
274.478700299956
 30
0
 40
2
 50
270
 51
350.40593177314
  0
ARC
  8
1
 62
7
 10
-319.9990157327751
 20
274.478700299956
 30
0
 40
2.000000000000092
 50
172.8192442185421
 51
270
  0
ARC
  8
1
 62
7
 10
-263.25
 20
308.978700299956
 30
0
 40
2
 50
270
 51
0
  0
ARC
  8
1
 62
7
 10
-322.25
 20
304.9787002999561
 30
0
 40
1.999999999999943
 50
90
 51
180
  0
ARC
  8
1
 62
7
 10
-280.5
 20
353.978700299956
 30
0
 40
3
 50
90
 51
180
  0
ARC
  8
1
 62
7
 10
-342.5
 20
269.478700299956
 30
0
 40
3.5
 50
270
 51
90
  0
ARC
  8
1
 62
7
 10
-271
 20
330.478700299956
 30
0
 40
5.5
 50
180
 51
0
  0
ARC
  8
1
 62
7
 10
-271
 20
343.478700299956
 30
0
 40
5.5
 50
0
 51
180
  0
ARC
  8
1
 62
7
 10
-101.5
 20
-97
 30
0
 40
3
 50
0
 51
90
  0
ARC
  8
1
 62
7
 10
-132.75
 20
-91
 30
0
 40
3
 50
180
 51
270
  0
ARC
  8
1
 62
7
 10
-59.75
 20
-50
 30
0
 40
2
 50
270
 51
0
  0
ARC
  8
1
 62
7
 10
-118.75
 20
-54
 30
0
 40
2
 50
90
 51
180
  0
ARC
  8
1
 62
7
 10
-122.75
 20
-68
 30
0
 40
2
 50
270
 51
0
  0
ARC
  8
1
 62
7
 10
-133.75
 20
-72
 30
0
 40
2
 50
90
 51
180
  0
ARC
  8
1
 62
7
 10
-137.75
 20
179.478700299956
 30
0
 40
2
 50
270
 51
0
  0
ARC
  8
1
 62
7
 10
-133.75
 20
197.478700299956
 30
0
 40
2
 50
90
 51
180
  0
ARC
  8
1
 62
7
 10
-122.75
 20
201.478700299956
 30
0
 40
2
 50
270
 51
0
  0
ARC
  8
1
 62
7
 10
-118.75
 20
212.6558895457404
 30
0
 40
1.99999999999996
 50
106.1055001235793
 51
180
  0
ARC
  8
1
 62
7
 10
-118.7779734056335
 20
264.478700299956
 30
0
 40
2
 50
90
 51
170.4059317731415
  0
ARC
  8
1
 62
7
 10
-62.00098426722491
 20
264.478700299956
 30
0
 40
2.000000000000092
 50
352.8192442185421
 51
90
  0
ARC
  8
1
 62
7
 10
-118.75
 20
229.978700299956
 30
0
 40
2
 50
90
 51
180
  0
ARC
  8
1
 62
7
 10
-59.75
 20
233.978700299956
 30
0
 40
2
 50
270
 51
0
  0
ARC
  8
1
 62
7
 10
-148
 20
-111
 30
0
 40
2
 50
0
 51
90
  0
ARC
  8
1
 62
7
 10
-133.75
 20
72
 30
0
 40
2
 50
180
 51
270
  0
ARC
  8
1
 62
7
 10
-118.75
 20
39.5
 30
0
 40
2
 50
180
 51
270
  0
ARC
  8
1
 62
7
 10
-122.75
 20
68
 30
0
 40
2
 50
0
 51
90
  0
ARC
  8
1
 62
7
 10
-59.75
 20
35.5
 30
0
 40
2
 50
0
 51
90
  0
ARC
  8
1
 62
7
 10
-137.75
 20
90
 30
0
 40
2
 50
0
 51
90
  0
ARC
  8
1
 62
7
 10
-118.75
 20
-35.51639259281703
 30
0
 40
2
 50
106.1055001235789
 51
180
  0
ARC
  8
1
 62
7
 10
-118.75
 20
-27.88888793689605
 30
0
 40
2
 50
180
 51
286.105500123579
  0
ARC
  8
1
 62
7
 10
-61.75
 20
-13.15870520030322
 30
0
 40
2.000000000000004
 50
286.1055001235794
 51
0
  0
ARC
  8
1
 62
7
 10
-60.75
 20
-19.45661993172924
 30
0
 40
1
 50
0
 51
106.1055001235789
  0
ARC
  8
1
 62
7
 10
-167.625
 20
-26
 30
0
 40
3
 50
90
 51
180
  0
ARC
  8
1
 62
7
 10
-167.625
 20
-26
 30
0
 40
5
 50
90
 51
180
  0
ARC
  8
1
 62
7
 10
-182.375
 20
-26
 30
0
 40
5
 50
90
 51
180
  0
ARC
  8
1
 62
7
 10
-182.375
 20
-26
 30
0
 40
3
 50
90
 51
180
  0
ARC
  8
1
 62
7
 10
-179.5
 20
-44.5
 30
0
 40
1
 50
0
 51
180
  0
ARC
  8
1
 62
7
 10
-179.5
 20
-59.5
 30
0
 40
1
 50
180
 51
0
  0
ARC
  8
1
 62
7
 10
-170
 20
-41.5
 30
0
 40
2
 50
0
 51
90
  0
ARC
  8
1
 62
7
 10
-170
 20
-62.5
 30
0
 40
2
 50
270
 51
0
  0
ARC
  8
1
 62
7
 10
-161
 20
-52
 30
0
 40
2.999999999999968
 50
316.3971810272957
 51
43.60281897270425
  0
ARC
  8
1
 62
7
 10
-191
 20
-44.5
 30
0
 40
1
 50
0
 51
180
  0
ARC
  8
1
 62
7
 10
-191
 20
-59.5
 30
0
 40
1
 50
180
 51
0
  0
ARC
  8
1
 62
7
 10
-101.5
 20
184.978700299956
 30
0
 40
3
 50
270
 51
0
  0
ARC
  8
1
 62
7
 10
-111
 20
208.478700299956
 30
0
 40
5.5
 50
0
 51
180
  0
ARC
  8
1
 62
7
 10
-111
 20
195.478700299956
 30
0
 40
5.5
 50
180
 51
0
  0
ARC
  8
1
 62
7
 10
-137.75
 20
359.478700299956
 30
0
 40
2
 50
0
 51
90
  0
ARC
  8
1
 62
7
 10
-133.75
 20
341.478700299956
 30
0
 40
2
 50
180
 51
270
  0
ARC
  8
1
 62
7
 10
-122.75
 20
337.478700299956
 30
0
 40
2
 50
0
 51
90
  0
ARC
  8
1
 62
7
 10
-118.75
 20
326.3015110541716
 30
0
 40
2
 50
180
 51
253.894499876421
  0
ARC
  8
1
 62
7
 10
-118.7779734056335
 20
274.478700299956
 30
0
 40
1.999999999999956
 50
189.5940682268601
 51
270
  0
ARC
  8
1
 62
7
 10
-62.00098426722491
 20
274.478700299956
 30
0
 40
2
 50
270
 51
7.180755781458305
  0
ARC
  8
1
 62
7
 10
-118.75
 20
308.978700299956
 30
0
 40
2
 50
180
 51
270
  0
ARC
  8
1
 62
7
 10
-59.75
 20
304.9787002999561
 30
0
 40
2
 50
0
 51
90
  0
ARC
  8
1
 62
7
 10
-101.5
 20
353.978700299956
 30
0
 40
3
 50
0
 51
90
  0
ARC
  8
1
 62
7
 10
-39.5
 20
269.478700299956
 30
0
 40
3.5
 50
90
 51
270
  0
ARC
  8
1
 62
7
 10
-111
 20
330.478700299956
 30
0
 40
5.5
 50
180
 51
0
  0
ARC
  8
1
 62
7
 10
-111
 20
343.478700299956
 30
0
 40
5.5
 50
0
 51
180
  0
CIRCLE
  8
1
 62
7
 10
230.7816762154456
 20
0
 30
0
 40
92
  0
CIRCLE
  8
1
 62
3
 10
-208.25
 20
-45.75
 30
0
 40
1.599999999999994
  0
CIRCLE
  8
1
 62
7
 10
230.7816762154456
 20
0
 30
0
 40
2.400000000000006
  0
CIRCLE
  8
1
 62
3
 10
230.7816762154456
 20
0
 30
0
 40
3
  0
CIRCLE
  8
1
 62
3
 10
-208.25
 20
-45.75
 30
0
 40
2.442134781882402
  0
CIRCLE
  8
1
 62
3
 10
-196.75
 20
-45.75
 30
0
 40
1.599999999999994
  0
CIRCLE
  8
1
 62
3
 10
-196.75
 20
-45.75
 30
0
 40
2.442134781882402
  0
CIRCLE
  8
1
 62
3
 10
-196.75
 20
-58.25
 30
0
 40
1.599999999999994
  0
CIRCLE
  8
1
 62
3
 10
-196.75
 20
-58.25
 30
0
 40
2.442134781882402
  0
CIRCLE
  8
1
 62
3
 10
-208.25
 20
-58.25
 30
0
 40
1.599999999999994
  0
CIRCLE
  8
1
 62
3
 10
-208.25
 20
-58.25
 30
0
 40
2.442134781882402
  0
CIRCLE
  8
1
 62
7
 10
-219
 20
-52
 30
0
 40
2.75
  0
CIRCLE
  8
1
 62
7
 10
235.7816762154456
 20
-16.74693845669907
 30
0
 40
1
  0
CIRCLE
  8
1
 62
7
 10
225.7816762154456
 20
-16.74693845669907
 30
0
 40
1
  0
CIRCLE
  8
1
 62
7
 10
230.7816762154456
 20
0
 30
0
 40
31
  0
CIRCLE
  8
1
 62
7
 10
230.7816762154456
 20
0
 30
0
 40
37.5
  0
CIRCLE
  8
1
 62
7
 10
230.7816762154456
 20
0
 30
0
 40
70
  0
CIRCLE
  8
1
 62
7
 10
230.7816762154456
 20
0
 30
0
 40
88
  0
CIRCLE
  8
1
 62
7
 10
287.3502187103694
 20
56.5685424949238
 30
0
 40
5
  0
CIRCLE
  8
1
 62
7
 10
174.2131337205219
 20
56.56854249492381
 30
0
 40
5
  0
CIRCLE
  8
1
 62
7
 10
174.2131337205218
 20
-56.56854249492376
 30
0
 40
5
  0
CIRCLE
  8
1
 62
7
 10
287.3502187103693
 20
-56.56854249492382
 30
0
 40
5
  0
CIRCLE
  8
1
 62
3
 10
-173.75
 20
-45.75
 30
0
 40
1.599999999999994
  0
CIRCLE
  8
1
 62
3
 10
-173.75
 20
-45.75
 30
0
 40
2.442134781882402
  0
CIRCLE
  8
1
 62
3
 10
-185.25
 20
-45.75
 30
0
 40
1.599999999999994
  0
CIRCLE
  8
1
 62
3
 10
-185.25
 20
-45.75
 30
0
 40
2.442134781882402
  0
CIRCLE
  8
1
 62
3
 10
-185.25
 20
-58.25
 30
0
 40
1.599999999999994
  0
CIRCLE
  8
1
 62
3
 10
-185.25
 20
-58.25
 30
0
 40
2.442134781882402
  0
CIRCLE
  8
1
 62
3
 10
-173.75
 20
-58.25
 30
0
 40
1.599999999999994
  0
CIRCLE
  8
1
 62
3
 10
-173.75
 20
-58.25
 30
0
 40
2.442134781882402
  0
CIRCLE
  8
1
 62
7
 10
-163
 20
-52
 30
0
 40
2.75
  0
TEXT
  8
1
 62
7
 10
-203.466080657056
 20
-70.8846102178199
 30
0
 40
3.5
  1
CL    BR
 41
0.8910000000000004
  7
SIMPLEX
  0
TEXT
  8
1
 62
7
 10
-387.7882847580004
 20
287.121875076944
 30
0
 40
5
  1
INPUT
 41
0.891
  7
SIMPLEX
  0
TEXT
  8
1
 62
7
 10
-28.56402161602239
 20
286.534515476383
 30
0
 40
5
  1
OUTPUT
 41
0.891
  7
SIMPLEX
  0
TEXT
  8
1
 62
7
 10
149.5201125809587
 20
301.340698336008
 30
0
 40
10
  1
TMAU 5
 41
0.9
  7
SIMPLEX
  0
TEXT
  8
1
 62
7
 10
149.5201125809587
 20
286.340698336008
 30
0
 40
10
  1
DC2413
 41
0.9
  7
SIMPLEX
  0
ENDSEC
  0
EOF
