  0
SECTION
  2
HEADER
  9
$ACADVER
  1
AC1009
  9
$INSBASE
 10
0.0
 20
0.0
 30
0.0
  9
$EXTMIN
 10
-526.60038848165743
 20
-110.4999999999999
 30
0.0
  9
$EXTMAX
 10
403.18145612441202
 20
239.65215369317511
 30
0.0
  9
$LIMMIN
 10
-505.68579881656791
 20
-110.4999999999999
  9
$LIMMAX
 10
402.5071005917161
 20
239.65215369317511
  9
$ORTHOMODE
 70
     0
  9
$REGENMODE
 70
     1
  9
$FILLMODE
 70
     1
  9
$QTEXTMODE
 70
     0
  9
$MIRRTEXT
 70
     1
  9
$DRAGMODE
 70
     2
  9
$LTSCALE
 40
1.0
  9
$OSMODE
 70
    37
  9
$ATTMODE
 70
     1
  9
$TEXTSIZE
 40
3.5
  9
$TRACEWID
 40
0.5
  9
$TEXTSTYLE
  7
STANDARD
  9
$CLAYER
  8
0
  9
$CELTYPE
  6
BYLAYER
  9
$CECOLOR
 62
   256
  9
$DIMSCALE
 40
1.0
  9
$DIMASZ
 40
0.18
  9
$DIMEXO
 40
0.0625
  9
$DIMDLI
 40
0.38
  9
$DIMRND
 40
0.0
  9
$DIMDLE
 40
0.0
  9
$DIMEXE
 40
0.18
  9
$DIMTP
 40
0.0
  9
$DIMTM
 40
0.0
  9
$DIMTXT
 40
0.18
  9
$DIMCEN
 40
0.09
  9
$DIMTSZ
 40
0.0
  9
$DIMTOL
 70
     0
  9
$DIMLIM
 70
     0
  9
$DIMTIH
 70
     1
  9
$DIMTOH
 70
     1
  9
$DIMSE1
 70
     0
  9
$DIMSE2
 70
     0
  9
$DIMTAD
 70
     0
  9
$DIMZIN
 70
     0
  9
$DIMBLK
  1

  9
$DIMASO
 70
     1
  9
$DIMSHO
 70
     1
  9
$DIMPOST
  1

  9
$DIMAPOST
  1

  9
$DIMALT
 70
     0
  9
$DIMALTD
 70
     2
  9
$DIMALTF
 40
25.399999999999999
  9
$DIMLFAC
 40
1.0
  9
$DIMTOFL
 70
     0
  9
$DIMTVP
 40
0.0
  9
$DIMTIX
 70
     0
  9
$DIMSOXD
 70
     0
  9
$DIMSAH
 70
     0
  9
$DIMBLK1
  1

  9
$DIMBLK2
  1

  9
$DIMSTYLE
  2
STANDARD
  9
$DIMCLRD
 70
     0
  9
$DIMCLRE
 70
     0
  9
$DIMCLRT
 70
     0
  9
$DIMTFAC
 40
1.0
  9
$DIMGAP
 40
0.09
  9
$LUNITS
 70
     2
  9
$LUPREC
 70
     4
  9
$SKETCHINC
 40
0.1
  9
$FILLETRAD
 40
2.0
  9
$AUNITS
 70
     0
  9
$AUPREC
 70
     0
  9
$MENU
  1
ACAD
  9
$ELEVATION
 40
0.0
  9
$PELEVATION
 40
0.0
  9
$THICKNESS
 40
0.0
  9
$LIMCHECK
 70
     0
  9
$BLIPMODE
 70
     0
  9
$CHAMFERA
 40
0.0
  9
$CHAMFERB
 40
0.0
  9
$SKPOLY
 70
     0
  9
$TDCREATE
 40
2452094.8934966428
  9
$TDUPDATE
 40
2452094.8954615742
  9
$TDINDWG
 40
0.0019783565
  9
$TDUSRTIMER
 40
0.0019783565
  9
$USRTIMER
 70
     1
  9
$ANGBASE
 50
0.0
  9
$ANGDIR
 70
     0
  9
$PDMODE
 70
     0
  9
$PDSIZE
 40
0.0
  9
$PLINEWID
 40
0.0
  9
$COORDS
 70
     1
  9
$SPLFRAME
 70
     0
  9
$SPLINETYPE
 70
     6
  9
$SPLINESEGS
 70
     8
  9
$ATTDIA
 70
     0
  9
$ATTREQ
 70
     1
  9
$HANDLING
 70
 10241
  9
$HANDSEED
  5
3CF
  9
$SURFTAB1
 70
     6
  9
$SURFTAB2
 70
     6
  9
$SURFTYPE
 70
     6
  9
$SURFU
 70
     6
  9
$SURFV
 70
     6
  9
$UCSNAME
  2

  9
$UCSORG
 10
0.0
 20
0.0
 30
0.0
  9
$UCSXDIR
 10
1.0
 20
0.0
 30
0.0
  9
$UCSYDIR
 10
0.0
 20
1.0
 30
0.0
  9
$PUCSNAME
  2

  9
$PUCSORG
 10
0.0
 20
0.0
 30
0.0
  9
$PUCSXDIR
 10
1.0
 20
0.0
 30
0.0
  9
$PUCSYDIR
 10
0.0
 20
1.0
 30
0.0
  9
$USERI1
 70
     0
  9
$USERI2
 70
     0
  9
$USERI3
 70
     0
  9
$USERI4
 70
     0
  9
$USERI5
 70
     0
  9
$USERR1
 40
0.0
  9
$USERR2
 40
0.0
  9
$USERR3
 40
0.0
  9
$USERR4
 40
0.0
  9
$USERR5
 40
0.0
  9
$WORLDVIEW
 70
     1
  9
$SHADEDGE
 70
     3
  9
$SHADEDIF
 70
    70
  9
$TILEMODE
 70
     1
  9
$MAXACTVP
 70
    64
  9
$PLIMCHECK
 70
     0
  9
$PEXTMIN
 10
1.0000000000000000E+020
 20
1.0000000000000000E+020
 30
1.0000000000000000E+020
  9
$PEXTMAX
 10
-1.0000000000000000E+020
 20
-1.0000000000000000E+020
 30
-1.0000000000000000E+020
  9
$PLIMMIN
 10
0.0
 20
0.0
  9
$PLIMMAX
 10
12.0
 20
9.0
  9
$UNITMODE
 70
     0
  9
$VISRETAIN
 70
     1
  9
$PLINEGEN
 70
     0
  9
$PSLTSCALE
 70
     1
  0
ENDSEC
  0
SECTION
  2
TABLES
  0
TABLE
  2
VPORT
 70
     2
  0
VPORT
  2
*ACTIVE
 70
     0
 10
0.0
 20
0.0
 11
1.0
 21
1.0
 12
-387.77624967614651
 22
213.4161351548797
 13
0.0
 23
0.0
 14
1.0
 24
1.0
 15
0.0
 25
0.0
 16
0.0
 26
0.0
 36
1.0
 17
0.0
 27
0.0
 37
0.0
 40
8.9999994287188851
 41
2.4144144144144142
 42
50.0
 43
0.0
 44
0.0
 50
0.0
 51
0.0
 71
     0
 72
   100
 73
     1
 74
     1
 75
     0
 76
     0
 77
     0
 78
     0
  0
ENDTAB
  0
TABLE
  2
LTYPE
 70
     9
  0
LTYPE
  2
CONTINUOUS
 70
     0
  3
Solid line
 72
    65
 73
     0
 40
0.0
  0
LTYPE
  2
BORDER
 70
     0
  3
__ __ . __ __ .
 72
    65
 73
     6
 40
41.824672999065719
 49
11.94990657116163
 49
-5.974953285580817
 49
11.94990657116163
 49
-5.974953285580817
 49
0.0
 49
-5.974953285580817
  0
LTYPE
  2
CENTER
 70
     0
  3
____ _ ____ _
 72
    65
 73
     4
 40
47.799626284646543
 49
29.874766427904088
 49
-5.974953285580817
 49
5.974953285580817
 49
-5.974953285580817
  0
LTYPE
  2
DASHDOT
 70
     0
  3
__ . __ . __ .
 72
    65
 73
     4
 40
23.899813142323271
 49
11.94990657116163
 49
-5.974953285580817
 49
0.0
 49
-5.974953285580817
  0
LTYPE
  2
DASHED
 70
     0
  3
__ __ __ __ __
 72
    65
 73
     2
 40
17.92485985674244
 49
11.94990657116163
 49
-5.974953285580817
  0
LTYPE
  2
DIVIDE
 70
     0
  3
__ . . __ . . 
 72
    65
 73
     6
 40
29.874766427904088
 49
11.94990657116163
 49
-5.974953285580817
 49
0.0
 49
-5.974953285580817
 49
0.0
 49
-5.974953285580817
  0
LTYPE
  2
DOT
 70
     0
  3
..............
 72
    65
 73
     4
 40
11.94990657116163
 49
0.0
 49
-5.974953285580817
 49
0.0
 49
-5.974953285580817
  0
LTYPE
  2
HIDDEN
 70
     0
  3
_ _ _ _ _ _ _
 72
    65
 73
     2
 40
8.9624299283712237
 49
5.974953285580817
 49
-2.987476642790408
  0
LTYPE
  2
PHANTOM
 70
     0
  3
_____ _ _ _____ _ _ 
 72
    65
 73
     6
 40
59.749532855808162
 49
29.874766427904088
 49
-5.974953285580817
 49
5.974953285580817
 49
-5.974953285580817
 49
5.974953285580817
 49
-5.974953285580817
  0
ENDTAB
  0
TABLE
  2
LAYER
 70
     2
  0
LAYER
  2
0
 70
     0
 62
     7
  6
CONTINUOUS
  0
LAYER
  2
1
 70
     0
 62
     7
  6
CONTINUOUS
  0
ENDTAB
  0
TABLE
  2
STYLE
 70
     4
  0
STYLE
  2
STANDARD
 70
     0
 40
0.0
 41
1.0
 50
0.0
 71
     0
 42
3.5
  3
txt
  4

  0
STYLE
  2
SIMPLEX
 70
     0
 40
0.0
 41
1.0
 50
0.0
 71
     0
 42
3.5
  3
simplex
  4

  0
STYLE
  2
COMPLEX
 70
     0
 40
0.0
 41
1.0
 50
0.0
 71
     0
 42
3.5
  3
complex
  4

  0
STYLE
  2
ITALIC
 70
     0
 40
0.0
 41
1.0
 50
0.0
 71
     0
 42
3.5
  3
italic
  4

  0
ENDTAB
  0
TABLE
  2
VIEW
 70
     0
  0
ENDTAB
  0
TABLE
  2
UCS
 70
     0
  0
ENDTAB
  0
TABLE
  2
APPID
 70
     1
  0
APPID
  2
ACAD
 70
     0
  0
ENDTAB
  0
TABLE
  2
DIMSTYLE
 70
     1
  0
DIMSTYLE
  2
STANDARD
 70
     0
  3

  4

  5

  6

  7

 40
1.0
 41
0.18
 42
0.0625
 43
0.38
 44
0.18
 45
0.0
 46
0.0
 47
0.0
 48
0.0
140
0.18
141
0.09
142
0.0
143
25.399999999999999
144
1.0
145
0.0
146
1.0
147
0.09
 71
     0
 72
     0
 73
     1
 74
     1
 75
     0
 76
     0
 77
     0
 78
     0
170
     0
171
     2
172
     0
173
     0
174
     0
175
     0
176
     0
177
     0
178
     0
  0
ENDTAB
  0
ENDSEC
  0
SECTION
  2
BLOCKS
  0
BLOCK
  8
0
  2
$MODEL_SPACE
 70
     0
 10
0.0
 20
0.0
 30
0.0
  3
$MODEL_SPACE
  1

  0
ENDBLK
  5
20
  8
0
  0
BLOCK
 67
     1
  8
0
  2
$PAPER_SPACE
 70
     0
 10
0.0
 20
0.0
 30
0.0
  3
$PAPER_SPACE
  1

  0
ENDBLK
  5
1C
 67
     1
  8
0
  0
ENDSEC
  0
SECTION
  2
ENTITIES
  0
LINE
  5
33
  8
1
 62
     7
 10
29.0
 20
-32.499999999999893
 30
0.0
 11
29.0
 21
-61.499999999999893
 31
0.0
  0
LINE
  5
34
  8
1
 62
     7
 10
6.0
 20
-31.49999999999989
 30
0.0
 11
6.0
 21
-60.0
 31
0.0
  0
LINE
  5
35
  8
1
 62
     7
 10
6.0
 20
31.5
 30
0.0
 11
6.0
 21
60.0
 31
0.0
  0
LINE
  5
36
  8
1
 62
     7
 10
29.0
 20
61.5
 30
0.0
 11
29.0
 21
32.5
 31
0.0
  0
LINE
  5
37
  8
1
 62
     7
 10
-165.37292152267099
 20
80.0
 30
0.0
 11
-164.0
 21
80.0
 31
0.0
  0
LINE
  5
38
  8
1
 62
     7
 10
-170.0
 20
91.341141347756846
 30
0.0
 11
-166.89999999999969
 21
91.341141347756846
 31
0.0
  0
LINE
  5
39
  8
1
 62
     7
 10
-164.0
 20
115.8617114999127
 30
0.0
 11
-164.0
 21
130.0
 31
0.0
  0
LINE
  5
3A
  8
1
 62
     7
 10
-166.89999999999969
 20
111.9373126625111
 30
0.0
 11
-166.89999999999969
 21
86.027170420931384
 31
0.0
  0
LINE
  5
3B
  8
1
 62
     7
 10
-149.0648156577158
 20
104.9309533039652
 30
0.0
 11
-149.0648156577158
 21
103.59999999999999
 31
0.0
  0
LINE
  5
3C
  8
1
 62
     7
 10
-151.0648156577158
 20
104.9309533039652
 30
0.0
 11
-151.0648156577158
 21
103.59999999999999
 31
0.0
  0
LINE
  5
3D
  8
1
 62
     7
 10
-170.0
 20
104.9309533039652
 30
0.0
 11
-170.0
 21
89.784559760474792
 31
0.0
  0
LINE
  5
3E
  8
1
 62
     7
 10
-172.0
 20
104.9309533039652
 30
0.0
 11
-172.0
 21
89.784559760474792
 31
0.0
  0
LINE
  5
3F
  8
1
 62
     7
 10
-366.30932212251253
 20
101.9070969592658
 30
0.0
 11
-366.94529106364678
 21
99.533628558916135
 31
0.0
  0
LINE
  5
40
  8
1
 62
     7
 10
-368.2411737750906
 20
102.4247350494708
 30
0.0
 11
-368.87214574394682
 21
100.0699156035474
 31
0.0
  0
LINE
  5
41
  8
1
 62
     7
 10
-370.17302542766862
 20
102.94237313967589
 30
0.0
 11
-370.8089943688031
 21
100.5689047393262
 31
0.0
  0
LINE
  5
42
  8
1
 62
     7
 10
-327.97325345014411
 20
67.203428483969503
 30
0.0
 11
-328.48237033259812
 21
67.71254536642364
 31
0.0
  0
LINE
  5
43
  8
1
 62
     7
 10
-331.36736599983959
 20
67.712545366423797
 30
0.0
 11
-331.87648288229377
 21
67.203428483969503
 31
0.0
  0
LINE
  5
44
  8
1
 62
     7
 10
-331.87648288229349
 20
64.318432816728205
 30
0.0
 11
-331.36736599983959
 21
63.809315934274032
 31
0.0
  0
LINE
  5
45
  8
1
 62
     7
 10
-328.48237033259812
 20
63.809315934274032
 30
0.0
 11
-327.97325345014377
 21
64.318432816728318
 31
0.0
  0
LINE
  5
46
  8
1
 62
     7
 10
-336.77294384195
 20
65.98392278648339
 30
0.0
 11
-329.70187603008452
 21
58.9128549746179
 31
0.0
  0
LINE
  5
47
  8
1
 62
     7
 10
-329.70187603008452
 20
58.9128549746179
 30
0.0
 11
-317.68106074991277
 21
70.933670254789092
 31
0.0
  0
LINE
  5
48
  8
1
 62
     7
 10
-324.75212856177842
 20
78.004738066654625
 30
0.0
 11
-317.68106074991277
 21
70.933670254789092
 31
0.0
  0
LINE
  5
49
  8
1
 62
     7
 10
-336.77294384195
 20
65.98392278648339
 30
0.0
 11
-324.75212856177842
 21
78.004738066654625
 31
0.0
  0
LINE
  5
4A
  8
1
 62
     7
 10
-262.7910800102822
 20
108.12101603832819
 30
0.0
 11
-259.58875377545132
 21
107.23771775994339
 31
0.0
  0
LINE
  5
4B
  8
1
 62
     7
 10
-263.09485791586337
 20
107.0196938910882
 30
0.0
 11
-263.48842075637577
 21
105.5928637476719
 31
0.0
  0
LINE
  5
4C
  8
1
 62
     7
 10
-263.97042100336301
 20
105.7258139710794
 30
0.0
 11
-259.78046406341309
 21
104.5700973200684
 31
0.0
  0
LINE
  5
4D
  8
1
 62
     7
 10
-265.82999632627838
 20
98.984074529328879
 30
0.0
 11
-261.64003938632902
 21
97.828357878317874
 31
0.0
  0
LINE
  5
4E
  8
1
 62
     7
 10
-263.09485791586337
 20
107.0196938910882
 30
0.0
 11
-259.72085618695189
 21
106.08904232723449
 31
0.0
  0
LINE
  5
4F
  8
1
 62
     7
 10
-260.11441902746412
 20
104.6622121838182
 30
0.0
 11
-259.72085618695189
 21
106.08904232723449
 31
0.0
  0
LINE
  5
50
  8
1
 62
     7
 10
-262.61285766887602
 20
106.8867436676807
 30
0.0
 11
-262.30907976329502
 21
107.9880658149205
 31
0.0
  0
LINE
  5
51
  8
1
 62
     7
 10
-260.20285643393908
 20
106.2219925506424
 30
0.0
 11
-259.8990785283583
 21
107.3233146978822
 31
0.0
  0
LINE
  5
52
  8
1
 62
     7
 10
-259.41707828137089
 20
107.19036447447451
 30
0.0
 11
-259.58875377545132
 21
107.23771775994339
 31
0.0
  0
LINE
  5
53
  8
1
 62
     7
 10
-259.18905529332108
 20
108.017043315184
 30
0.0
 11
-259.41707828137089
 21
107.19036447447451
 31
0.0
  0
LINE
  5
54
  8
1
 62
     7
 10
-259.18905529332108
 20
108.017043315184
 30
0.0
 11
-259.0580554875304
 21
110.37237548928969
 31
0.0
  0
LINE
  5
55
  8
1
 62
     7
 10
-262.56305702223273
 20
108.9476948790377
 30
0.0
 11
-261.46805672246711
 21
111.0371266063282
 31
0.0
  0
LINE
  5
56
  8
1
 62
     7
 10
-261.46805672246711
 20
111.0371266063282
 30
0.0
 11
-259.0580554875304
 21
110.37237548928969
 31
0.0
  0
LINE
  5
57
  8
1
 62
     7
 10
-262.7910800102822
 20
108.12101603832819
 30
0.0
 11
-262.56305702223273
 21
108.9476948790377
 31
0.0
  0
LINE
  5
58
  8
1
 62
     7
 10
-265.82999632627838
 20
98.984074529328879
 30
0.0
 11
-263.97042100336301
 21
105.7258139710794
 31
0.0
  0
LINE
  5
59
  8
1
 62
     7
 10
-259.63241878047683
 20
104.52926196041049
 30
0.0
 11
-259.78046406341309
 21
104.5700973200684
 31
0.0
  0
LINE
  5
5A
  8
1
 62
     7
 10
-261.49199410339241
 20
97.787522518660182
 30
0.0
 11
-261.64003938632902
 21
97.828357878317874
 31
0.0
  0
LINE
  5
5B
  8
1
 62
     7
 10
-261.49199410339241
 20
97.787522518660182
 30
0.0
 11
-259.63241878047683
 21
104.52926196041049
 31
0.0
  0
LINE
  5
5C
  8
1
 62
     7
 10
-272.59277477616467
 20
105.8279036185186
 30
0.0
 11
-272.59277477616467
 21
98.834401557172527
 31
0.0
  0
LINE
  5
5D
  8
1
 62
     7
 10
-272.43920090990451
 20
98.834401557172527
 30
0.0
 11
-272.59277477616467
 21
98.834401557172527
 31
0.0
  0
LINE
  5
5E
  8
1
 62
     7
 10
-272.43920090990451
 20
105.8279036185186
 30
0.0
 11
-272.59277477616467
 21
105.8279036185186
 31
0.0
  0
LINE
  5
5F
  8
1
 62
     7
 10
-268.09277477616467
 20
105.8279036185186
 30
0.0
 11
-268.09277477616467
 21
98.834401557172527
 31
0.0
  0
LINE
  5
60
  8
1
 62
     7
 10
-268.59277477616467
 20
109.3080171167322
 30
0.0
 11
-268.59277477616467
 21
108.45046689152321
 31
0.0
  0
LINE
  5
61
  8
1
 62
     7
 10
-271.59277477616467
 20
111.613391402937
 30
0.0
 11
-269.09277477616467
 21
111.613391402937
 31
0.0
  0
LINE
  5
62
  8
1
 62
     7
 10
-269.09277477616467
 20
111.613391402937
 30
0.0
 11
-268.59277477616467
 21
109.3080171167322
 31
0.0
  0
LINE
  5
63
  8
1
 62
     7
 10
-271.59277477616467
 20
111.613391402937
 30
0.0
 11
-272.09277477616467
 21
109.3080171167322
 31
0.0
  0
LINE
  5
64
  8
1
 62
     7
 10
-272.09277477616467
 20
108.45046689152321
 30
0.0
 11
-272.09277477616467
 21
109.3080171167322
 31
0.0
  0
LINE
  5
65
  8
1
 62
     7
 10
-271.91468825530342
 20
108.45046689152321
 30
0.0
 11
-272.09277477616467
 21
108.45046689152321
 31
0.0
  0
LINE
  5
66
  8
1
 62
     7
 10
-271.59277477616467
 20
108.45046689152321
 30
0.0
 11
-271.59277477616467
 21
107.3080171167322
 31
0.0
  0
LINE
  5
67
  8
1
 62
     7
 10
-269.09277477616467
 20
108.45046689152321
 30
0.0
 11
-269.09277477616467
 21
107.3080171167322
 31
0.0
  0
LINE
  5
68
  8
1
 62
     7
 10
-272.09277477616467
 20
107.3080171167322
 30
0.0
 11
-272.09277477616467
 21
105.8279036185186
 31
0.0
  0
LINE
  5
69
  8
1
 62
     7
 10
-272.09277477616467
 20
107.3080171167322
 30
0.0
 11
-268.59277477616467
 21
107.3080171167322
 31
0.0
  0
LINE
  5
6A
  8
1
 62
     7
 10
-272.43920090990451
 20
98.834401557172527
 30
0.0
 11
-268.09277477616467
 21
98.834401557172527
 31
0.0
  0
LINE
  5
6B
  8
1
 62
     7
 10
-272.43920090990451
 20
105.8279036185186
 30
0.0
 11
-268.09277477616467
 21
105.8279036185186
 31
0.0
  0
LINE
  5
6C
  8
1
 62
     7
 10
-268.59277477616467
 20
105.8279036185186
 30
0.0
 11
-268.59277477616467
 21
107.3080171167322
 31
0.0
  0
LINE
  5
6D
  8
1
 62
     7
 10
-271.91468825530342
 20
108.45046689152321
 30
0.0
 11
-268.59277477616467
 21
108.45046689152321
 31
0.0
  0
LINE
  5
6E
  8
1
 62
     7
 10
-271.34277477616467
 20
85.523983967400113
 30
0.0
 11
-271.34277477616467
 21
98.834401557172527
 31
0.0
  0
LINE
  5
6F
  8
1
 62
     7
 10
-269.34277477616467
 20
98.834401557172527
 30
0.0
 11
-269.34277477616467
 21
85.523983967403183
 31
0.0
  0
LINE
  5
70
  8
1
 62
     7
 10
-262.69699472086103
 20
98.119898077179215
 30
0.0
 11
-268.4751909246159
 21
77.171516600514735
 31
0.0
  0
LINE
  5
71
  8
1
 62
     7
 10
-264.48454616555688
 20
98.612958745530506
 30
0.0
 11
-270.40079364940181
 21
77.705998124738016
 31
0.0
  0
LINE
  5
72
  8
1
 62
     7
 10
-187.25
 20
81.383707205722999
 30
0.0
 11
-187.25
 21
98.670334986136993
 31
0.0
  0
LINE
  5
73
  8
1
 62
     7
 10
-183.78669152429879
 20
61.306151318532613
 30
0.0
 11
-193.8957800553039
 21
97.955831506143795
 31
0.0
  0
LINE
  5
74
  8
1
 62
     7
 10
-181.8586905363494
 20
61.837952212163103
 30
0.0
 11
-191.96777906735451
 21
98.487632399774284
 31
0.0
  0
LINE
  5
75
  8
1
 62
     7
 10
-185.25
 20
98.670334986136993
 30
0.0
 11
-185.25
 21
80.902227433059906
 31
0.0
  0
LINE
  5
76
  8
1
 62
     7
 10
-166.59999663731509
 20
67.019159220222221
 30
0.0
 11
-165.8679035196173
 21
66.8597365650391
 31
0.0
  0
LINE
  5
77
  8
1
 62
     7
 10
-166.59999663731489
 20
65.896867441998381
 30
0.0
 11
-166.1936228877392
 21
66.303241191574216
 31
0.0
  0
LINE
  5
78
  8
1
 62
     7
 10
-166.59999663731489
 20
64.596867441998469
 30
0.0
 11
-165.59999999999991
 21
65.596864079313434
 31
0.0
  0
LINE
  5
79
  8
1
 62
     7
 10
-166.90000000000001
 20
61.361319583295312
 30
0.0
 11
-166.90000000000001
 21
61.346864079313441
 31
0.0
  0
LINE
  5
7A
  8
1
 62
     7
 10
-168.59999663731529
 20
68.540941892759278
 30
0.0
 11
-168.59999663731429
 21
63.6330091089186
 31
0.0
  0
LINE
  5
7B
  8
1
 62
     7
 10
-166.59999663731529
 20
69.793110151110398
 30
0.0
 11
-166.59999663731469
 21
63.6330091089186
 31
0.0
  0
LINE
  5
7C
  8
1
 62
     7
 10
-193.80169476588259
 20
107.9569494672927
 30
0.0
 11
-197.1756964947939
 21
107.026297903439
 31
0.0
  0
LINE
  5
7D
  8
1
 62
     7
 10
-193.10435401978901
 20
105.42879717663639
 30
0.0
 11
-193.49791686030139
 21
106.8556273200527
 31
0.0
  0
LINE
  5
7E
  8
1
 62
     7
 10
-192.62235377280169
 20
105.561747400044
 30
0.0
 11
-196.96035599568791
 21
104.365195389375
 31
0.0
  0
LINE
  5
7F
  8
1
 62
     7
 10
-190.76277844988641
 20
98.820007958293417
 30
0.0
 11
-195.10078067277229
 21
97.623455947624706
 31
0.0
  0
LINE
  5
80
  8
1
 62
     7
 10
-196.87191858921281
 20
105.924975756199
 30
0.0
 11
-193.49791686030139
 21
106.8556273200527
 31
0.0
  0
LINE
  5
81
  8
1
 62
     7
 10
-196.87191858921281
 20
105.924975756199
 30
0.0
 11
-196.47835574870061
 21
104.49814561278269
 31
0.0
  0
LINE
  5
82
  8
1
 62
     7
 10
-194.28369501286949
 20
107.8239992438849
 30
0.0
 11
-193.97991710728871
 21
106.7226770966452
 31
0.0
  0
LINE
  5
83
  8
1
 62
     7
 10
-196.6936962478064
 20
107.15924812684671
 30
0.0
 11
-196.3899183422256
 21
106.05792597960691
 31
0.0
  0
LINE
  5
84
  8
1
 62
     7
 10
-197.1756964947939
 20
107.026297903439
 30
0.0
 11
-197.40371948284351
 21
107.85297674414851
 31
0.0
  0
LINE
  5
85
  8
1
 62
     7
 10
-197.53471928863419
 20
110.2083089182543
 30
0.0
 11
-197.40371948284351
 21
107.85297674414851
 31
0.0
  0
LINE
  5
86
  8
1
 62
     7
 10
-195.12471805369751
 20
110.8730600352928
 30
0.0
 11
-194.029717753932
 21
108.78362830800221
 31
0.0
  0
LINE
  5
87
  8
1
 62
     7
 10
-197.53471928863419
 20
110.2083089182543
 30
0.0
 11
-195.12471805369751
 21
110.8730600352928
 31
0.0
  0
LINE
  5
88
  8
1
 62
     7
 10
-194.029717753932
 20
108.78362830800221
 30
0.0
 11
-193.80169476588259
 21
107.9569494672927
 31
0.0
  0
LINE
  5
89
  8
1
 62
     7
 10
-192.62235377280169
 20
105.561747400044
 30
0.0
 11
-190.76277844988641
 21
98.820007958293417
 31
0.0
  0
LINE
  5
8A
  8
1
 62
     7
 10
-196.96035599568791
 20
104.365195389375
 30
0.0
 11
-195.10078067277229
 21
97.623455947624706
 31
0.0
  0
LINE
  5
8B
  8
1
 62
     7
 10
-184.0
 20
98.670334986136993
 30
0.0
 11
-184.0
 21
105.6638370474832
 31
0.0
  0
LINE
  5
8C
  8
1
 62
     7
 10
-188.49999999999989
 20
98.670334986136993
 30
0.0
 11
-188.49999999999989
 21
105.6638370474832
 31
0.0
  0
LINE
  5
8D
  8
1
 62
     7
 10
-188.0
 20
108.2864003204877
 30
0.0
 11
-188.0
 21
109.1439505456967
 31
0.0
  0
LINE
  5
8E
  8
1
 62
     7
 10
-187.5
 20
111.44932483190139
 30
0.0
 11
-185.0
 21
111.44932483190139
 31
0.0
  0
LINE
  5
8F
  8
1
 62
     7
 10
-188.0
 20
109.1439505456967
 30
0.0
 11
-187.5
 21
111.44932483190139
 31
0.0
  0
LINE
  5
90
  8
1
 62
     7
 10
-184.49999999999989
 20
109.1439505456967
 30
0.0
 11
-185.0
 21
111.44932483190139
 31
0.0
  0
LINE
  5
91
  8
1
 62
     7
 10
-184.49999999999989
 20
109.1439505456967
 30
0.0
 11
-184.49999999999989
 21
108.2864003204877
 31
0.0
  0
LINE
  5
92
  8
1
 62
     7
 10
-185.0
 20
107.1439505456966
 30
0.0
 11
-185.0
 21
108.2864003204877
 31
0.0
  0
LINE
  5
93
  8
1
 62
     7
 10
-187.5
 20
107.1439505456966
 30
0.0
 11
-187.5
 21
108.2864003204877
 31
0.0
  0
LINE
  5
94
  8
1
 62
     7
 10
-184.49999999999989
 20
105.6638370474832
 30
0.0
 11
-184.49999999999989
 21
107.1439505456966
 31
0.0
  0
LINE
  5
95
  8
1
 62
     7
 10
-188.0
 20
107.1439505456966
 30
0.0
 11
-184.49999999999989
 21
107.1439505456966
 31
0.0
  0
LINE
  5
96
  8
1
 62
     7
 10
-188.49999999999989
 20
98.670334986136993
 30
0.0
 11
-184.0
 21
98.670334986136993
 31
0.0
  0
LINE
  5
97
  8
1
 62
     7
 10
-188.49999999999989
 20
105.6638370474832
 30
0.0
 11
-184.0
 21
105.6638370474832
 31
0.0
  0
LINE
  5
98
  8
1
 62
     7
 10
-188.0
 20
107.1439505456966
 30
0.0
 11
-188.0
 21
105.6638370474832
 31
0.0
  0
LINE
  5
99
  8
1
 62
     7
 10
-188.0
 20
108.2864003204877
 30
0.0
 11
-184.49999999999989
 21
108.2864003204877
 31
0.0
  0
LINE
  5
9A
  8
1
 62
     7
 10
-171.1999733070669
 20
74.636555867316815
 30
0.0
 11
-171.1999733070669
 21
67.764399863710821
 31
0.0
  0
LINE
  5
9B
  8
1
 62
     7
 10
-170.73063286221691
 20
75.484140928846372
 30
0.0
 11
-167.5617376188861
 21
77.46813594771578
 31
0.0
  0
LINE
  5
9C
  8
1
 62
     7
 10
-165.5
 20
67.764399863710821
 30
0.0
 11
-164.80000000000001
 21
65.760930650348882
 31
0.0
  0
LINE
  5
9D
  8
1
 62
     7
 10
-169.82110257823601
 20
66.812194397104122
 30
0.0
 11
-168.59999663731489
 21
66.612377887036928
 31
0.0
  0
LINE
  5
9E
  8
1
 62
     7
 10
-169.3555230289812
 20
67.526389013674134
 30
0.0
 11
-168.59999663731509
 21
67.402539885486703
 31
0.0
  0
LINE
  5
9F
  8
1
 62
     7
 10
-166.2676540609217
 20
66.315189716562998
 30
0.0
 11
-166.59999663731489
 21
66.35484571560022
 31
0.0
  0
LINE
  5
A0
  8
1
 62
     7
 10
-170.761737618886
 20
68.390178511468207
 30
0.0
 11
-167.5617376188861
 21
70.393647724830089
 31
0.0
  0
LINE
  5
A1
  8
1
 62
     7
 10
-169.59043440472149
 20
67.920844525650125
 30
0.0
 11
-166.3904344047215
 21
69.924313739011893
 31
0.0
  0
LINE
  5
A2
  8
1
 62
     7
 10
-165.5
 20
67.764399863710821
 30
0.0
 11
-165.5
 21
69.767869077072589
 31
0.0
  0
LINE
  5
A3
  8
1
 62
     7
 10
-165.59999999999991
 20
65.726134339322982
 30
0.0
 11
-165.91375373885751
 21
66.157327204758133
 31
0.0
  0
LINE
  5
A4
  8
1
 62
     7
 10
-165.59999999999991
 20
65.726134339322982
 30
0.0
 11
-164.80000000000001
 21
65.760930650348882
 31
0.0
  0
LINE
  5
A5
  8
1
 62
     7
 10
-164.80000000000001
 20
65.760930650348882
 30
0.0
 11
-164.80000000000001
 21
58.748788403582289
 31
0.0
  0
LINE
  5
A6
  8
1
 62
     7
 10
-164.80000000000001
 20
65.760930650348882
 30
0.0
 11
-164.0
 21
65.760930650348882
 31
0.0
  0
LINE
  5
A7
  8
1
 62
     7
 10
-165.59999999999991
 20
58.748788403582289
 30
0.0
 11
-164.0
 21
58.748788403582289
 31
0.0
  0
LINE
  5
A8
  8
1
 62
     7
 10
-166.90000000000001
 20
61.346864079313441
 30
0.0
 11
-165.59999999999991
 21
61.346864079313441
 31
0.0
  0
LINE
  5
A9
  8
1
 62
     7
 10
-165.59999999999991
 20
58.748788403582289
 30
0.0
 11
-165.59999999999991
 21
65.726134339322982
 31
0.0
  0
LINE
  5
AA
  8
1
 62
     7
 10
-164.0
 20
76.84235729995828
 30
0.0
 11
-164.0
 21
58.748788403582289
 31
0.0
  0
LINE
  5
AB
  8
1
 62
     7
 10
-381.18579881656791
 20
88.154700538379288
 30
0.0
 11
-383.18579881656791
 21
89.309401076758476
 31
0.0
  0
LINE
  5
AC
  8
1
 62
     7
 10
-381.18579881656791
 20
85.845299461620684
 30
0.0
 11
-381.18579881656791
 21
88.154700538379288
 31
0.0
  0
LINE
  5
AD
  8
1
 62
     7
 10
-383.18579881656791
 20
84.690598923241524
 30
0.0
 11
-381.18579881656791
 21
85.845299461620684
 31
0.0
  0
LINE
  5
AE
  8
1
 62
     7
 10
-385.18579881656791
 20
85.845299461620684
 30
0.0
 11
-383.18579881656791
 21
84.690598923241524
 31
0.0
  0
LINE
  5
AF
  8
1
 62
     7
 10
-385.18579881656791
 20
88.154700538379288
 30
0.0
 11
-385.18579881656791
 21
85.845299461620684
 31
0.0
  0
LINE
  5
B0
  8
1
 62
     7
 10
-383.18579881656791
 20
89.309401076758476
 30
0.0
 11
-385.18579881656791
 21
88.154700538379288
 31
0.0
  0
LINE
  5
B1
  8
1
 62
     7
 10
-406.18579881656791
 20
88.154700538379288
 30
0.0
 11
-408.18579881656791
 21
89.309401076758476
 31
0.0
  0
LINE
  5
B2
  8
1
 62
     7
 10
-406.18579881656791
 20
85.845299461620684
 30
0.0
 11
-406.18579881656791
 21
88.154700538379288
 31
0.0
  0
LINE
  5
B3
  8
1
 62
     7
 10
-408.18579881656791
 20
84.690598923241524
 30
0.0
 11
-406.18579881656791
 21
85.845299461620684
 31
0.0
  0
LINE
  5
B4
  8
1
 62
     7
 10
-410.18579881656791
 20
85.845299461620684
 30
0.0
 11
-408.18579881656791
 21
84.690598923241524
 31
0.0
  0
LINE
  5
B5
  8
1
 62
     7
 10
-410.18579881656791
 20
88.154700538379288
 30
0.0
 11
-410.18579881656791
 21
85.845299461620684
 31
0.0
  0
LINE
  5
B6
  8
1
 62
     7
 10
-408.18579881656791
 20
89.309401076758476
 30
0.0
 11
-410.18579881656791
 21
88.154700538379288
 31
0.0
  0
LINE
  5
B7
  8
1
 62
     7
 10
-1.5999999999999091
 20
82.841141347756817
 30
0.0
 11
-1.5999999999999091
 21
91.341141347756846
 31
0.0
  0
LINE
  5
B8
  8
1
 62
     7
 10
3.1000000000001431
 20
91.341141347756846
 30
0.0
 11
3.1000000000001431
 21
82.841141347756817
 31
0.0
  0
LINE
  5
B9
  8
1
 62
     7
 10
-1.5999999999999091
 20
91.341141347756846
 30
0.0
 11
3.1000000000001431
 21
91.341141347756846
 31
0.0
  0
LINE
  5
BA
  8
1
 62
     7
 10
-1.899999999999856
 20
90.821526105486086
 30
0.0
 11
-1.5999999999999091
 21
91.341141347756846
 31
0.0
  0
LINE
  5
BB
  8
1
 62
     7
 10
-1.899999999999856
 20
83.360756590027393
 30
0.0
 11
-1.899999999999856
 21
90.821526105486086
 31
0.0
  0
LINE
  5
BC
  8
1
 62
     7
 10
-1.5999999999999091
 20
82.841141347756817
 30
0.0
 11
-1.899999999999856
 21
83.360756590027393
 31
0.0
  0
LINE
  5
BD
  8
1
 62
     7
 10
3.1000000000001431
 20
82.841141347756817
 30
0.0
 11
-1.5999999999999091
 21
82.841141347756817
 31
0.0
  0
LINE
  5
BE
  8
1
 62
     7
 10
3.0
 20
52.4557817263846
 30
0.0
 11
3.0
 21
46.369573991116908
 31
0.0
  0
LINE
  5
BF
  8
1
 62
     7
 10
3.0
 20
-46.249999999999893
 30
0.0
 11
3.0
 21
-78.953427933299409
 31
0.0
  0
LINE
  5
C0
  8
1
 62
     7
 10
6.0
 20
-78.953427933299409
 30
0.0
 11
3.0
 21
-78.953427933299409
 31
0.0
  0
LINE
  5
C1
  8
1
 62
     7
 10
6.0
 20
-52.455781726384529
 30
0.0
 11
3.0
 21
-52.455781726384529
 31
0.0
  0
LINE
  5
C2
  8
1
 62
     7
 10
3.0
 20
78.953427933299508
 30
0.0
 11
6.0
 21
78.953427933299508
 31
0.0
  0
LINE
  5
C3
  8
1
 62
     7
 10
3.0
 20
78.953427933299508
 30
0.0
 11
3.0
 21
52.4557817263846
 31
0.0
  0
LINE
  5
C4
  8
1
 62
     7
 10
6.0
 20
52.4557817263846
 30
0.0
 11
3.0
 21
52.4557817263846
 31
0.0
  0
LINE
  5
C5
  8
1
 62
     7
 10
6.0
 20
78.953427933299508
 30
0.0
 11
3.0
 21
78.953427933299508
 31
0.0
  0
LINE
  5
C6
  8
1
 62
     7
 10
304.00710059171621
 20
109.8464837853265
 30
0.0
 11
304.00710059171621
 21
127.0
 31
0.0
  0
LINE
  5
C7
  8
1
 62
     7
 10
301.00710059171621
 20
130.0
 30
0.0
 11
283.00710059171621
 21
130.0
 31
0.0
  0
LINE
  5
C8
  8
1
 62
     7
 10
280.00710059171621
 20
109.8464837853265
 30
0.0
 11
280.00710059171621
 21
127.0
 31
0.0
  0
LINE
  5
C9
  8
1
 62
     7
 10
383.17554028978662
 20
-44.553219432624253
 30
0.0
 11
386.17554028978668
 21
-42.821168625055407
 31
0.0
  0
LINE
  5
CA
  8
1
 62
     7
 10
386.17554028978668
 20
-42.821168625055407
 30
0.0
 11
386.17554028978662
 21
-39.3570670099176
 31
0.0
  0
LINE
  5
CB
  8
1
 62
     7
 10
386.17554028978662
 20
-39.3570670099176
 30
0.0
 11
383.17554028978662
 21
-37.625016202348768
 31
0.0
  0
LINE
  5
CC
  8
1
 62
     7
 10
383.17554028978662
 20
-37.625016202348768
 30
0.0
 11
380.17554028978662
 21
-39.3570670099176
 31
0.0
  0
LINE
  5
CD
  8
1
 62
     7
 10
380.17554028978662
 20
-39.3570670099176
 30
0.0
 11
380.17554028978668
 21
-42.821168625055407
 31
0.0
  0
LINE
  5
CE
  8
1
 62
     7
 10
380.17554028978668
 20
-42.821168625055407
 30
0.0
 11
383.17554028978662
 21
-44.553219432624253
 31
0.0
  0
LINE
  5
CF
  8
1
 62
     7
 10
376.17554028978662
 20
-56.677575085606357
 30
0.0
 11
373.17554028978662
 21
-54.94552427803751
 31
0.0
  0
LINE
  5
D0
  8
1
 62
     7
 10
373.17554028978662
 20
-54.94552427803751
 30
0.0
 11
370.17554028978662
 21
-56.677575085606357
 31
0.0
  0
LINE
  5
D1
  8
1
 62
     7
 10
370.17554028978662
 20
-56.677575085606357
 30
0.0
 11
370.17554028978662
 21
-60.141676700744142
 31
0.0
  0
LINE
  5
D2
  8
1
 62
     7
 10
370.17554028978662
 20
-60.141676700744142
 30
0.0
 11
373.17554028978662
 21
-61.873727508312982
 31
0.0
  0
LINE
  5
D3
  8
1
 62
     7
 10
373.17554028978662
 20
-61.873727508312982
 30
0.0
 11
376.17554028978668
 21
-60.141676700744142
 31
0.0
  0
LINE
  5
D4
  8
1
 62
     7
 10
376.17554028978668
 20
-60.141676700744142
 30
0.0
 11
376.17554028978662
 21
-56.677575085606357
 31
0.0
  0
LINE
  5
D5
  8
1
 62
     7
 10
207.83866089364611
 20
-56.677575085606463
 30
0.0
 11
207.83866089364611
 21
-60.141676700744249
 31
0.0
  0
LINE
  5
D6
  8
1
 62
     7
 10
207.83866089364611
 20
-60.141676700744249
 30
0.0
 11
210.83866089364619
 21
-61.873727508313102
 31
0.0
  0
LINE
  5
D7
  8
1
 62
     7
 10
210.83866089364619
 20
-61.873727508313102
 30
0.0
 11
213.83866089364611
 21
-60.141676700744249
 31
0.0
  0
LINE
  5
D8
  8
1
 62
     7
 10
213.83866089364611
 20
-60.141676700744249
 30
0.0
 11
213.83866089364611
 21
-56.677575085606463
 31
0.0
  0
LINE
  5
D9
  8
1
 62
     7
 10
213.83866089364611
 20
-56.677575085606463
 30
0.0
 11
210.83866089364619
 21
-54.94552427803761
 31
0.0
  0
LINE
  5
DA
  8
1
 62
     7
 10
210.83866089364619
 20
-54.94552427803761
 30
0.0
 11
207.83866089364611
 21
-56.677575085606463
 31
0.0
  0
LINE
  5
DB
  8
1
 62
     7
 10
200.83866089364611
 20
-44.553219432624353
 30
0.0
 11
203.83866089364619
 21
-42.82116862505552
 31
0.0
  0
LINE
  5
DC
  8
1
 62
     7
 10
203.83866089364619
 20
-42.82116862505552
 30
0.0
 11
203.83866089364619
 21
-39.357067009917721
 31
0.0
  0
LINE
  5
DD
  8
1
 62
     7
 10
203.83866089364619
 20
-39.357067009917721
 30
0.0
 11
200.83866089364611
 21
-37.625016202348888
 31
0.0
  0
LINE
  5
DE
  8
1
 62
     7
 10
200.83866089364611
 20
-37.625016202348888
 30
0.0
 11
197.83866089364611
 21
-39.357067009917721
 31
0.0
  0
LINE
  5
DF
  8
1
 62
     7
 10
197.83866089364611
 20
-39.357067009917721
 30
0.0
 11
197.83866089364611
 21
-42.82116862505552
 31
0.0
  0
LINE
  5
E0
  8
1
 62
     7
 10
197.83866089364611
 20
-42.82116862505552
 30
0.0
 11
200.83866089364611
 21
-44.553219432624353
 31
0.0
  0
LINE
  5
E1
  8
1
 62
     7
 10
302.00710059171621
 20
102.9628453257998
 30
0.0
 11
299.00710059171621
 21
101.23079451823079
 31
0.0
  0
LINE
  5
E2
  8
1
 62
     7
 10
305.00710059171621
 20
101.23079451823079
 30
0.0
 11
302.00710059171621
 21
102.9628453257998
 31
0.0
  0
LINE
  5
E3
  8
1
 62
     7
 10
305.00710059171621
 20
97.766692903093073
 30
0.0
 11
305.00710059171621
 21
101.23079451823079
 31
0.0
  0
LINE
  5
E4
  8
1
 62
     7
 10
302.00710059171621
 20
96.034642095524205
 30
0.0
 11
305.00710059171621
 21
97.766692903093073
 31
0.0
  0
LINE
  5
E5
  8
1
 62
     7
 10
299.00710059171621
 20
97.766692903093073
 30
0.0
 11
302.00710059171621
 21
96.034642095524205
 31
0.0
  0
LINE
  5
E6
  8
1
 62
     7
 10
299.00710059171621
 20
101.23079451823079
 30
0.0
 11
299.00710059171621
 21
97.766692903093073
 31
0.0
  0
LINE
  5
E7
  8
1
 62
     7
 10
285.00710059171621
 20
97.766692903093073
 30
0.0
 11
285.00710059171621
 21
101.23079451823079
 31
0.0
  0
LINE
  5
E8
  8
1
 62
     7
 10
282.00710059171621
 20
96.034642095524205
 30
0.0
 11
285.00710059171621
 21
97.766692903093073
 31
0.0
  0
LINE
  5
E9
  8
1
 62
     7
 10
279.00710059171621
 20
97.766692903093073
 30
0.0
 11
282.00710059171621
 21
96.034642095524205
 31
0.0
  0
LINE
  5
EA
  8
1
 62
     7
 10
279.00710059171621
 20
101.23079451823079
 30
0.0
 11
279.00710059171621
 21
97.766692903093073
 31
0.0
  0
LINE
  5
EB
  8
1
 62
     7
 10
282.00710059171621
 20
102.9628453257998
 30
0.0
 11
279.00710059171621
 21
101.23079451823079
 31
0.0
  0
LINE
  5
EC
  8
1
 62
     7
 10
285.00710059171621
 20
101.23079451823079
 30
0.0
 11
282.00710059171621
 21
102.9628453257998
 31
0.0
  0
LINE
  5
ED
  8
1
  6
DASHDOT
 62
     3
 10
247.76940065759791
 20
-25.54064796529326
 30
0.0
 11
233.98339853815889
 21
-33.500000000000441
 31
0.0
  0
LINE
  5
EE
  8
1
  6
DASHDOT
 62
     3
 10
336.24480052583408
 20
25.540647965293029
 30
0.0
 11
350.03080264527352
 21
33.5
 31
0.0
  0
LINE
  5
EF
  8
1
 62
     7
 10
57.5
 20
-68.335055000106749
 30
0.0
 11
57.5
 21
-110.4999999999999
 31
0.0
  0
LINE
  5
F0
  8
1
 62
     3
 10
55.166945797949218
 20
-59.0
 30
0.0
 11
88.187173292351176
 21
-59.0
 31
0.0
  0
LINE
  5
F1
  8
1
 62
     3
 10
68.532050807569021
 20
-64.0
 30
0.0
 11
68.532050807569021
 21
-54.0
 31
0.0
  0
LINE
  5
F2
  8
1
 62
     3
 10
68.532050807569021
 20
-55.0
 30
0.0
 11
66.800000000000182
 21
-54.0
 31
0.0
  0
LINE
  5
F3
  8
1
 62
     3
 10
86.300000000000225
 20
-55.0
 30
0.0
 11
68.532050807569021
 21
-55.0
 31
0.0
  0
LINE
  5
F4
  8
1
 62
     3
 10
68.532050807569021
 20
-63.0
 30
0.0
 11
66.800000000000182
 21
-64.0
 31
0.0
  0
LINE
  5
F5
  8
1
 62
     3
 10
86.300000000000225
 20
-63.0
 30
0.0
 11
68.532050807569021
 21
-63.0
 31
0.0
  0
LINE
  5
F6
  8
1
 62
     7
 10
85.300000000000196
 20
-64.0
 30
0.0
 11
85.300000000000196
 21
-54.0
 31
0.0
  0
LINE
  5
F7
  8
1
 62
     7
 10
85.300000000000196
 20
-54.0
 30
0.0
 11
66.300000000000182
 21
-54.0
 31
0.0
  0
LINE
  5
F8
  8
1
 62
     7
 10
86.300000000000225
 20
-55.0
 30
0.0
 11
85.300000000000196
 21
-54.0
 31
0.0
  0
LINE
  5
F9
  8
1
 62
     7
 10
86.300000000000225
 20
-63.0
 30
0.0
 11
86.300000000000225
 21
-55.0
 31
0.0
  0
LINE
  5
FA
  8
1
 62
     7
 10
85.300000000000196
 20
-64.0
 30
0.0
 11
86.300000000000225
 21
-63.0
 31
0.0
  0
LINE
  5
FB
  8
1
 62
     7
 10
66.300000000000182
 20
-64.0
 30
0.0
 11
85.300000000000196
 21
-64.0
 31
0.0
  0
LINE
  5
FC
  8
1
 62
     7
 10
56.900000000000112
 20
-67.0
 30
0.0
 11
56.900000000000112
 21
-51.0
 31
0.0
  0
LINE
  5
FD
  8
1
 62
     7
 10
56.900000000000112
 20
-51.0
 30
0.0
 11
66.300000000000182
 21
-51.0
 31
0.0
  0
LINE
  5
FE
  8
1
 62
     7
 10
56.300000000000189
 20
-52.039230484541349
 30
0.0
 11
56.900000000000112
 21
-51.0
 31
0.0
  0
LINE
  5
FF
  8
1
 62
     7
 10
56.300000000000189
 20
-65.960769515458651
 30
0.0
 11
56.300000000000189
 21
-52.039230484541349
 31
0.0
  0
LINE
  5
100
  8
1
 62
     7
 10
56.900000000000112
 20
-67.0
 30
0.0
 11
56.300000000000189
 21
-65.960769515458651
 31
0.0
  0
LINE
  5
101
  8
1
 62
     7
 10
66.300000000000182
 20
-67.0
 30
0.0
 11
56.900000000000112
 21
-67.0
 31
0.0
  0
LINE
  5
102
  8
1
 62
     7
 10
69.200000000000045
 20
-109.0
 30
0.0
 11
71.0
 21
-109.0
 31
0.0
  0
LINE
  5
103
  8
1
 62
     7
 10
71.0
 20
-64.25
 30
0.0
 11
71.0
 21
-109.0
 31
0.0
  0
LINE
  5
104
  8
1
 62
     7
 10
69.200000000000045
 20
-64.25
 30
0.0
 11
69.200000000000045
 21
-109.0
 31
0.0
  0
LINE
  5
105
  8
1
 62
     7
 10
57.5
 20
-110.4999999999999
 30
0.0
 11
68.400000000000105
 21
-110.4999999999999
 31
0.0
  0
LINE
  5
106
  8
1
 62
     7
 10
68.400000000000105
 20
-80.0
 30
0.0
 11
68.400000000000105
 21
-110.4999999999999
 31
0.0
  0
LINE
  5
107
  8
1
 62
     7
 10
66.300000000000182
 20
-80.0
 30
0.0
 11
68.400000000000105
 21
-80.0
 31
0.0
  0
LINE
  5
108
  8
1
 62
     7
 10
69.200000000000045
 20
-78.5
 30
0.0
 11
66.300000000000182
 21
-78.5
 31
0.0
  0
LINE
  5
109
  8
1
 62
     7
 10
69.200000000000045
 20
-47.0
 30
0.0
 11
66.300000000000182
 21
-47.0
 31
0.0
  0
LINE
  5
10A
  8
1
 62
     7
 10
71.0
 20
-46.0
 30
0.0
 11
69.200000000000045
 21
-46.0
 31
0.0
  0
LINE
  5
10B
  8
1
 62
     7
 10
68.400000000000105
 20
91.0
 30
0.0
 11
70.200000000000045
 21
91.0
 31
0.0
  0
LINE
  5
10C
  8
1
 62
     7
 10
69.200000000000045
 20
75.0
 30
0.0
 11
71.0
 21
75.0
 31
0.0
  0
LINE
  5
10D
  8
1
 62
     7
 10
79.300000000000196
 20
106.4999999999999
 30
0.0
 11
79.300000000000196
 21
93.499999999999986
 31
0.0
  0
LINE
  5
10E
  8
1
 62
     7
 10
71.800000000000196
 20
93.499999999999986
 30
0.0
 11
71.800000000000196
 21
106.4999999999999
 31
0.0
  0
LINE
  5
10F
  8
1
 62
     7
 10
79.300000000000196
 20
93.499999999999986
 30
0.0
 11
71.800000000000196
 21
93.499999999999986
 31
0.0
  0
LINE
  5
110
  8
1
 62
     7
 10
79.800000000000196
 20
94.366025403784434
 30
0.0
 11
79.300000000000196
 21
93.499999999999986
 31
0.0
  0
LINE
  5
111
  8
1
 62
     7
 10
79.800000000000196
 20
105.6339745962155
 30
0.0
 11
79.800000000000196
 21
94.366025403784434
 31
0.0
  0
LINE
  5
112
  8
1
 62
     7
 10
79.300000000000196
 20
106.4999999999999
 30
0.0
 11
79.800000000000196
 21
105.6339745962155
 31
0.0
  0
LINE
  5
113
  8
1
 62
     7
 10
71.800000000000196
 20
106.4999999999999
 30
0.0
 11
79.300000000000196
 21
106.4999999999999
 31
0.0
  0
LINE
  5
114
  8
1
 62
     7
 10
70.200000000000045
 20
92.249999999999986
 30
0.0
 11
70.200000000000045
 21
107.75
 31
0.0
  0
LINE
  5
115
  8
1
 62
     7
 10
71.800000000000196
 20
92.249999999999986
 30
0.0
 11
70.200000000000045
 21
92.249999999999986
 31
0.0
  0
LINE
  5
116
  8
1
 62
     7
 10
71.800000000000196
 20
107.75
 30
0.0
 11
71.800000000000196
 21
92.249999999999986
 31
0.0
  0
LINE
  5
117
  8
1
 62
     7
 10
70.200000000000045
 20
107.75
 30
0.0
 11
71.800000000000196
 21
107.75
 31
0.0
  0
LINE
  5
118
  8
1
 62
     7
 10
69.200000000000045
 20
46.0
 30
0.0
 11
71.0
 21
46.0
 31
0.0
  0
LINE
  5
119
  8
1
 62
     7
 10
68.400000000000105
 20
81.485640646055785
 30
0.0
 11
69.200000000000045
 21
78.5
 31
0.0
  0
LINE
  5
11A
  8
1
 62
     7
 10
71.0
 20
78.5
 30
0.0
 11
71.0
 21
-53.75
 31
0.0
  0
LINE
  5
11B
  8
1
 62
     7
 10
70.200000000000045
 20
81.72261514171349
 30
0.0
 11
71.0
 21
78.5
 31
0.0
  0
LINE
  5
11C
  8
1
 62
     7
 10
70.200000000000045
 20
109.0
 30
0.0
 11
70.200000000000045
 21
81.72261514171349
 31
0.0
  0
LINE
  5
11D
  8
1
 62
     7
 10
68.400000000000105
 20
109.0
 30
0.0
 11
70.200000000000045
 21
109.0
 31
0.0
  0
LINE
  5
11E
  8
1
 62
     7
 10
57.5
 20
110.4999999999999
 30
0.0
 11
57.5
 21
-49.512561131927789
 31
0.0
  0
LINE
  5
11F
  8
1
 62
     7
 10
57.5
 20
72.5
 30
0.0
 11
66.300000000000182
 21
72.5
 31
0.0
  0
LINE
  5
120
  8
1
 62
     7
 10
66.300000000000182
 20
47.0
 30
0.0
 11
69.200000000000045
 21
47.0
 31
0.0
  0
LINE
  5
121
  8
1
 62
     7
 10
69.200000000000045
 20
78.5
 30
0.0
 11
69.200000000000045
 21
-53.75
 31
0.0
  0
LINE
  5
122
  8
1
 62
     7
 10
66.300000000000182
 20
78.5
 30
0.0
 11
69.200000000000045
 21
78.5
 31
0.0
  0
LINE
  5
123
  8
1
 62
     7
 10
66.300000000000182
 20
80.0
 30
0.0
 11
66.300000000000182
 21
-80.0
 31
0.0
  0
LINE
  5
124
  8
1
 62
     7
 10
68.400000000000105
 20
80.0
 30
0.0
 11
66.300000000000182
 21
80.0
 31
0.0
  0
LINE
  5
125
  8
1
 62
     7
 10
68.400000000000105
 20
110.4999999999999
 30
0.0
 11
68.400000000000105
 21
80.0
 31
0.0
  0
LINE
  5
126
  8
1
 62
     7
 10
57.5
 20
110.4999999999999
 30
0.0
 11
68.400000000000105
 21
110.4999999999999
 31
0.0
  0
LINE
  5
127
  8
1
 62
     7
 10
18.93518434228417
 20
113.6480232364875
 30
0.0
 11
18.93518434228417
 21
103.59999999999999
 31
0.0
  0
LINE
  5
128
  8
1
 62
     7
 10
20.93518434228417
 20
113.6480232364875
 30
0.0
 11
20.93518434228417
 21
103.59999999999999
 31
0.0
  0
LINE
  5
129
  8
1
 62
     7
 10
8.0
 20
103.59999999999999
 30
0.0
 11
43.0
 21
103.59999999999999
 31
0.0
  0
LINE
  5
12A
  8
1
 62
     7
 10
53.600000000000144
 20
-27.809292331176941
 30
0.0
 11
53.600000000000144
 21
-72.999999999999901
 31
0.0
  0
LINE
  5
12B
  8
1
 62
     3
 10
-9.9999999999999627
 20
0.0
 30
0.0
 11
0.0
 21
0.0
 31
0.0
  0
LINE
  5
12C
  8
1
 62
     7
 10
57.000000000000007
 20
-68.342530981492359
 30
0.0
 11
57.000000000000007
 21
-109.9999999999998
 31
0.0
  0
LINE
  5
12D
  8
1
 62
     7
 10
6.0
 20
-32.499999999999893
 30
0.0
 11
29.0
 21
-32.499999999999893
 31
0.0
  0
LINE
  5
12E
  8
1
 62
     7
 10
34.0
 20
-39.999999999999893
 30
0.0
 11
29.0
 21
-39.999999999999893
 31
0.0
  0
LINE
  5
12F
  8
1
 62
     7
 10
34.0
 20
-58.999999999999893
 30
0.0
 11
34.0
 21
-39.999999999999893
 31
0.0
  0
LINE
  5
130
  8
1
 62
     7
 10
45.0
 20
-58.999999999999893
 30
0.0
 11
34.0
 21
-58.999999999999893
 31
0.0
  0
LINE
  5
131
  8
1
 62
     7
 10
45.0
 20
-80.999999999999901
 30
0.0
 11
45.0
 21
-58.999999999999893
 31
0.0
  0
LINE
  5
132
  8
1
 62
     7
 10
49.0
 20
-80.999999999999901
 30
0.0
 11
45.0
 21
-80.999999999999901
 31
0.0
  0
LINE
  5
133
  8
1
 62
     7
 10
49.0
 20
-104.4999999999999
 30
0.0
 11
49.0
 21
-80.999999999999901
 31
0.0
  0
LINE
  5
134
  8
1
 62
     7
 10
34.0
 20
-107.9999999999998
 30
0.0
 11
34.0
 21
-104.4999999999999
 31
0.0
  0
LINE
  5
135
  8
1
 62
     7
 10
36.0
 20
-109.9999999999998
 30
0.0
 11
57.000000000000007
 21
-109.9999999999998
 31
0.0
  0
LINE
  5
136
  8
1
 62
     7
 10
53.0
 20
-20.0
 30
0.0
 11
0.0
 21
-19.99999999999989
 31
0.0
  0
LINE
  5
137
  8
1
 62
     7
 10
53.600000000000144
 20
-72.999999999999901
 30
0.0
 11
57.000000000000007
 21
-72.999999999999901
 31
0.0
  0
LINE
  5
138
  8
1
 62
     7
 10
53.600000000000144
 20
-29.99999999999989
 30
0.0
 11
53.0
 21
-29.99999999999989
 31
0.0
  0
LINE
  5
139
  8
1
 62
     7
 10
34.0
 20
-107.9999999999998
 30
0.0
 11
36.0
 21
-109.9999999999998
 31
0.0
  0
LINE
  5
13A
  8
1
 62
     7
 10
0.0
 20
-31.49999999999989
 30
0.0
 11
1.0
 21
-32.499999999999893
 31
0.0
  0
LINE
  5
13B
  8
1
 62
     7
 10
34.0
 20
-104.4999999999999
 30
0.0
 11
49.0
 21
-104.4999999999999
 31
0.0
  0
LINE
  5
13C
  8
1
 62
     7
 10
3.5
 20
-39.225386608210677
 30
0.0
 11
6.0
 21
-39.225386608210677
 31
0.0
  0
LINE
  5
13D
  8
1
 62
     7
 10
6.0
 20
-31.49999999999989
 30
0.0
 11
3.5
 21
-31.49999999999989
 31
0.0
  0
LINE
  5
13E
  8
1
 62
     7
 10
3.5
 20
-31.49999999999989
 30
0.0
 11
3.5
 21
-39.225386608210677
 31
0.0
  0
LINE
  5
13F
  8
1
 62
     7
 10
1.0
 20
-32.499999999999893
 30
0.0
 11
3.5
 21
-32.499999999999893
 31
0.0
  0
LINE
  5
140
  8
1
 62
     7
 10
33.0
 20
-53.77461339178911
 30
0.0
 11
29.0
 21
-53.77461339178911
 31
0.0
  0
LINE
  5
141
  8
1
 62
     7
 10
33.0
 20
-61.499999999999893
 30
0.0
 11
29.0
 21
-61.499999999999893
 31
0.0
  0
LINE
  5
142
  8
1
 62
     7
 10
3.1000000000001431
 20
80.0
 30
0.0
 11
6.0
 21
80.0
 31
0.0
  0
LINE
  5
143
  8
1
 62
     7
 10
3.1000000000001431
 20
115.7499999999999
 30
0.0
 11
6.0
 21
115.7499999999999
 31
0.0
  0
LINE
  5
144
  8
1
  6
DASHDOT
 62
     3
 10
1.8142987857882029
 20
120.0
 30
0.0
 11
7.9345868887780933
 21
120.0
 31
0.0
  0
LINE
  5
145
  8
1
 62
     7
 10
3.1000000000001431
 20
124.2499999999999
 30
0.0
 11
6.0
 21
124.2499999999999
 31
0.0
  0
LINE
  5
146
  8
1
 62
     7
 10
3.1000000000001431
 20
130.0
 30
0.0
 11
6.0
 21
130.0
 31
0.0
  0
LINE
  5
147
  8
1
 62
     7
 10
3.1000000000001431
 20
130.0
 30
0.0
 11
3.1000000000001431
 21
80.0
 31
0.0
  0
LINE
  5
148
  8
1
 62
     7
 10
6.0
 20
78.953427933299508
 30
0.0
 11
6.0
 21
101.0
 31
0.0
  0
LINE
  5
149
  8
1
 62
     7
 10
43.0
 20
103.59999999999999
 30
0.0
 11
43.0
 21
60.589280623556299
 31
0.0
  0
LINE
  5
14A
  8
1
 62
     7
 10
29.0
 20
61.5
 30
0.0
 11
33.0
 21
61.5
 31
0.0
  0
LINE
  5
14B
  8
1
 62
     7
 10
29.0
 20
53.77461339178921
 30
0.0
 11
33.0
 21
53.77461339178921
 31
0.0
  0
LINE
  5
14C
  8
1
 62
     7
 10
3.5
 20
32.5
 30
0.0
 11
1.0
 21
32.5
 31
0.0
  0
LINE
  5
14D
  8
1
 62
     7
 10
3.5
 20
39.225386608210783
 30
0.0
 11
3.5
 21
31.5
 31
0.0
  0
LINE
  5
14E
  8
1
 62
     7
 10
3.5
 20
31.5
 30
0.0
 11
6.0
 21
31.5
 31
0.0
  0
LINE
  5
14F
  8
1
 62
     7
 10
1.0
 20
32.5
 30
0.0
 11
0.0
 21
31.5
 31
0.0
  0
LINE
  5
150
  8
1
 62
     7
 10
36.0
 20
110.0
 30
0.0
 11
34.0
 21
108.0
 31
0.0
  0
LINE
  5
151
  8
1
 62
     7
 10
53.0
 20
30.0
 30
0.0
 11
53.600000000000144
 21
30.0
 31
0.0
  0
LINE
  5
152
  8
1
 62
     7
 10
53.600000000000144
 20
73.0
 30
0.0
 11
53.600000000000144
 21
28.20721140253562
 31
0.0
  0
LINE
  5
153
  8
1
 62
     7
 10
57.000000000000007
 20
73.0
 30
0.0
 11
53.600000000000144
 21
73.0
 31
0.0
  0
LINE
  5
154
  8
1
 62
     7
 10
53.0
 20
30.0
 30
0.0
 11
53.0
 21
-29.99999999999989
 31
0.0
  0
LINE
  5
155
  8
1
 62
     7
 10
0.0
 20
20.0
 30
0.0
 11
53.0
 21
20.0
 31
0.0
  0
LINE
  5
156
  8
1
 62
     7
 10
53.0
 20
23.5
 30
0.0
 11
0.0
 21
23.5
 31
0.0
  0
LINE
  5
157
  8
1
 62
     7
 10
57.000000000000007
 20
110.0
 30
0.0
 11
36.0
 21
110.0
 31
0.0
  0
LINE
  5
158
  8
1
 62
     7
 10
45.0
 20
81.0
 30
0.0
 11
49.0
 21
81.0
 31
0.0
  0
LINE
  5
159
  8
1
 62
     7
 10
34.0
 20
40.0
 30
0.0
 11
34.0
 21
59.0
 31
0.0
  0
LINE
  5
15A
  8
1
 62
     7
 10
29.0
 20
40.0
 30
0.0
 11
34.0
 21
40.0
 31
0.0
  0
LINE
  5
15B
  8
1
 62
     7
 10
29.0
 20
32.5
 30
0.0
 11
6.0
 21
32.5
 31
0.0
  0
LINE
  5
15C
  8
1
 62
     7
 10
0.0
 20
-31.49999999999989
 30
0.0
 11
0.0
 21
31.5
 31
0.0
  0
LINE
  5
15D
  8
1
 62
     7
 10
33.0
 20
-61.499999999999893
 30
0.0
 11
33.0
 21
-46.652089606361528
 31
0.0
  0
LINE
  5
15E
  8
1
 62
     7
 10
49.0
 20
104.4999999999999
 30
0.0
 11
49.0
 21
81.0
 31
0.0
  0
LINE
  5
15F
  8
1
 62
     7
 10
45.0
 20
81.0
 30
0.0
 11
45.0
 21
59.0
 31
0.0
  0
LINE
  5
160
  8
1
 62
     7
 10
6.0
 20
-78.953427933299409
 30
0.0
 11
6.0
 21
-101.59999999999999
 31
0.0
  0
LINE
  5
161
  8
1
 62
     7
 10
43.0
 20
-103.59999999999999
 30
0.0
 11
8.0
 21
-103.59999999999999
 31
0.0
  0
LINE
  5
162
  8
1
 62
     7
 10
43.0
 20
-60.0
 30
0.0
 11
43.0
 21
-103.59999999999999
 31
0.0
  0
LINE
  5
163
  8
1
 62
     7
 10
8.0
 20
-103.59999999999999
 30
0.0
 11
6.0
 21
-101.59999999999999
 31
0.0
  0
LINE
  5
164
  8
1
 62
     7
 10
6.0
 20
-60.0
 30
0.0
 11
29.0
 21
-60.0
 31
0.0
  0
LINE
  5
165
  8
1
 62
     7
 10
33.0
 20
-60.0
 30
0.0
 11
43.0
 21
-60.0
 31
0.0
  0
LINE
  5
166
  8
1
 62
     7
 10
21.625
 20
-39.105290418778281
 30
0.0
 11
29.0
 21
-39.105290418778281
 31
0.0
  0
LINE
  5
167
  8
1
 62
     7
 10
13.375
 20
-39.105290418778281
 30
0.0
 11
6.0
 21
-39.105290418778281
 31
0.0
  0
LINE
  5
168
  8
1
 62
     7
 10
13.375
 20
-53.394709581221491
 30
0.0
 11
6.0
 21
-53.394709581221491
 31
0.0
  0
LINE
  5
169
  8
1
 62
     7
 10
21.625
 20
-53.394709581221491
 30
0.0
 11
29.0
 21
-53.394709581221491
 31
0.0
  0
LINE
  5
16A
  8
1
 62
     3
 10
26.700000000000049
 20
-54.5
 30
0.0
 11
26.700000000000049
 21
-37.999999999999893
 31
0.0
  0
LINE
  5
16B
  8
1
 62
     3
 10
8.3000000000001961
 20
-54.5
 30
0.0
 11
8.3000000000001961
 21
-37.999999999999893
 31
0.0
  0
LINE
  5
16C
  8
1
 62
     7
 10
6.0
 20
39.225386608210783
 30
0.0
 11
3.5
 21
39.225386608210783
 31
0.0
  0
LINE
  5
16D
  8
1
 62
     7
 10
45.0
 20
59.0
 30
0.0
 11
34.0
 21
59.0
 31
0.0
  0
LINE
  5
16E
  8
1
 62
     7
 10
29.0
 20
60.0
 30
0.0
 11
6.0
 21
60.0
 31
0.0
  0
LINE
  5
16F
  8
1
 62
     7
 10
33.0
 20
60.0
 30
0.0
 11
43.0
 21
60.0
 31
0.0
  0
LINE
  5
170
  8
1
 62
     7
 10
33.0
 20
61.5
 30
0.0
 11
33.0
 21
47.013685371289633
 31
0.0
  0
LINE
  5
171
  8
1
 62
     7
 10
43.0
 20
60.0
 30
0.0
 11
43.0
 21
60.589280623556299
 31
0.0
  0
LINE
  5
172
  8
1
 62
     7
 10
43.0
 20
60.589280623556299
 30
0.0
 11
43.0
 21
60.5
 31
0.0
  0
LINE
  5
173
  8
1
 62
     7
 10
21.625
 20
53.394709581221591
 30
0.0
 11
29.0
 21
53.394709581221591
 31
0.0
  0
LINE
  5
174
  8
1
 62
     7
 10
13.375
 20
53.394709581221591
 30
0.0
 11
6.0
 21
53.394709581221591
 31
0.0
  0
LINE
  5
175
  8
1
 62
     7
 10
13.375
 20
39.105290418778402
 30
0.0
 11
6.0
 21
39.105290418778402
 31
0.0
  0
LINE
  5
176
  8
1
 62
     7
 10
21.625
 20
39.105290418778402
 30
0.0
 11
29.0
 21
39.105290418778402
 31
0.0
  0
LINE
  5
177
  8
1
 62
     3
 10
26.700000000000049
 20
38.0
 30
0.0
 11
26.700000000000049
 21
54.5
 31
0.0
  0
LINE
  5
178
  8
1
 62
     3
 10
8.3000000000001961
 20
38.0
 30
0.0
 11
8.3000000000001961
 21
54.5
 31
0.0
  0
LINE
  5
179
  8
1
 62
     7
 10
6.0
 20
101.59999999999999
 30
0.0
 11
6.0
 21
130.0
 31
0.0
  0
LINE
  5
17A
  8
1
 62
     7
 10
49.0
 20
104.4999999999999
 30
0.0
 11
34.0
 21
104.4999999999999
 31
0.0
  0
LINE
  5
17B
  8
1
 62
     7
 10
34.0
 20
104.4999999999999
 30
0.0
 11
34.0
 21
108.0
 31
0.0
  0
LINE
  5
17C
  8
1
 62
     7
 10
8.0
 20
103.59999999999999
 30
0.0
 11
6.0
 21
101.59999999999999
 31
0.0
  0
LINE
  5
17D
  8
1
 62
     7
 10
6.0
 20
101.59999999999999
 30
0.0
 11
6.0
 21
86.824743801442807
 31
0.0
  0
LINE
  5
17E
  8
1
 62
     7
 10
-400.68579881656802
 20
19.364916731036999
 30
0.0
 11
-400.68579881656802
 21
23.5
 31
0.0
  0
LINE
  5
17F
  8
1
 62
     7
 10
-400.68579881656802
 20
23.5
 30
0.0
 11
-390.68579881656791
 21
23.5
 31
0.0
  0
LINE
  5
180
  8
1
 62
     7
 10
-390.68579881656791
 20
23.5
 30
0.0
 11
-390.68579881656791
 21
19.364916731036999
 31
0.0
  0
LINE
  5
181
  8
1
 62
     7
 10
-415.68579881656791
 20
80.0
 30
0.0
 11
-415.68579881656791
 21
92.0
 31
0.0
  0
LINE
  5
182
  8
1
 62
     7
 10
-412.68579881656802
 20
95.0
 30
0.0
 11
-410.68579881656791
 21
95.0
 31
0.0
  0
LINE
  5
183
  8
1
 62
     7
 10
-407.68579881656791
 20
127.0
 30
0.0
 11
-407.68579881656791
 21
98.0
 31
0.0
  0
LINE
  5
184
  8
1
 62
     7
 10
-404.68579881656802
 20
130.0
 30
0.0
 11
-386.68579881656802
 21
130.0
 31
0.0
  0
LINE
  5
185
  8
1
 62
     7
 10
-383.68579881656791
 20
127.0
 30
0.0
 11
-383.68579881656791
 21
98.0
 31
0.0
  0
LINE
  5
186
  8
1
 62
     7
 10
-380.68579881656791
 20
95.0
 30
0.0
 11
-378.68579881656791
 21
95.0
 31
0.0
  0
LINE
  5
187
  8
1
 62
     7
 10
-375.68579881656791
 20
80.0
 30
0.0
 11
-375.68579881656791
 21
92.0
 31
0.0
  0
LINE
  5
188
  8
1
 62
     7
 10
-375.68579881656791
 20
80.0
 30
0.0
 11
-415.68579881656791
 21
80.0
 31
0.0
  0
LINE
  5
189
  8
1
 62
     7
 10
-384.18579881656791
 20
-31.973656783693059
 30
0.0
 11
-384.18579881656791
 21
-35.243366656181372
 31
0.0
  0
LINE
  5
18A
  8
1
 62
     7
 10
-407.18579881656791
 20
-31.973656783693059
 30
0.0
 11
-407.18579881656791
 21
-35.243366656181372
 31
0.0
  0
LINE
  5
18B
  8
1
 62
     7
 10
-389.18579881656791
 20
-31.84336665618126
 30
0.0
 11
-389.18579881656791
 21
-37.743366656181372
 31
0.0
  0
LINE
  5
18C
  8
1
 62
     7
 10
-389.18579881656791
 20
-37.743366656181372
 30
0.0
 11
-386.68579881656802
 21
-37.743366656181372
 31
0.0
  0
LINE
  5
18D
  8
1
 62
     7
 10
-402.18579881656791
 20
-31.84336665618126
 30
0.0
 11
-402.18579881656791
 21
-37.743366656181372
 31
0.0
  0
LINE
  5
18E
  8
1
 62
     7
 10
-402.18579881656791
 20
-37.743366656181372
 30
0.0
 11
-404.68579881656802
 21
-37.743366656181372
 31
0.0
  0
LINE
  5
18F
  8
1
 62
     7
 10
287.00710059171621
 20
19.364916731036999
 30
0.0
 11
287.00710059171621
 21
23.5
 31
0.0
  0
LINE
  5
190
  8
1
 62
     7
 10
287.00710059171621
 20
23.5
 30
0.0
 11
297.00710059171621
 21
23.5
 31
0.0
  0
LINE
  5
191
  8
1
 62
     7
 10
297.00710059171621
 20
23.5
 30
0.0
 11
297.00710059171621
 21
19.364916731036999
 31
0.0
  0
LINE
  5
192
  8
1
 62
     7
 10
259.06258823472501
 20
113.2913356839784
 30
0.0
 11
261.00010202219011
 21
106.0604357887962
 31
0.0
  0
LINE
  5
193
  8
1
 62
     7
 10
263.93638522992211
 20
114.4205941979115
 30
0.0
 11
265.82973115363512
 21
107.354531014309
 31
0.0
  0
LINE
  5
194
  8
1
 62
     7
 10
57.000000000000007
 20
-49.402162110954812
 30
0.0
 11
57.000000000000007
 21
110.0
 31
0.0
  0
LINE
  5
195
  8
1
 62
     7
 10
-164.0
 20
-78.953427933299409
 30
0.0
 11
-167.0
 21
-78.953427933299409
 31
0.0
  0
LINE
  5
196
  8
1
 62
     7
 10
-164.0
 20
78.953427933299508
 30
0.0
 11
-165.41135494962839
 21
78.953427933299508
 31
0.0
  0
LINE
  5
197
  8
1
 62
     3
 10
-83.699999999999804
 20
-55.0
 30
0.0
 11
-99.0
 21
-55.0
 31
0.0
  0
LINE
  5
198
  8
1
 62
     3
 10
-83.699999999999804
 20
-63.0
 30
0.0
 11
-99.0
 21
-63.0
 31
0.0
  0
LINE
  5
199
  8
1
 62
     7
 10
-84.699999999999804
 20
-64.0
 30
0.0
 11
-84.699999999999804
 21
-54.0
 31
0.0
  0
LINE
  5
19A
  8
1
 62
     7
 10
-84.699999999999804
 20
-54.0
 30
0.0
 11
-99.0
 21
-54.0
 31
0.0
  0
LINE
  5
19B
  8
1
 62
     7
 10
-83.699999999999804
 20
-55.0
 30
0.0
 11
-84.699999999999804
 21
-54.0
 31
0.0
  0
LINE
  5
19C
  8
1
 62
     7
 10
-83.699999999999804
 20
-63.0
 30
0.0
 11
-83.699999999999804
 21
-55.0
 31
0.0
  0
LINE
  5
19D
  8
1
 62
     7
 10
-84.699999999999804
 20
-64.0
 30
0.0
 11
-83.699999999999804
 21
-63.0
 31
0.0
  0
LINE
  5
19E
  8
1
 62
     7
 10
-100.7999999999998
 20
-109.0
 30
0.0
 11
-99.0
 21
-109.0
 31
0.0
  0
LINE
  5
19F
  8
1
 62
     7
 10
-112.5
 20
-110.4999999999999
 30
0.0
 11
-101.59999999999989
 21
-110.4999999999999
 31
0.0
  0
LINE
  5
1A0
  8
1
 62
     7
 10
-100.7999999999998
 20
-78.5
 30
0.0
 11
-101.59999999999989
 21
-78.5
 31
0.0
  0
LINE
  5
1A1
  8
1
 62
     7
 10
-90.699999999999804
 20
106.4999999999999
 30
0.0
 11
-90.699999999999804
 21
93.499999999999986
 31
0.0
  0
LINE
  5
1A2
  8
1
 62
     7
 10
-90.699999999999804
 20
93.499999999999986
 30
0.0
 11
-98.199999999999804
 21
93.499999999999986
 31
0.0
  0
LINE
  5
1A3
  8
1
 62
     7
 10
-90.199999999999804
 20
94.366025403784434
 30
0.0
 11
-90.699999999999804
 21
93.499999999999986
 31
0.0
  0
LINE
  5
1A4
  8
1
 62
     7
 10
-90.199999999999804
 20
105.6339745962155
 30
0.0
 11
-90.199999999999804
 21
94.366025403784434
 31
0.0
  0
LINE
  5
1A5
  8
1
 62
     7
 10
-90.699999999999804
 20
106.4999999999999
 30
0.0
 11
-90.199999999999804
 21
105.6339745962155
 31
0.0
  0
LINE
  5
1A6
  8
1
 62
     7
 10
-98.199999999999804
 20
106.4999999999999
 30
0.0
 11
-90.699999999999804
 21
106.4999999999999
 31
0.0
  0
LINE
  5
1A7
  8
1
 62
     7
 10
-99.799999999999926
 20
92.249999999999986
 30
0.0
 11
-99.799999999999926
 21
107.75
 31
0.0
  0
LINE
  5
1A8
  8
1
 62
     7
 10
-98.199999999999804
 20
92.249999999999986
 30
0.0
 11
-99.799999999999926
 21
92.249999999999986
 31
0.0
  0
LINE
  5
1A9
  8
1
 62
     7
 10
-98.199999999999804
 20
107.75
 30
0.0
 11
-98.199999999999804
 21
92.249999999999986
 31
0.0
  0
LINE
  5
1AA
  8
1
 62
     7
 10
-99.799999999999926
 20
107.75
 30
0.0
 11
-98.199999999999804
 21
107.75
 31
0.0
  0
LINE
  5
1AB
  8
1
 62
     7
 10
-101.59999999999989
 20
81.485640646055785
 30
0.0
 11
-100.7999999999998
 21
78.5
 31
0.0
  0
LINE
  5
1AC
  8
1
 62
     7
 10
-99.0
 20
78.5
 30
0.0
 11
-99.0
 21
-109.0
 31
0.0
  0
LINE
  5
1AD
  8
1
 62
     7
 10
-99.799999999999926
 20
81.72261514171349
 30
0.0
 11
-99.0
 21
78.5
 31
0.0
  0
LINE
  5
1AE
  8
1
 62
     7
 10
-99.799999999999926
 20
109.0
 30
0.0
 11
-99.799999999999926
 21
81.72261514171349
 31
0.0
  0
LINE
  5
1AF
  8
1
 62
     7
 10
-101.59999999999989
 20
109.0
 30
0.0
 11
-99.799999999999926
 21
109.0
 31
0.0
  0
LINE
  5
1B0
  8
1
 62
     7
 10
-112.5
 20
110.4999999999999
 30
0.0
 11
-112.5
 21
-110.4999999999999
 31
0.0
  0
LINE
  5
1B1
  8
1
 62
     7
 10
-100.7999999999998
 20
78.5
 30
0.0
 11
-100.7999999999998
 21
-109.0
 31
0.0
  0
LINE
  5
1B2
  8
1
 62
     7
 10
-112.5
 20
110.4999999999999
 30
0.0
 11
-101.59999999999989
 21
110.4999999999999
 31
0.0
  0
LINE
  5
1B3
  8
1
 62
     7
 10
-162.0
 20
103.59999999999999
 30
0.0
 11
-136.0
 21
103.59999999999999
 31
0.0
  0
LINE
  5
1B4
  8
1
 62
     3
 10
-180.0
 20
0.0
 30
0.0
 11
-170.0
 21
0.0
 31
0.0
  0
LINE
  5
1B5
  8
1
 62
     7
 10
-113.0
 20
-109.9999999999998
 30
0.0
 11
-113.0
 21
110.0
 31
0.0
  0
LINE
  5
1B6
  8
1
 62
     7
 10
-134.0
 20
-109.9999999999998
 30
0.0
 11
-113.0
 21
-109.9999999999998
 31
0.0
  0
LINE
  5
1B7
  8
1
 62
     7
 10
-136.0
 20
-107.9999999999998
 30
0.0
 11
-134.0
 21
-109.9999999999998
 31
0.0
  0
LINE
  5
1B8
  8
1
 62
     7
 10
-170.0
 20
-31.49999999999989
 30
0.0
 11
-169.0
 21
-32.499999999999893
 31
0.0
  0
LINE
  5
1B9
  8
1
 62
     7
 10
-169.0
 20
-32.499999999999893
 30
0.0
 11
-167.0
 21
-32.499999999999893
 31
0.0
  0
LINE
  5
1BA
  8
1
 62
     7
 10
-166.89999999999969
 20
130.0
 30
0.0
 11
-164.0
 21
130.0
 31
0.0
  0
LINE
  5
1BB
  8
1
 62
     7
 10
-166.89999999999969
 20
130.0
 30
0.0
 11
-166.89999999999969
 21
114.46821916718039
 31
0.0
  0
LINE
  5
1BC
  8
1
 62
     7
 10
-169.0
 20
32.5
 30
0.0
 11
-170.0
 21
31.5
 31
0.0
  0
LINE
  5
1BD
  8
1
 62
     7
 10
-134.0
 20
110.0
 30
0.0
 11
-136.0
 21
108.0
 31
0.0
  0
LINE
  5
1BE
  8
1
 62
     7
 10
-113.0
 20
110.0
 30
0.0
 11
-134.0
 21
110.0
 31
0.0
  0
LINE
  5
1BF
  8
1
 62
     7
 10
-170.0
 20
-31.49999999999989
 30
0.0
 11
-170.0
 21
31.5
 31
0.0
  0
LINE
  5
1C0
  8
1
 62
     7
 10
-162.0
 20
-103.59999999999999
 30
0.0
 11
-164.0
 21
-101.59999999999999
 31
0.0
  0
LINE
  5
1C1
  8
1
 62
     7
 10
-162.0
 20
103.59999999999999
 30
0.0
 11
-164.0
 21
101.59999999999999
 31
0.0
  0
LINE
  5
1C2
  8
1
 62
     7
 10
-164.0
 20
113.74066987453121
 30
0.0
 11
-164.0
 21
86.824743801442807
 31
0.0
  0
LINE
  5
1C3
  8
1
 62
     7
 10
-167.0
 20
61.017527359124017
 30
0.0
 11
-167.0
 21
-78.953427933299409
 31
0.0
  0
LINE
  5
1C4
  8
1
 62
     7
 10
-136.0
 20
108.0
 30
0.0
 11
-136.0
 21
-107.9999999999998
 31
0.0
  0
LINE
  5
1C5
  8
1
 62
     7
 10
-164.0
 20
101.0
 30
0.0
 11
-164.0
 21
-101.59999999999999
 31
0.0
  0
LINE
  5
1C6
  8
1
 62
     7
 10
-167.0
 20
32.5
 30
0.0
 11
-169.0
 21
32.5
 31
0.0
  0
LINE
  5
1C7
  8
1
 62
     7
 10
-136.0
 20
-103.59999999999999
 30
0.0
 11
-162.0
 21
-103.59999999999999
 31
0.0
  0
LINE
  5
1C8
  8
1
 62
     7
 10
-101.59999999999989
 20
110.4999999999999
 30
0.0
 11
-101.59999999999989
 21
-110.4999999999999
 31
0.0
  0
LINE
  5
1C9
  8
1
 62
     7
 10
-99.0
 20
-64.0
 30
0.0
 11
-84.699999999999804
 21
-64.0
 31
0.0
  0
LINE
  5
1CA
  8
1
 62
     7
 10
-101.59999999999989
 20
78.5
 30
0.0
 11
-100.7999999999998
 21
78.5
 31
0.0
  0
LINE
  5
1CB
  8
1
  6
DASHDOT
 62
     3
 10
-106.8234440791059
 20
-59.0
 30
0.0
 11
-81.81282670764881
 21
-59.0
 31
0.0
  0
LINE
  5
1CC
  8
1
  6
DASHDOT
 62
     3
 10
-386.06316511169092
 20
0.0
 30
0.0
 11
-405.30843252144513
 21
0.0
 31
0.0
  0
LINE
  5
1CD
  8
1
  6
DASHDOT
 62
     3
 10
-395.68579881656791
 20
9.6226337048771011
 30
0.0
 11
-395.68579881656791
 21
-9.6226337048771011
 31
0.0
  0
LINE
  5
1CE
  8
1
  6
DASHDOT
 62
     3
 10
-388.05020943991877
 20
120.0
 30
0.0
 11
-403.3213881932171
 21
120.0
 31
0.0
  0
LINE
  5
1CF
  8
1
  6
DASHDOT
 62
     3
 10
-395.68579881656791
 20
127.63558937664899
 30
0.0
 11
-395.68579881656791
 21
112.36441062335091
 31
0.0
  0
LINE
  5
1D0
  8
1
 62
     3
 10
-99.0
 20
0.0
 30
0.0
 11
-89.0
 21
0.0
 31
0.0
  0
LINE
  5
1D1
  8
1
  6
DASHDOT
 62
     3
 10
-170.51731999477789
 20
120.0
 30
0.0
 11
-160.72749184106991
 21
120.0
 31
0.0
  0
LINE
  5
1D2
  8
1
  6
DASHDOT
 62
     3
 10
233.9833985381587
 20
33.5
 30
0.0
 11
247.76940065759791
 21
25.540647965293029
 31
0.0
  0
LINE
  5
1D3
  8
1
  6
DASHDOT
 62
     3
 10
292.0071005917161
 20
67.0
 30
0.0
 11
292.0071005917161
 21
51.0
 31
0.0
  0
LINE
  5
1D4
  8
1
  6
DASHDOT
 62
     3
 10
292.0071005917161
 20
-51.0
 30
0.0
 11
292.0071005917161
 21
-67.0
 31
0.0
  0
LINE
  5
1D5
  8
1
  6
DASHDOT
 62
     3
 10
350.0308026452733
 20
-33.50000000000022
 30
0.0
 11
336.24480052583408
 21
-25.54064796529326
 31
0.0
  0
LINE
  5
1D6
  8
1
  6
DASHDOT
 62
     3
 10
302.2397014101461
 20
0.0
 30
0.0
 11
281.77449977328632
 21
0.0
 31
0.0
  0
LINE
  5
1D7
  8
1
  6
DASHDOT
 62
     3
 10
292.0071005917161
 20
10.232600818429891
 30
0.0
 11
292.0071005917161
 21
-10.232600818429891
 31
0.0
  0
LINE
  5
1D8
  8
1
  6
DASHDOT
 62
     3
 10
298.75755390126608
 20
120.0
 30
0.0
 11
285.25664728216628
 21
120.0
 31
0.0
  0
LINE
  5
1D9
  8
1
  6
DASHDOT
 62
     3
 10
292.0071005917161
 20
126.7504533095499
 30
0.0
 11
292.0071005917161
 21
113.2495466904501
 31
0.0
  0
LINE
  5
1DA
  8
1
 62
     3
 10
71.0
 20
0.0
 30
0.0
 11
81.0
 21
0.0
 31
0.0
  0
LINE
  5
1DB
  8
1
 62
     7
 10
263.41491658791261
 20
106.70748340155259
 30
0.0
 11
261.49663786090309
 21
113.8665970738292
 31
0.0
  0
LINE
  5
1DC
  8
1
 62
     7
 10
57.5
 20
-72.5
 30
0.0
 11
66.300000000000182
 21
-72.5
 31
0.0
  0
ARC
  5
1DD
  8
1
 62
     7
 10
211.96574598886141
 20
21.96318632029622
 30
0.0
 40
8.0000000000001155
 50
344.65582154238427
 51
164.6558215423812
  0
ARC
  5
1DE
  8
1
 62
     7
 10
351.04845519457081
 20
58.336253279242612
 30
0.0
 40
8.0000000000001688
 50
224.65582154238379
 51
44.655821542381162
  0
ARC
  5
1DF
  8
1
 62
     7
 10
292.0071005917161
 20
0.0
 30
0.0
 40
90.999999999999787
 50
164.6558215423843
 51
255.3441784576155
  0
ARC
  5
1E0
  8
1
 62
     7
 10
292.0071005917161
 20
0.0
 30
0.0
 40
90.999999999999716
 50
44.655821542384338
 51
135.3441784576155
  0
ARC
  5
1E1
  8
1
 62
     7
 10
292.0071005917161
 20
0.0
 30
0.0
 40
74.99999999999973
 50
164.6558215423845
 51
255.34417845761519
  0
ARC
  5
1E2
  8
1
 62
     7
 10
292.0071005917161
 20
0.0
 30
0.0
 40
74.999999999999702
 50
44.65582154238475
 51
135.3441784576155
  0
ARC
  5
1E3
  8
1
 62
     7
 10
292.0071005917161
 20
0.0
 30
0.0
 40
78.499999999999957
 50
159.95948329356429
 51
260.04051670643531
  0
ARC
  5
1E4
  8
1
 62
     7
 10
292.0071005917161
 20
0.0
 30
0.0
 40
78.499999999999929
 50
39.959483293564247
 51
140.04051670643531
  0
ARC
  5
1E5
  8
1
 62
     7
 10
271.00710059171649
 20
-80.299439599539255
 30
0.0
 40
7.9999999999996874
 50
255.3441784576155
 51
75.344178457619805
  0
ARC
  5
1E6
  8
1
 62
     7
 10
232.9657459888609
 20
58.336253279242563
 30
0.0
 40
7.9999999999997371
 50
135.3441784576149
 51
315.34417845761658
  0
ARC
  5
1E7
  8
1
 62
     7
 10
-135.25
 20
80.902227433059906
 30
0.0
 40
50.0
 50
180.0
 51
195.42046435251731
  0
ARC
  5
1E8
  8
1
 62
     7
 10
-167.1999999999999
 20
61.396864079313389
 30
0.0
 40
0.2999999999999886
 50
339.50824758259529
 51
349.80906739484777
  0
ARC
  5
1E9
  8
1
 62
     7
 10
-168.18749217771901
 20
62.6968640793134
 30
0.0
 40
1.5999999999999841
 50
196.19135163861881
 51
239.16824074109621
  0
ARC
  5
1EA
  8
1
 62
     7
 10
283.00710059171621
 20
127.0
 30
0.0
 40
3.0
 50
90.0
 51
180.0
  0
ARC
  5
1EB
  8
1
 62
     7
 10
301.00710059171621
 20
127.0
 30
0.0
 40
3.0
 50
0.0
 51
90.0
  0
ARC
  5
1EC
  8
1
 62
     7
 10
9.3000000000001961
 20
-56.699999999999932
 30
0.0
 40
3.3000000000001961
 50
180.0
 51
270.0
  0
ARC
  5
1ED
  8
1
 62
     7
 10
25.700000000000049
 20
-35.799999999999947
 30
0.0
 40
3.2999999999999501
 50
0.0
 51
90.0
  0
ARC
  5
1EE
  8
1
 62
     7
 10
9.3000000000001961
 20
-35.799999999999947
 30
0.0
 40
3.3000000000000531
 50
90.0
 51
180.0
  0
ARC
  5
1EF
  8
1
 62
     7
 10
25.700000000000049
 20
-56.699999999999932
 30
0.0
 40
3.3000000000000682
 50
270.0
 51
0.0
  0
ARC
  5
1F0
  8
1
 62
     7
 10
9.3000000000001961
 20
35.799999999999891
 30
0.0
 40
3.3000000000001961
 50
180.0
 51
270.0
  0
ARC
  5
1F1
  8
1
 62
     7
 10
25.700000000000049
 20
56.699999999999989
 30
0.0
 40
3.2999999999999501
 50
0.0
 51
90.0
  0
ARC
  5
1F2
  8
1
 62
     7
 10
9.3000000000001961
 20
56.699999999999989
 30
0.0
 40
3.3000000000000109
 50
90.0
 51
180.0
  0
ARC
  5
1F3
  8
1
 62
     7
 10
25.700000000000049
 20
35.799999999999891
 30
0.0
 40
3.2999999999998981
 50
270.0
 51
0.0
  0
ARC
  5
1F4
  8
1
 62
     7
 10
-404.68579881656802
 20
127.0
 30
0.0
 40
3.0
 50
90.0
 51
180.0
  0
ARC
  5
1F5
  8
1
 62
     7
 10
-386.68579881656802
 20
127.0
 30
0.0
 40
3.0
 50
0.0
 51
90.0
  0
ARC
  5
1F6
  8
1
 62
     7
 10
-380.68579881656791
 20
98.0
 30
0.0
 40
3.0
 50
180.0
 51
270.0
  0
ARC
  5
1F7
  8
1
 62
     7
 10
-378.68579881656791
 20
92.0
 30
0.0
 40
3.0
 50
0.0
 51
90.0
  0
ARC
  5
1F8
  8
1
 62
     7
 10
-412.68579881656802
 20
92.0
 30
0.0
 40
3.0
 50
90.0
 51
180.0
  0
ARC
  5
1F9
  8
1
 62
     7
 10
-410.68579881656791
 20
98.0
 30
0.0
 40
3.0
 50
270.0
 51
0.0
  0
ARC
  5
1FA
  8
1
 62
     7
 10
-386.68579881656802
 20
-35.243366656181372
 30
0.0
 40
2.5
 50
270.0
 51
0.0
  0
ARC
  5
1FB
  8
1
 62
     7
 10
-404.68579881656802
 20
-35.243366656181372
 30
0.0
 40
2.5
 50
180.0
 51
270.0
  0
ARC
  5
1FC
  8
1
 62
     7
 10
-160.5324078288578
 20
104.9309533039652
 30
0.0
 40
11.46759217114211
 50
0.0
 51
180.0
  0
ARC
  5
1FD
  8
1
 62
     7
 10
-160.5324078288578
 20
104.9309533039652
 30
0.0
 40
9.4675921711421172
 50
0.0
 51
180.0
  0
ARC
  5
1FE
  8
1
 62
     7
 10
-395.68579881656791
 20
0.0
 30
0.0
 40
109.9999999999998
 50
180.0
 51
30.169233166824348
  0
ARC
  5
1FF
  8
1
 62
     7
 10
-395.68579881656791
 20
0.0
 30
0.0
 40
103.59999999999989
 50
180.0
 51
33.657818332206233
  0
ARC
  5
200
  8
1
 62
     7
 10
-395.68579881656791
 20
0.0
 30
0.0
 40
110.0
 50
32.918891014424119
 51
63.584377433612573
  0
ARC
  5
201
  8
1
 62
     7
 10
-377.92378832025651
 20
97.982336996186007
 30
0.0
 40
30.646791893315701
 50
7.6926670267266379
 51
17.894771137678649
  0
ARC
  5
202
  8
1
 62
     7
 10
-350.97401093302142
 20
106.7420043958587
 30
0.0
 40
2.3098536546920641
 50
16.52927476735908
 51
21.90503673152887
  0
ARC
  5
203
  8
1
 62
     7
 10
-377.92378832025651
 20
97.982336996186007
 30
0.0
 40
26.64679189331563
 50
7.6926670267267321
 51
17.89413496150658
  0
ARC
  5
204
  8
1
 62
     7
 10
-377.92378832025651
 20
97.982336996186007
 30
0.0
 40
28.646791893315719
 50
7.6926670267265536
 51
18.048204883954529
  0
ARC
  5
205
  8
1
 62
     7
 10
-357.31501491188823
 20
104.1922896147592
 30
0.0
 40
9.1442795212123382
 50
21.905036731529648
 51
98.877575000770335
  0
ARC
  5
206
  8
1
 62
     7
 10
-357.31501491188823
 20
104.1922896147592
 30
0.0
 40
5.144279521212292
 50
22.607202113581721
 51
98.877575000769795
  0
ARC
  5
207
  8
1
 62
     7
 10
-356.54961345174257
 20
99.291990902570063
 30
0.0
 40
10.103993914589751
 50
98.877575000770449
 51
165.0000000000004
  0
ARC
  5
208
  8
1
 62
     7
 10
-356.54961345174257
 20
99.291990902570063
 30
0.0
 40
14.103993914589701
 50
98.877575000770591
 51
165.0000000000002
  0
ARC
  5
209
  8
1
 62
     7
 10
-357.31501491188823
 20
104.1922896147592
 30
0.0
 40
7.1442795212123107
 50
21.905036731529432
 51
98.877575000770591
  0
ARC
  5
20A
  8
1
 62
     7
 10
-356.54961345174257
 20
99.291990902570063
 30
0.0
 40
12.10399391458974
 50
98.877575000770818
 51
165.0
  0
ARC
  5
20B
  8
1
 62
     7
 10
-333.25452721455372
 20
81.566763443814693
 30
0.0
 40
4.8627211824792536
 50
242.2447023965349
 51
260.09565530296391
  0
ARC
  5
20C
  8
1
 62
     7
 10
-332.43798980915108
 20
83.118397596544597
 30
0.0
 40
6.6160899053494324
 50
205.49389315905771
 51
242.2447023965355
  0
ARC
  5
20D
  8
1
 62
     7
 10
-326.53075561652332
 20
65.760930650348882
 30
0.0
 40
2.0400000000002501
 50
135.00000000000441
 51
225.00000000000341
  0
ARC
  5
20E
  8
1
 62
     7
 10
-329.92486816621891
 20
69.155043200044403
 30
0.0
 40
2.0400000000000502
 50
225.00000000000111
 51
315.00000000000108
  0
ARC
  5
20F
  8
1
 62
     7
 10
-333.31898071591428
 20
65.760930650348882
 30
0.0
 40
2.0400000000002501
 50
315.0000000000021
 51
45.0
  0
ARC
  5
210
  8
1
 62
     7
 10
-329.92486816621869
 20
62.366818100653518
 30
0.0
 40
2.0400000000000138
 50
44.999999999997883
 51
135.0000000000054
  0
ARC
  5
211
  8
1
 62
     7
 10
-332.64646632987319
 20
101.18495816132609
 30
0.0
 40
14.4787897986762
 50
259.25578242273042
 51
272.23257884707692
  0
ARC
  5
212
  8
1
 62
     7
 10
-331.8708220088327
 20
81.289288380584594
 30
0.0
 40
5.4319937152157154
 50
351.6242362781154
 51
92.232578847076937
  0
ARC
  5
213
  8
1
 62
     7
 10
-332.64646632987319
 20
101.18495816132609
 30
0.0
 40
16.478789798676392
 50
259.25587536292988
 51
272.23257884707681
  0
ARC
  5
214
  8
1
 62
     7
 10
-332.64646632987319
 20
101.18495816132609
 30
0.0
 40
18.478789798676239
 50
262.13751241128182
 51
272.23257884707692
  0
ARC
  5
215
  8
1
 62
     7
 10
-331.79291002505778
 20
79.290806526079905
 30
0.0
 40
5.4319937152157971
 50
336.11541938967991
 51
92.232578847076894
  0
ARC
  5
216
  8
1
 62
     7
 10
-331.79291002505778
 20
79.290806526079905
 30
0.0
 40
3.4319937152158491
 50
7.5785908879721511
 51
92.23257884707651
  0
ARC
  5
217
  8
1
 62
     7
 10
-307.67439626070512
 20
94.926786088953648
 30
0.0
 40
30.0509874670371
 50
205.49389315905779
 51
216.06188861198629
  0
ARC
  5
218
  8
1
 62
     7
 10
-325.18206244767509
 20
86.578348148122984
 30
0.0
 40
10.654730318652209
 50
182.69860776632589
 51
205.49389315905771
  0
ARC
  5
219
  8
1
 62
     7
 10
-334.85562991751709
 20
86.12238986779154
 30
0.0
 40
0.9704231391484315
 50
42.982368801016683
 51
182.69860776632299
  0
ARC
  5
21A
  8
1
 62
     7
 10
-307.67439626070512
 20
94.926786088953648
 30
0.0
 40
32.050987467037089
 50
205.49389315905779
 51
216.06188861198621
  0
ARC
  5
21B
  8
1
 62
     7
 10
-325.18206244767509
 20
86.578348148122984
 30
0.0
 40
12.65473031865225
 50
182.69860776632621
 51
205.49389315905779
  0
ARC
  5
21C
  8
1
 62
     7
 10
-334.85562991751709
 20
86.12238986779154
 30
0.0
 40
2.970423139148421
 50
42.982368801012392
 51
182.69860776632621
  0
ARC
  5
21D
  8
1
 62
     7
 10
-338.12097281150358
 20
83.079286413522439
 30
0.0
 40
7.4339355283652804
 50
29.290664477331148
 51
42.982368801013109
  0
ARC
  5
21E
  8
1
 62
     7
 10
-259.35377286603239
 20
115.3882614703664
 30
0.0
 40
77.702083032955869
 50
205.6552455481195
 51
206.64805384341821
  0
ARC
  5
21F
  8
1
 62
     7
 10
-259.35377286603159
 20
115.3882614703649
 30
0.0
 40
79.702083032955841
 50
204.20061957541611
 51
206.64805384341699
  0
ARC
  5
220
  8
1
 62
     7
 10
-325.18206244767509
 20
86.578348148122984
 30
0.0
 40
14.654730318652209
 50
178.97091371509131
 51
205.49389315905751
  0
ARC
  5
221
  8
1
 62
     7
 10
-336.86730005754202
 20
86.981400779240516
 30
0.0
 40
2.970423139148358
 50
45.272408365217217
 51
182.69860776632859
  0
ARC
  5
222
  8
1
 62
     7
 10
-259.35377286603159
 20
115.3882614703649
 30
0.0
 40
81.702083032955855
 50
203.52478637073031
 51
206.64805384341699
  0
ARC
  5
223
  8
1
 62
     7
 10
-333.95373269111229
 20
97.946259470624241
 30
0.0
 40
10.986209871404411
 50
223.9109563157561
 51
239.94248940770979
  0
ARC
  5
224
  8
1
 62
     7
 10
-333.95373269111229
 20
97.946259470624241
 30
0.0
 40
12.986209871404331
 50
223.91095631575641
 51
243.06960572589151
  0
ARC
  5
225
  8
1
 62
     7
 10
-333.95373269111229
 20
97.946259470624241
 30
0.0
 40
14.98620987140448
 50
223.91095631575629
 51
247.7797190435989
  0
ARC
  5
226
  8
1
 62
     7
 10
-330.5053459101598
 20
78.3014218293808
 30
0.0
 40
3.8082008010684212
 50
216.06188861198561
 51
278.64018844694641
  0
ARC
  5
227
  8
1
 62
     7
 10
-330.5053459101598
 20
78.3014218293808
 30
0.0
 40
1.808200801068496
 50
216.06188861198649
 51
245.72631442553501
  0
ARC
  5
228
  8
1
 62
     7
 10
-326.73379010912942
 20
104.8968251218714
 30
0.0
 40
25.008082638478879
 50
187.69266702672661
 51
223.9109563157561
  0
ARC
  5
229
  8
1
 62
     7
 10
-326.73379010912942
 20
104.8968251218714
 30
0.0
 40
23.00808263847879
 50
187.69266702672681
 51
223.91095631575621
  0
ARC
  5
22A
  8
1
 62
     7
 10
-326.73379010912942
 20
104.8968251218714
 30
0.0
 40
21.0080826384788
 50
187.69266702672661
 51
223.9109563157561
  0
ARC
  5
22B
  8
1
 62
     7
 10
-296.78166021122962
 20
96.606492808991135
 30
0.0
 40
35.826056655394702
 50
206.64805384341699
 51
214.34397677396211
  0
ARC
  5
22C
  8
1
 62
     7
 10
-296.78166021122962
 20
96.606492808991135
 30
0.0
 40
37.82605665539473
 50
206.6480538434171
 51
214.91346333894421
  0
ARC
  5
22D
  8
1
 62
     7
 10
-296.78166021122962
 20
96.606492808991135
 30
0.0
 40
39.826056655394751
 50
206.64805384341699
 51
215.42489197299801
  0
ARC
  5
22E
  8
1
 62
     7
 10
-287.19846770004312
 20
103.154487390989
 30
0.0
 40
47.432684578798558
 50
226.4848558943354
 51
230.3899513338221
  0
ARC
  5
22F
  8
1
 62
     7
 10
-296.42539642339062
 20
92.005028466704275
 30
0.0
 40
32.960412885313438
 50
230.3899513338219
 51
271.00112090907692
  0
ARC
  5
230
  8
1
 62
     7
 10
-296.25722081602339
 20
82.381044179476007
 30
0.0
 40
23.334959306612308
 50
271.00112090907692
 51
305.2250107059707
  0
ARC
  5
231
  8
1
 62
     7
 10
-298.37319594501082
 20
85.377852033397687
 30
0.0
 40
27.003502349813441
 50
305.22501070597087
 51
339.12521725233711
  0
ARC
  5
232
  8
1
 62
     7
 10
-298.75638361902628
 20
85.523983967357424
 30
0.0
 40
27.41360884286166
 50
339.12521725214509
 51
0.0000000000892229
  0
ARC
  5
233
  8
1
 62
     7
 10
-298.37319594501082
 20
85.377852033397687
 30
0.0
 40
29.003502349813509
 50
305.22501070597082
 51
339.12521725233711
  0
ARC
  5
234
  8
1
 62
     7
 10
-296.25722081602339
 20
82.381044179476007
 30
0.0
 40
25.33495930661239
 50
271.00112090907731
 51
305.22501070597031
  0
ARC
  5
235
  8
1
 62
     7
 10
-296.42539642339062
 20
92.005028466704275
 30
0.0
 40
34.96041288531346
 50
230.3899513338219
 51
271.00112090907731
  0
ARC
  5
236
  8
1
 62
     7
 10
-287.19846770004312
 20
103.154487390989
 30
0.0
 40
49.432684578798501
 50
226.42476737189659
 51
230.3899513338221
  0
ARC
  5
237
  8
1
 62
     7
 10
-287.19846770004187
 20
103.154487390988
 30
0.0
 40
51.431085256344737
 50
226.36939600829419
 51
230.38995133382039
  0
ARC
  5
238
  8
1
 62
     7
 10
-296.42539642339062
 20
92.005028466704275
 30
0.0
 40
36.95881356285976
 50
230.3899513338219
 51
271.00112090907692
  0
ARC
  5
239
  8
1
 62
     7
 10
-296.25722081602339
 20
82.381044179476007
 30
0.0
 40
27.333359984158559
 50
271.00112090907692
 51
305.22501070597087
  0
ARC
  5
23A
  8
1
 62
     7
 10
-298.37319594501082
 20
85.377852033397687
 30
0.0
 40
31.00190302735972
 50
305.2250107059711
 51
339.12521725233711
  0
ARC
  5
23B
  8
1
 62
     7
 10
-298.75638361902628
 20
85.523983967357424
 30
0.0
 40
31.41200952040791
 50
339.12521725214509
 51
344.57953564748169
  0
ARC
  5
23C
  8
1
 62
     7
 10
-298.75638361902628
 20
85.523983967357424
 30
0.0
 40
29.413608842861681
 50
339.12521725214509
 51
0.0000000000891354
  0
ARC
  5
23D
  8
1
 62
     7
 10
-175.35085741342471
 20
63.6330091089186
 30
0.0
 40
6.7508607761103834
 50
195.4204643525176
 51
0.0
  0
ARC
  5
23E
  8
1
 62
     7
 10
-175.35085741342471
 20
63.6330091089186
 30
0.0
 40
8.7508607761102706
 50
195.42046435251709
 51
0.0
  0
ARC
  5
23F
  8
1
 62
     7
 10
-157.04021788143001
 20
87.526526375918706
 30
0.0
 40
14.302546835188521
 50
212.456895839098
 51
224.0001033188249
  0
ARC
  5
240
  8
1
 62
     7
 10
-158.39648080068261
 20
83.349259543374416
 30
0.0
 40
12.25587886543803
 50
203.65520854483549
 51
212.61627641761891
  0
ARC
  5
241
  8
1
 62
     7
 10
-165.76742023791229
 20
73.411083806005323
 30
0.0
 40
4.7325797620868109
 50
130.96625686797881
 51
143.95621575618961
  0
ARC
  5
242
  8
1
 62
     7
 10
-165.76742023789129
 20
75.411120489327232
 30
0.0
 40
4.7325797621090508
 50
142.97965491511869
 51
177.32784207876441
  0
ARC
  5
243
  8
1
 62
     7
 10
-156.38385265082761
 20
89.712735558632616
 30
0.0
 40
18.441734698398552
 50
214.14177525587201
 51
222.044582553564
  0
ARC
  5
244
  8
1
 62
     7
 10
-162.73852378721941
 20
87.40353922813334
 30
0.0
 40
10.76377805183493
 50
192.9624009495887
 51
194.88204367507561
  0
ARC
  5
245
  8
1
 62
     7
 10
-143.7052633373645
 20
89.784559760473442
 30
0.0
 40
28.29473666263538
 50
179.9999999999973
 51
183.27198938716381
  0
ARC
  5
246
  8
1
 62
     7
 10
-153.48992419966191
 20
89.784559760474792
 30
0.0
 40
18.510075800338079
 50
180.0
 51
184.9583526991747
  0
ARC
  5
247
  8
1
 62
     7
 10
-153.48992419966191
 20
89.784559760474792
 30
0.0
 40
16.51007580033809
 50
180.0
 51
183.9634817935804
  0
ARC
  5
248
  8
1
 62
     7
 10
-170.3023407282605
 20
85.662521843905495
 30
0.0
 40
3.002175881550464
 50
92.497835593473923
 51
192.9624009495565
  0
ARC
  5
249
  8
1
 62
     7
 10
-170.30833461128631
 20
85.799923443545495
 30
0.0
 40
2.864643608183997
 50
41.090517617749292
 51
92.497835593475301
  0
ARC
  5
24A
  8
1
 62
     7
 10
-179.21289959532999
 20
78.034571115646486
 30
0.0
 40
14.67954836156502
 50
25.571216651863121
 51
41.090517617748098
  0
ARC
  5
24B
  8
1
 62
     7
 10
-169.2513675169109
 20
81.416738476791025
 30
0.0
 40
3.8678507098933661
 50
349.48207125224781
 51
352.89831554267982
  0
ARC
  5
24C
  8
1
 62
     7
 10
-171.54696297145281
 20
81.702738541953124
 30
0.0
 40
6.1811934273015838
 50
352.89831554267909
 51
25.571216651862539
  0
ARC
  5
24D
  8
1
 62
     7
 10
-162.73852378721801
 20
85.403539228127599
 30
0.0
 40
10.763778051835001
 50
192.96240094955709
 51
214.14177525587181
  0
ARC
  5
24E
  8
1
 62
     7
 10
-170.3023407282605
 20
83.662521843905495
 30
0.0
 40
3.002175881550464
 50
92.497835593473923
 51
192.9624009495565
  0
ARC
  5
24F
  8
1
 62
     7
 10
-170.30833461128631
 20
83.799923443545481
 30
0.0
 40
2.864643608183997
 50
41.090517617749292
 51
92.497835593475301
  0
ARC
  5
250
  8
1
 62
     7
 10
-179.21289959532999
 20
76.034571115646486
 30
0.0
 40
14.67954836156502
 50
25.571216651863121
 51
41.090517617748098
  0
ARC
  5
251
  8
1
 62
     7
 10
-171.54696297145281
 20
79.702738541953124
 30
0.0
 40
6.1811934273015838
 50
352.89831554267909
 51
25.571216651862539
  0
ARC
  5
252
  8
1
 62
     7
 10
-169.2513675169109
 20
79.416738476791025
 30
0.0
 40
3.8678507098933061
 50
347.39074312849408
 51
352.89831554267982
  0
ARC
  5
253
  8
1
 62
     7
 10
-170.3023407282605
 20
83.662521843905495
 30
0.0
 40
1.00217588155047
 50
92.497835593473283
 51
192.9624009495594
  0
ARC
  5
254
  8
1
 62
     7
 10
-170.30833461128631
 20
83.799923443545481
 30
0.0
 40
0.8646436081840132
 50
41.09051761775261
 51
92.497835593477745
  0
ARC
  5
255
  8
1
 62
     7
 10
-179.21289959532999
 20
76.034571115646486
 30
0.0
 40
12.67954836156505
 50
25.599357694733051
 51
41.090517617748127
  0
ARC
  5
256
  8
1
 62
     7
 10
-143.7052633373645
 20
89.784559760474792
 30
0.0
 40
28.294736662635319
 50
192.9624009495576
 51
203.65520854483549
  0
ARC
  5
257
  8
1
 62
     7
 10
-165.0
 20
76.868214083286432
 30
0.0
 40
1.0
 50
0.0
 51
53.247091286463643
  0
ARC
  5
258
  8
1
 62
     7
 10
-157.04021788143001
 20
87.526526375918706
 30
0.0
 40
12.302546835188529
 50
212.45689583909791
 51
233.24709128646981
  0
ARC
  5
259
  8
1
 62
     7
 10
-153.48992419966191
 20
89.784559760474792
 30
0.0
 40
16.510075800338068
 50
206.1643009053281
 51
212.4568958390978
  0
ARC
  5
25A
  8
1
 62
     7
 10
-153.48992419966191
 20
89.784559760474792
 30
0.0
 40
18.510075800338079
 50
197.5236950854983
 51
212.45689583909791
  0
ARC
  5
25B
  8
1
 62
     7
 10
-158.1999999999999
 20
65.596864079313434
 30
0.0
 40
12.000000000000011
 50
173.87169304445189
 51
196.19135163861711
  0
ARC
  5
25C
  8
1
 62
     7
 10
292.0071005917161
 20
0.0
 30
0.0
 40
78.499999999999929
 50
279.95948329356412
 51
20.040516706435309
  0
ARC
  5
25D
  8
1
 62
     7
 10
372.04845519457109
 20
21.963186320296689
 30
0.0
 40
7.9999999999996776
 50
15.344178457615101
 51
195.34417845761629
  0
ARC
  5
25E
  8
1
 62
     7
 10
313.00710059171621
 20
-80.299439599538815
 30
0.0
 40
8.0000000000000853
 50
104.655821542384
 51
284.65582154238092
  0
ARC
  5
25F
  8
1
 62
     7
 10
292.0071005917161
 20
0.0
 30
0.0
 40
74.999999999999801
 50
284.65582154238461
 51
15.34417845761558
  0
ARC
  5
260
  8
1
 62
     7
 10
292.0071005917161
 20
0.0
 30
0.0
 40
90.999999999999787
 50
284.65582154238422
 51
15.344178457615589
  0
ARC
  5
261
  8
1
 62
     7
 10
17.5
 20
46.25
 30
0.0
 40
8.2499999999999822
 50
59.999999999999922
 51
120.0000000000001
  0
ARC
  5
262
  8
1
 62
     7
 10
17.5
 20
46.25
 30
0.0
 40
8.2499999999999822
 50
300.00000000000011
 51
59.999999999999922
  0
ARC
  5
263
  8
1
 62
     7
 10
17.5
 20
46.25
 30
0.0
 40
8.2499999999999822
 50
120.0000000000001
 51
239.99999999999989
  0
ARC
  5
264
  8
1
 62
     7
 10
17.5
 20
46.25
 30
0.0
 40
8.2499999999999822
 50
239.99999999999989
 51
300.00000000000011
  0
ARC
  5
265
  8
1
 62
     7
 10
-395.68579881656791
 20
0.0
 30
0.0
 40
19.999999999999918
 50
104.47751218593
 51
180.0
  0
ARC
  5
266
  8
1
 62
     7
 10
-395.68579881656791
 20
0.0
 30
0.0
 40
20.0
 50
180.0
 51
75.522487814070004
  0
ARC
  5
267
  8
1
 62
     7
 10
-395.68579881656791
 20
0.0
 30
0.0
 40
109.9999999999998
 50
96.262913126139381
 51
180.0
  0
ARC
  5
268
  8
1
 62
     7
 10
-395.68579881656791
 20
0.0
 30
0.0
 40
103.59999999999989
 50
96.651507162998556
 51
180.0
  0
ARC
  5
269
  8
1
 62
     7
 10
-395.68579881656791
 20
0.0
 30
0.0
 40
103.59999999999989
 50
62.723921847583831
 51
83.348492837001444
  0
ARC
  5
26A
  8
1
 62
     7
 10
-395.68579881656791
 20
0.0
 30
0.0
 40
110.0
 50
75.747355741089734
 51
83.737086873860633
  0
ARC
  5
26B
  8
1
 62
     7
 10
-395.68579881656791
 20
0.0
 30
0.0
 40
110.0
 50
66.250527764815715
 51
73.206624450918241
  0
ARC
  5
26C
  8
1
 62
     7
 10
-395.68579881656791
 20
0.0
 30
0.0
 40
103.5999999999998
 50
38.765776658677773
 51
42.237366790968061
  0
ARC
  5
26D
  8
1
 62
     7
 10
-395.68579881656791
 20
1.7599999999999909
 30
0.0
 40
35.640000000000001
 50
288.82454223195782
 51
251.17545776804209
  0
ARC
  5
26E
  8
1
 62
     7
 10
292.0071005917161
 20
0.0
 30
0.0
 40
19.999999999999918
 50
104.47751218593
 51
180.0
  0
ARC
  5
26F
  8
1
 62
     7
 10
292.0071005917161
 20
0.0
 30
0.0
 40
20.0
 50
180.0
 51
75.522487814070004
  0
ARC
  5
270
  8
1
  6
DASHDOT
 62
     3
 10
292.0071005917161
 20
0.0
 30
0.0
 40
59.000000000000028
 50
142.2070756645775
 51
157.79292433542241
  0
ARC
  5
271
  8
1
  6
DASHDOT
 62
     3
 10
292.0071005917161
 20
0.0
 30
0.0
 40
58.999999999999979
 50
202.20707566457759
 51
217.79292433542241
  0
ARC
  5
272
  8
1
  6
DASHDOT
 62
     3
 10
292.0071005917161
 20
0.0
 30
0.0
 40
59.000000000000007
 50
262.20707566457747
 51
277.77488308431037
  0
ARC
  5
273
  8
1
  6
DASHDOT
 62
     3
 10
292.0071005917161
 20
0.0
 30
0.0
 40
59.000000000000007
 50
322.20707566457759
 51
337.7929243354223
  0
ARC
  5
274
  8
1
  6
DASHDOT
 62
     3
 10
292.0071005917161
 20
0.0
 30
0.0
 40
58.999999999999957
 50
22.225116915689579
 51
37.792924335422448
  0
ARC
  5
275
  8
1
  6
DASHDOT
 62
     3
 10
292.0071005917161
 20
0.0
 30
0.0
 40
59.000000000000021
 50
82.225116915689455
 51
97.774883084310645
  0
CIRCLE
  5
276
  8
1
 62
     7
 10
17.5
 20
-46.249999999999893
 30
0.0
 40
8.2499999999999947
  0
CIRCLE
  5
277
  8
1
 62
     7
 10
-329.92486816621869
 20
65.760930650348882
 30
0.0
 40
4.5000000000001128
  0
CIRCLE
  5
278
  8
1
 62
     7
 10
-383.18579881656791
 20
87.0
 30
0.0
 40
4.25
  0
CIRCLE
  5
279
  8
1
 62
     7
 10
-408.18579881656791
 20
87.0
 30
0.0
 40
4.25
  0
CIRCLE
  5
27A
  8
1
 62
     7
 10
-395.68579881656791
 20
0.0
 30
0.0
 40
79.0
  0
CIRCLE
  5
27B
  8
1
 62
     7
 10
292.0071005917161
 20
120.0
 30
0.0
 40
4.25
  0
CIRCLE
  5
27C
  8
1
 62
     7
 10
383.17554028978662
 20
-41.089117817486454
 30
0.0
 40
7.75
  0
CIRCLE
  5
27D
  8
1
 62
     7
 10
383.17554028978662
 20
-41.089117817486454
 30
0.0
 40
6.500000000000056
  0
CIRCLE
  5
27E
  8
1
 62
     7
 10
373.17554028978662
 20
-58.409625893175189
 30
0.0
 40
6.500000000000056
  0
CIRCLE
  5
27F
  8
1
 62
     7
 10
373.17554028978662
 20
-58.409625893175189
 30
0.0
 40
7.750000000000056
  0
CIRCLE
  5
280
  8
1
 62
     7
 10
210.83866089364619
 20
-58.409625893175303
 30
0.0
 40
7.7500000000001128
  0
CIRCLE
  5
281
  8
1
 62
     7
 10
210.83866089364619
 20
-58.409625893175303
 30
0.0
 40
6.5
  0
CIRCLE
  5
282
  8
1
 62
     7
 10
200.83866089364611
 20
-41.089117817486567
 30
0.0
 40
6.4999999999999147
  0
CIRCLE
  5
283
  8
1
 62
     7
 10
200.83866089364611
 20
-41.089117817486567
 30
0.0
 40
7.7499999999999147
  0
CIRCLE
  5
284
  8
1
 62
     7
 10
302.00710059171621
 20
99.498743710661984
 30
0.0
 40
7.75
  0
CIRCLE
  5
285
  8
1
 62
     7
 10
302.00710059171621
 20
99.498743710661984
 30
0.0
 40
6.5
  0
CIRCLE
  5
286
  8
1
 62
     7
 10
282.00710059171621
 20
99.498743710661984
 30
0.0
 40
6.5
  0
CIRCLE
  5
287
  8
1
 62
     7
 10
282.00710059171621
 20
99.498743710661984
 30
0.0
 40
7.75
  0
CIRCLE
  5
288
  8
1
 62
     7
 10
343.102599414998
 20
29.50000000000011
 30
0.0
 40
5.0
  0
CIRCLE
  5
289
  8
1
 62
     7
 10
343.102599414998
 20
29.50000000000011
 30
0.0
 40
3.9999999999998859
  0
CIRCLE
  5
28A
  8
1
 62
     7
 10
343.10259941499811
 20
-29.499999999999769
 30
0.0
 40
5.0
  0
CIRCLE
  5
28B
  8
1
 62
     7
 10
343.10259941499811
 20
-29.499999999999769
 30
0.0
 40
4.000000000000056
  0
CIRCLE
  5
28C
  8
1
 62
     7
 10
292.0071005917161
 20
-59.0
 30
0.0
 40
5.0
  0
CIRCLE
  5
28D
  8
1
 62
     7
 10
292.0071005917161
 20
-59.0
 30
0.0
 40
4.0
  0
CIRCLE
  5
28E
  8
1
 62
     7
 10
240.91160176843411
 20
-29.5
 30
0.0
 40
5.0
  0
CIRCLE
  5
28F
  8
1
 62
     7
 10
240.91160176843411
 20
-29.5
 30
0.0
 40
4.0
  0
CIRCLE
  5
290
  8
1
 62
     7
 10
240.91160176843411
 20
29.5
 30
0.0
 40
5.0
  0
CIRCLE
  5
291
  8
1
 62
     7
 10
240.91160176843411
 20
29.5
 30
0.0
 40
4.0
  0
CIRCLE
  5
292
  8
1
 62
     7
 10
292.0071005917161
 20
59.0
 30
0.0
 40
4.0
  0
CIRCLE
  5
293
  8
1
 62
     7
 10
292.0071005917161
 20
59.0
 30
0.0
 40
5.0
  0
CIRCLE
  5
294
  8
1
 62
     7
 10
292.0071005917161
 20
0.0
 30
0.0
 40
46.0
  0
CIRCLE
  5
295
  8
1
 62
     7
 10
292.0071005917161
 20
0.0
 30
0.0
 40
109.0
  0
CIRCLE
  5
296
  8
1
 62
     7
 10
292.0071005917161
 20
0.0
 30
0.0
 40
110.4999999999999
  0
CIRCLE
  5
297
  8
1
 62
     7
 10
-395.68579881656791
 20
0.0
 30
0.0
 40
32.5
  0
CIRCLE
  5
298
  8
1
 62
     7
 10
-395.68579881656791
 20
120.0
 30
0.0
 40
4.25
  0
CIRCLE
  5
299
  8
1
 62
     7
 10
-395.68579881656791
 20
0.0
 30
0.0
 40
32.5
  0
CIRCLE
  5
29A
  8
1
 62
     7
 10
-386.68579881656802
 20
-34.79336665618132
 30
0.0
 40
1.25
  0
CIRCLE
  5
29B
  8
1
 62
     7
 10
-404.68579881656802
 20
-34.79336665618132
 30
0.0
 40
1.25
  0
CIRCLE
  5
29C
  8
1
 62
     7
 10
292.0071005917161
 20
0.0
 30
0.0
 40
30.0
  0
CIRCLE
  5
29D
  8
1
 62
     7
 10
-395.68579881656791
 20
0.0
 30
0.0
 40
52.5
  0
POLYLINE
  5
29E
  8
1
 62
     7
 66
     1
 10
0.0
 20
0.0
 30
0.0
  0
VERTEX
  5
341
  8
1
 62
     7
 10
-166.2676540609217
 20
66.315189716562998
 30
0.0
 42
-0.0348131604548193
  0
VERTEX
  5
342
  8
1
 62
     7
 10
-166.18508742260849
 20
66.305926633847406
 30
0.0
 42
-0.0383518637158465
  0
VERTEX
  5
343
  8
1
 62
     7
 10
-166.10841407124559
 20
66.285508841309124
 30
0.0
 42
-0.0404402470943189
  0
VERTEX
  5
344
  8
1
 62
     7
 10
-166.03763400683289
 20
66.253936338948179
 30
0.0
 42
-0.0405108231224232
  0
VERTEX
  5
345
  8
1
 62
     7
 10
-165.9727472293701
 20
66.211209126764487
 30
0.0
 42
-0.0385429294715746
  0
VERTEX
  5
346
  8
1
 62
     7
 10
-165.91375373885751
 20
66.157327204758133
 30
0.0
  0
SEQEND
  5
347
  8
1
 62
     7
  0
POLYLINE
  5
2A6
  8
1
 62
     7
 66
     1
 10
0.0
 20
0.0
 30
0.0
  0
VERTEX
  5
348
  8
1
 62
     7
 10
-165.8679035196173
 20
66.8597365650391
 30
0.0
 42
-0.0046442330220352
  0
VERTEX
  5
349
  8
1
 62
     7
 10
-165.7370376348176
 20
66.822291353039688
 30
0.0
 42
-0.0112957536167302
  0
VERTEX
  5
34A
  8
1
 62
     7
 10
-165.59986490513069
 20
66.778307553453502
 30
0.0
 42
-0.0180848740058837
  0
VERTEX
  5
34B
  8
1
 62
     7
 10
-165.4621084981874
 20
66.7251161481785
 30
0.0
 42
-0.0259625679011314
  0
VERTEX
  5
34C
  8
1
 62
     7
 10
-165.3294915816189
 20
66.660048119112773
 30
0.0
 42
-0.0355402374192588
  0
VERTEX
  5
34D
  8
1
 62
     7
 10
-165.20773732305651
 20
66.580434448154264
 30
0.0
 42
-0.0466728957985321
  0
VERTEX
  5
34E
  8
1
 62
     7
 10
-165.10256889013101
 20
66.483606117201049
 30
0.0
 42
-0.0574177540801219
  0
VERTEX
  5
34F
  8
1
 62
     7
 10
-165.0197094504737
 20
66.366894108151115
 30
0.0
  0
VERTEX
  5
350
  8
1
 62
     7
 10
-164.98843409300531
 20
66.300247656182989
 30
0.0
  0
SEQEND
  5
351
  8
1
 62
     7
  0
POLYLINE
  5
2B1
  8
1
 62
     7
 66
     1
 10
0.0
 20
0.0
 30
0.0
  0
VERTEX
  5
352
  8
1
 62
     7
 10
-166.3904344047215
 20
69.924313739011893
 30
0.0
 42
-0.0402338945397369
  0
VERTEX
  5
353
  8
1
 62
     7
 10
-166.26875817085181
 20
69.972243474636286
 30
0.0
 42
-0.0342172899305778
  0
VERTEX
  5
354
  8
1
 62
     7
 10
-166.14686345003159
 20
69.999716952987498
 30
0.0
 42
-0.0218752772607379
  0
VERTEX
  5
355
  8
1
 62
     7
 10
-166.02068522146979
 20
70.01345508151482
 30
0.0
 42
-0.0073089417018275
  0
VERTEX
  5
356
  8
1
 62
     7
 10
-165.91041846797501
 20
70.019029819263821
 30
0.0
 42
-0.0250736892389302
  0
VERTEX
  5
357
  8
1
 62
     7
 10
-165.8216749903826
 20
70.017690804144394
 30
0.0
 42
-0.0504642842372865
  0
VERTEX
  5
358
  8
1
 62
     7
 10
-165.7380433984444
 20
70.003746567949236
 30
0.0
 42
-0.0852768566658925
  0
VERTEX
  5
359
  8
1
 62
     7
 10
-165.66588430369089
 20
69.969832937070805
 30
0.0
 42
-0.0856638212805638
  0
VERTEX
  5
35A
  8
1
 62
     7
 10
-165.60900694781461
 20
69.910193768759996
 30
0.0
 42
-0.0494392070415709
  0
VERTEX
  5
35B
  8
1
 62
     7
 10
-165.56677395923941
 20
69.832633336904564
 30
0.0
 42
-0.0250443326391273
  0
VERTEX
  5
35C
  8
1
 62
     7
 10
-165.53533610448051
 20
69.747576310692267
 30
0.0
 42
-0.0070599234233534
  0
VERTEX
  5
35D
  8
1
 62
     7
 10
-165.51084415005329
 20
69.665447359310974
 30
0.0
  0
VERTEX
  5
35E
  8
1
 62
     7
 10
-165.5
 20
69.628738620803105
 30
0.0
  0
SEQEND
  5
35F
  8
1
 62
     7
  0
POLYLINE
  5
2C0
  8
1
 62
     7
 66
     1
 10
0.0
 20
0.0
 30
0.0
  0
VERTEX
  5
360
  8
1
 62
     7
 10
-167.5617376188861
 20
70.393647724830089
 30
0.0
 42
-0.0526715590485325
  0
VERTEX
  5
361
  8
1
 62
     7
 10
-167.06646137848651
 20
70.613985663210642
 30
0.0
 42
-0.044075296833892
  0
VERTEX
  5
362
  8
1
 62
     7
 10
-166.53975779410021
 20
70.734027779478893
 30
0.0
 42
-0.035419889458509
  0
VERTEX
  5
363
  8
1
 62
     7
 10
-165.99775023708341
 20
70.769538924302623
 30
0.0
 42
-0.0386604700542388
  0
VERTEX
  5
364
  8
1
 62
     7
 10
-165.39364400057249
 20
70.722436138915597
 30
0.0
 42
-0.0305120218266701
  0
VERTEX
  5
365
  8
1
 62
     7
 10
-164.910457439677
 20
70.608106713773751
 30
0.0
 42
-0.0426683468413687
  0
VERTEX
  5
366
  8
1
 62
     7
 10
-164.54827921288509
 20
70.456919919821445
 30
0.0
 42
-0.0416985839324552
  0
VERTEX
  5
367
  8
1
 62
     7
 10
-164.3236407560475
 20
70.315928446398004
 30
0.0
 42
-0.0667677895002996
  0
VERTEX
  5
368
  8
1
 62
     7
 10
-164.1386768765658
 20
70.13422558354786
 30
0.0
 42
-0.0956830636733546
  0
VERTEX
  5
369
  8
1
 62
     7
 10
-164.0228180247781
 20
69.903825796631025
 30
0.0
  0
VERTEX
  5
36A
  8
1
 62
     7
 10
-164.0
 20
69.767869077072589
 30
0.0
  0
SEQEND
  5
36B
  8
1
 62
     7
  0
POLYLINE
  5
2CD
  8
1
 62
     7
 66
     1
 10
0.0
 20
0.0
 30
0.0
  0
VERTEX
  5
36C
  8
1
 62
     7
 10
-169.3555230289812
 20
67.526389013674134
 30
0.0
 42
0.0040726020663068
  0
VERTEX
  5
36D
  8
1
 62
     7
 10
-169.41880640253299
 20
67.542248801581223
 30
0.0
 42
-0.0135359540863549
  0
VERTEX
  5
36E
  8
1
 62
     7
 10
-169.4810915947096
 20
67.559108225650263
 30
0.0
 42
-0.0311536546391459
  0
VERTEX
  5
36F
  8
1
 62
     7
 10
-169.54159970536551
 20
67.581470540606276
 30
0.0
 42
-0.0462259894143357
  0
VERTEX
  5
370
  8
1
 62
     7
 10
-169.59955183435511
 20
67.613839001174313
 30
0.0
 42
-0.0367315542876689
  0
VERTEX
  5
371
  8
1
 62
     7
 10
-169.636630673225
 20
67.643529580485364
 30
0.0
 42
-0.0454685803455323
  0
VERTEX
  5
372
  8
1
 62
     7
 10
-169.66829329837759
 20
67.678680795871799
 30
0.0
 42
-0.0623846977359183
  0
VERTEX
  5
373
  8
1
 62
     7
 10
-169.69067661008231
 20
67.717995996681211
 30
0.0
 42
-0.0869078652441047
  0
VERTEX
  5
374
  8
1
 62
     7
 10
-169.69991750860819
 20
67.760178532261321
 30
0.0
 42
-0.0862682648603077
  0
VERTEX
  5
375
  8
1
 62
     7
 10
-169.69331371837779
 20
67.803967111761537
 30
0.0
 42
-0.063936653118743
  0
VERTEX
  5
376
  8
1
 62
     7
 10
-169.67332185869091
 20
67.845961949132615
 30
0.0
 42
-0.053612909339618
  0
VERTEX
  5
377
  8
1
 62
     7
 10
-169.6438527865561
 20
67.882771517502889
 30
0.0
 42
-0.0557568992554441
  0
VERTEX
  5
378
  8
1
 62
     7
 10
-169.60881735898261
 20
67.911004290000719
 30
0.0
  0
VERTEX
  5
379
  8
1
 62
     7
 10
-169.59043440472149
 20
67.920844525650125
 30
0.0
  0
SEQEND
  5
37A
  8
1
 62
     7
  0
POLYLINE
  5
2DD
  8
1
 62
     7
 66
     1
 10
0.0
 20
0.0
 30
0.0
  0
VERTEX
  5
37B
  8
1
 62
     7
 10
-169.78703622668101
 20
66.806619926249184
 30
0.0
 42
-0.0075748674285293
  0
VERTEX
  5
37C
  8
1
 62
     7
 10
-170.04666541653029
 20
66.858496056108649
 30
0.0
 42
-0.0192291607565658
  0
VERTEX
  5
37D
  8
1
 62
     7
 10
-170.30893196249079
 20
66.925596091657354
 30
0.0
 42
-0.0318784989933322
  0
VERTEX
  5
37E
  8
1
 62
     7
 10
-170.56268655819591
 20
67.018877938868229
 30
0.0
 42
-0.0460541703772507
  0
VERTEX
  5
37F
  8
1
 62
     7
 10
-170.79677989727909
 20
67.149299503714161
 30
0.0
 42
-0.0596517236538845
  0
VERTEX
  5
380
  8
1
 62
     7
 10
-171.00006267337429
 20
67.327818692168094
 30
0.0
 42
-0.0426461998030362
  0
VERTEX
  5
381
  8
1
 62
     7
 10
-171.1009088975963
 20
67.461422994185639
 30
0.0
 42
-0.0565760830690163
  0
VERTEX
  5
382
  8
1
 62
     7
 10
-171.1722995749721
 20
67.609315533183533
 30
0.0
 42
-0.0793575953542707
  0
VERTEX
  5
383
  8
1
 62
     7
 10
-171.1999733070669
 20
67.764399863710821
 30
0.0
 42
-0.0881945041825194
  0
VERTEX
  5
384
  8
1
 62
     7
 10
-171.1694579264815
 20
67.933335275663694
 30
0.0
 42
-0.0634598658276174
  0
VERTEX
  5
385
  8
1
 62
     7
 10
-171.08676764469939
 20
68.093010996062475
 30
0.0
 42
-0.0483906732090522
  0
VERTEX
  5
386
  8
1
 62
     7
 10
-170.9686584040256
 20
68.234053975757888
 30
0.0
 42
-0.0438678436759618
  0
VERTEX
  5
387
  8
1
 62
     7
 10
-170.8318861467655
 20
68.347091165600688
 30
0.0
  0
VERTEX
  5
388
  8
1
 62
     7
 10
-170.761737618886
 20
68.390178511468207
 30
0.0
  0
SEQEND
  5
389
  8
1
 62
     7
  0
POLYLINE
  5
2ED
  8
1
 62
     7
 66
     1
 10
0.0
 20
0.0
 30
0.0
  0
VERTEX
  5
38A
  8
1
 62
     7
 10
-167.5617376188861
 20
77.46813594771578
 30
0.0
 42
-0.0468700764719483
  0
VERTEX
  5
38B
  8
1
 62
     7
 10
-167.14026291556459
 20
77.66397304992222
 30
0.0
 42
-0.0397200987257609
  0
VERTEX
  5
38C
  8
1
 62
     7
 10
-166.69299775750599
 20
77.783413044131564
 30
0.0
 42
-0.0323289372631914
  0
VERTEX
  5
38D
  8
1
 62
     7
 10
-166.23091691923989
 20
77.837746759709034
 30
0.0
 42
-0.0302691998588871
  0
VERTEX
  5
38E
  8
1
 62
     7
 10
-165.73589035849241
 20
77.836086234825586
 30
0.0
 42
-0.0374824271835966
  0
VERTEX
  5
38F
  8
1
 62
     7
 10
-165.21802170704331
 20
77.766107787133379
 30
0.0
 42
-0.0456820320710885
  0
VERTEX
  5
390
  8
1
 62
     7
 10
-164.7151023663084
 20
77.610023182130703
 30
0.0
 42
-0.0342906136180536
  0
VERTEX
  5
391
  8
1
 62
     7
 10
-164.46444880618
 20
77.486903570681719
 30
0.0
 42
-0.0557692497106834
  0
VERTEX
  5
392
  8
1
 62
     7
 10
-164.24512863631131
 20
77.324973612778635
 30
0.0
 42
-0.0818280540367716
  0
VERTEX
  5
393
  8
1
 62
     7
 10
-164.08201973986419
 20
77.113651969008544
 30
0.0
 42
-0.097919607352324
  0
VERTEX
  5
394
  8
1
 62
     7
 10
-164.0
 20
76.84235729995828
 30
0.0
  0
SEQEND
  5
395
  8
1
 62
     7
  0
POLYLINE
  5
2FA
  8
1
 62
     7
 66
     1
 10
0.0
 20
0.0
 30
0.0
  0
VERTEX
  5
396
  8
1
 62
     7
 10
20.93518434228417
 20
113.6480232364875
 30
0.0
 42
0.0411003734276109
  0
VERTEX
  5
397
  8
1
 62
     7
 10
20.822651932356699
 20
113.7649693200417
 30
0.0
 42
0.0512757468404907
  0
VERTEX
  5
398
  8
1
 62
     7
 10
20.70363428196843
 20
113.84897815120991
 30
0.0
 42
0.0599089900798937
  0
VERTEX
  5
399
  8
1
 62
     7
 10
20.57813139111936
 20
113.90004972999191
 30
0.0
 42
0.0629088498507456
  0
VERTEX
  5
39A
  8
1
 62
     7
 10
20.446143259809489
 20
113.9181840563877
 30
0.0
 42
0.0584353137959409
  0
VERTEX
  5
39B
  8
1
 62
     7
 10
20.307669888038848
 20
113.90338113039731
 30
0.0
 42
0.0491521334221214
  0
VERTEX
  5
39C
  8
1
 62
     7
 10
20.162711275807389
 20
113.85564095202071
 30
0.0
 42
0.0390692995964579
  0
VERTEX
  5
39D
  8
1
 62
     7
 10
20.01126742311514
 20
113.774963521258
 30
0.0
  0
VERTEX
  5
39E
  8
1
 62
     7
 10
19.93311353159622
 20
113.72227333623189
 30
0.0
  0
SEQEND
  5
39F
  8
1
 62
     7
  0
POLYLINE
  5
305
  8
1
 62
     7
 66
     1
 10
0.0
 20
0.0
 30
0.0
  0
VERTEX
  5
3A0
  8
1
 62
     7
 10
18.93518434228417
 20
113.6480232364875
 30
0.0
 42
-0.0483573885314949
  0
VERTEX
  5
3A1
  8
1
 62
     7
 10
19.053399879341459
 20
113.8089151029282
 30
0.0
 42
-0.068498471791674
  0
VERTEX
  5
3A2
  8
1
 62
     7
 10
19.174474471988731
 20
113.90874596571599
 30
0.0
 42
-0.0839035025320541
  0
VERTEX
  5
3A3
  8
1
 62
     7
 10
19.29794780142284
 20
113.95599802608299
 30
0.0
 42
-0.0791796824661398
  0
VERTEX
  5
3A4
  8
1
 62
     7
 10
19.423359548840569
 20
113.9591534852607
 30
0.0
 42
-0.0582619010418516
  0
VERTEX
  5
3A5
  8
1
 62
     7
 10
19.550249395438769
 20
113.9266945444807
 30
0.0
 42
-0.0368088905589714
  0
VERTEX
  5
3A6
  8
1
 62
     7
 10
19.678157022414229
 20
113.8671034049748
 30
0.0
 42
-0.0204275005888812
  0
VERTEX
  5
3A7
  8
1
 62
     7
 10
19.806622110963762
 20
113.78886226797469
 30
0.0
 42
-0.0079866063225257
  0
VERTEX
  5
3A8
  8
1
 62
     7
 10
19.93518434228417
 20
113.70045333471199
 30
0.0
 42
0.0030530961450767
  0
VERTEX
  5
3A9
  8
1
 62
     7
 10
20.061264313813311
 20
113.6119213028752
 30
0.0
 42
0.0147665347685533
  0
VERTEX
  5
3AA
  8
1
 62
     7
 10
20.187007551733689
 20
113.5301112307997
 30
0.0
 42
0.0291397924700522
  0
VERTEX
  5
3AB
  8
1
 62
     7
 10
20.31242814120268
 20
113.4633733199702
 30
0.0
 42
0.0481158378908323
  0
VERTEX
  5
3AC
  8
1
 62
     7
 10
20.43754016737762
 20
113.4200577718716
 30
0.0
 42
0.0705348269852969
  0
VERTEX
  5
3AD
  8
1
 62
     7
 10
20.562357715415871
 20
113.40851478798911
 30
0.0
 42
0.0856931977783749
  0
VERTEX
  5
3AE
  8
1
 62
     7
 10
20.68689487047482
 20
113.4370945698077
 30
0.0
 42
0.0800940827661546
  0
VERTEX
  5
3AF
  8
1
 62
     7
 10
20.811165717711798
 20
113.51414731881211
 30
0.0
 42
0.0605582915025611
  0
VERTEX
  5
3B0
  8
1
 62
     7
 10
20.93518434228417
 20
113.6480232364875
 30
0.0
  0
SEQEND
  5
3B1
  8
1
 62
     7
  0
POLYLINE
  5
318
  8
1
 62
     7
 66
     1
 10
0.0
 20
0.0
 30
0.0
  0
VERTEX
  5
3B2
  8
1
 62
     7
 10
263.93638522992211
 20
114.4205941979115
 30
0.0
 42
0.0408308377397568
  0
VERTEX
  5
3B3
  8
1
 62
     7
 10
263.59886925953452
 20
114.6116577057457
 30
0.0
 42
0.0507652538981263
  0
VERTEX
  5
3B4
  8
1
 62
     7
 10
263.26859900864122
 20
114.72360154056869
 30
0.0
 42
0.0591753369182078
  0
VERTEX
  5
3B5
  8
1
 62
     7
 10
262.94557447724139
 20
114.7564257023804
 30
0.0
 42
0.0621531997707932
  0
VERTEX
  5
3B6
  8
1
 62
     7
 10
262.62979566533562
 20
114.7101301911805
 30
0.0
 42
0.0579104395699186
  0
VERTEX
  5
3B7
  8
1
 62
     7
 10
262.32126257292401
 20
114.5847150069694
 30
0.0
 42
0.0489300977482501
  0
VERTEX
  5
3B8
  8
1
 62
     7
 10
262.01997520000612
 20
114.38018014974691
 30
0.0
 42
0.0390620035373305
  0
VERTEX
  5
3B9
  8
1
 62
     7
 10
261.72593354658221
 20
114.0965256195129
 30
0.0
  0
VERTEX
  5
3BA
  8
1
 62
     7
 10
261.58162986468028
 20
113.9250284770166
 30
0.0
  0
SEQEND
  5
3BB
  8
1
 62
     7
  0
POLYLINE
  5
323
  8
1
 62
     7
 66
     1
 10
0.0
 20
0.0
 30
0.0
  0
VERTEX
  5
3BC
  8
1
 62
     7
 10
259.06258823472501
 20
113.2913356839784
 30
0.0
 42
-0.057866782129971
  0
VERTEX
  5
3BD
  8
1
 62
     7
 10
259.23935480380442
 20
113.70701120994541
 30
0.0
 42
-0.0779509696194301
  0
VERTEX
  5
3BE
  8
1
 62
     7
 10
259.47084254634598
 20
113.98720090411101
 30
0.0
 42
-0.0863470783018196
  0
VERTEX
  5
3BF
  8
1
 62
     7
 10
259.74790368050338
 20
114.15053798919919
 30
0.0
 42
-0.0734464874309137
  0
VERTEX
  5
3C0
  8
1
 62
     7
 10
260.06139042443021
 20
114.2156556879347
 30
0.0
 42
-0.0516122699112941
  0
VERTEX
  5
3C1
  8
1
 62
     7
 10
260.40215499627988
 20
114.2011872230412
 30
0.0
 42
-0.033055787835112
  0
VERTEX
  5
3C2
  8
1
 62
     7
 10
260.76104961420617
 20
114.12576581724301
 30
0.0
 42
-0.0196494621021245
  0
VERTEX
  5
3C3
  8
1
 62
     7
 10
261.12892649636291
 20
114.0080246932642
 30
0.0
 42
-0.0095941677726422
  0
VERTEX
  5
3C4
  8
1
 62
     7
 10
261.49663786090309
 20
113.8665970738292
 30
0.0
 42
0.0007880012595177
  0
VERTEX
  5
3C5
  8
1
 62
     7
 10
261.83092050295812
 20
113.73091123859911
 30
0.0
 42
0.0128308977532762
  0
VERTEX
  5
3C6
  8
1
 62
     7
 10
262.15572943944812
 20
113.6091588742061
 30
0.0
 42
0.0275320462074557
  0
VERTEX
  5
3C7
  8
1
 62
     7
 10
262.46962132957941
 20
113.5196306208761
 30
0.0
 42
0.0463976742065112
  0
VERTEX
  5
3C8
  8
1
 62
     7
 10
262.77115283255819
 20
113.4806171188353
 30
0.0
 42
0.0676675330637475
  0
VERTEX
  5
3C9
  8
1
 62
     7
 10
263.05888060759111
 20
113.5104090083092
 30
0.0
 42
0.0810370039028034
  0
VERTEX
  5
3CA
  8
1
 62
     7
 10
263.3313613138842
 20
113.62729692952421
 30
0.0
 42
0.0753062408878339
  0
VERTEX
  5
3CB
  8
1
 62
     7
 10
263.5871516106439
 20
113.8495715227062
 30
0.0
 42
0.0572766547632842
  0
VERTEX
  5
3CC
  8
1
 62
     7
 10
263.82480815707652
 20
114.195523428081
 30
0.0
  0
VERTEX
  5
3CD
  8
1
 62
     7
 10
263.93638522992211
 20
114.4205941979115
 30
0.0
  0
SEQEND
  5
3CE
  8
1
 62
     7
  0
ARC
  5
337
  8
1
 62
     7
 10
-170.1999733070669
 20
74.636555867316815
 30
0.0
 40
1.0000000000000211
 50
122.0500291495915
 51
180.0
  0
TEXT
  5
339
  8
1
 62
     7
 10
-414.585798816568
 20
227.65215369317519
 30
0.0
 40
12.0
  1
MMC 20
 41
0.9
  7
SIMPLEX
  0
ENDSEC
  0
EOF
