  0
SECTION
  2
HEADER
  9
$ACADVER
  1
AC1009
  9
$INSBASE
 10
0.0
 20
0.0
 30
0.0
  9
$EXTMIN
 10
-908.38548045981906
 20
-200.56748987604419
 30
0.0
  9
$EXTMAX
 10
673.75667112204951
 20
396.38708507461479
 30
0.0
  9
$LIMMIN
 10
-908.38548045981906
 20
-200.56748987604419
  9
$LIMMAX
 10
673.75667112204951
 20
396.38708507461467
  9
$ORTHOMODE
 70
     0
  9
$REGENMODE
 70
     1
  9
$FILLMODE
 70
     1
  9
$QTEXTMODE
 70
     0
  9
$MIRRTEXT
 70
     1
  9
$DRAGMODE
 70
     2
  9
$LTSCALE
 40
1.0
  9
$OSMODE
 70
    37
  9
$ATTMODE
 70
     1
  9
$TEXTSIZE
 40
3.5
  9
$TRACEWID
 40
0.5
  9
$TEXTSTYLE
  7
STANDARD
  9
$CLAYER
  8
0
  9
$CELTYPE
  6
BYLAYER
  9
$CECOLOR
 62
   256
  9
$DIMSCALE
 40
1.0
  9
$DIMASZ
 40
0.18
  9
$DIMEXO
 40
0.0625
  9
$DIMDLI
 40
0.38
  9
$DIMRND
 40
0.0
  9
$DIMDLE
 40
0.0
  9
$DIMEXE
 40
0.18
  9
$DIMTP
 40
0.0
  9
$DIMTM
 40
0.0
  9
$DIMTXT
 40
0.18
  9
$DIMCEN
 40
0.09
  9
$DIMTSZ
 40
0.0
  9
$DIMTOL
 70
     0
  9
$DIMLIM
 70
     0
  9
$DIMTIH
 70
     1
  9
$DIMTOH
 70
     1
  9
$DIMSE1
 70
     0
  9
$DIMSE2
 70
     0
  9
$DIMTAD
 70
     0
  9
$DIMZIN
 70
     0
  9
$DIMBLK
  1

  9
$DIMASO
 70
     1
  9
$DIMSHO
 70
     1
  9
$DIMPOST
  1

  9
$DIMAPOST
  1

  9
$DIMALT
 70
     0
  9
$DIMALTD
 70
     2
  9
$DIMALTF
 40
25.399999999999999
  9
$DIMLFAC
 40
1.0
  9
$DIMTOFL
 70
     0
  9
$DIMTVP
 40
0.0
  9
$DIMTIX
 70
     0
  9
$DIMSOXD
 70
     0
  9
$DIMSAH
 70
     0
  9
$DIMBLK1
  1

  9
$DIMBLK2
  1

  9
$DIMSTYLE
  2
STANDARD
  9
$DIMCLRD
 70
     0
  9
$DIMCLRE
 70
     0
  9
$DIMCLRT
 70
     0
  9
$DIMTFAC
 40
1.0
  9
$DIMGAP
 40
0.09
  9
$LUNITS
 70
     2
  9
$LUPREC
 70
     4
  9
$SKETCHINC
 40
0.1
  9
$FILLETRAD
 40
2.0
  9
$AUNITS
 70
     0
  9
$AUPREC
 70
     0
  9
$MENU
  1
ACAD
  9
$ELEVATION
 40
0.0
  9
$PELEVATION
 40
0.0
  9
$THICKNESS
 40
0.0
  9
$LIMCHECK
 70
     0
  9
$BLIPMODE
 70
     0
  9
$CHAMFERA
 40
0.0
  9
$CHAMFERB
 40
0.0
  9
$SKPOLY
 70
     0
  9
$TDCREATE
 40
2452094.903533217
  9
$TDUPDATE
 40
2452094.9057753468
  9
$TDINDWG
 40
0.0022574074
  9
$TDUSRTIMER
 40
0.0022574074
  9
$USRTIMER
 70
     1
  9
$ANGBASE
 50
0.0
  9
$ANGDIR
 70
     0
  9
$PDMODE
 70
     0
  9
$PDSIZE
 40
0.0
  9
$PLINEWID
 40
0.0
  9
$COORDS
 70
     1
  9
$SPLFRAME
 70
     0
  9
$SPLINETYPE
 70
     6
  9
$SPLINESEGS
 70
     8
  9
$ATTDIA
 70
     0
  9
$ATTREQ
 70
     1
  9
$HANDLING
 70
 10241
  9
$HANDSEED
  5
3B6
  9
$SURFTAB1
 70
     6
  9
$SURFTAB2
 70
     6
  9
$SURFTYPE
 70
     6
  9
$SURFU
 70
     6
  9
$SURFV
 70
     6
  9
$UCSNAME
  2

  9
$UCSORG
 10
0.0
 20
0.0
 30
0.0
  9
$UCSXDIR
 10
1.0
 20
0.0
 30
0.0
  9
$UCSYDIR
 10
0.0
 20
1.0
 30
0.0
  9
$PUCSNAME
  2

  9
$PUCSORG
 10
0.0
 20
0.0
 30
0.0
  9
$PUCSXDIR
 10
1.0
 20
0.0
 30
0.0
  9
$PUCSYDIR
 10
0.0
 20
1.0
 30
0.0
  9
$USERI1
 70
     0
  9
$USERI2
 70
     0
  9
$USERI3
 70
     0
  9
$USERI4
 70
     0
  9
$USERI5
 70
     0
  9
$USERR1
 40
0.0
  9
$USERR2
 40
0.0
  9
$USERR3
 40
0.0
  9
$USERR4
 40
0.0
  9
$USERR5
 40
0.0
  9
$WORLDVIEW
 70
     1
  9
$SHADEDGE
 70
     3
  9
$SHADEDIF
 70
    70
  9
$TILEMODE
 70
     1
  9
$MAXACTVP
 70
    64
  9
$PLIMCHECK
 70
     0
  9
$PEXTMIN
 10
1.0000000000000000E+020
 20
1.0000000000000000E+020
 30
1.0000000000000000E+020
  9
$PEXTMAX
 10
-1.0000000000000000E+020
 20
-1.0000000000000000E+020
 30
-1.0000000000000000E+020
  9
$PLIMMIN
 10
0.0
 20
0.0
  9
$PLIMMAX
 10
12.0
 20
9.0
  9
$UNITMODE
 70
     0
  9
$VISRETAIN
 70
     1
  9
$PLINEGEN
 70
     0
  9
$PSLTSCALE
 70
     1
  0
ENDSEC
  0
SECTION
  2
TABLES
  0
TABLE
  2
VPORT
 70
     2
  0
VPORT
  2
*ACTIVE
 70
     0
 10
0.0
 20
0.0
 11
1.0
 21
1.0
 12
-726.8448266798307
 22
351.94828612733659
 13
0.0
 23
0.0
 14
1.0
 24
1.0
 15
0.0
 25
0.0
 16
0.0
 26
0.0
 36
1.0
 17
0.0
 27
0.0
 37
0.0
 40
9.0001250006363112
 41
2.3963963963963959
 42
50.0
 43
0.0
 44
0.0
 50
0.0
 51
0.0
 71
     0
 72
   100
 73
     1
 74
     1
 75
     0
 76
     0
 77
     0
 78
     0
  0
ENDTAB
  0
TABLE
  2
LTYPE
 70
     9
  0
LTYPE
  2
CONTINUOUS
 70
     0
  3
Solid line
 72
    65
 73
     0
 40
0.0
  0
LTYPE
  2
BORDER
 70
     0
  3
__ __ . __ __ .
 72
    65
 73
     6
 40
72.861809612322901
 49
20.817659889235099
 49
-10.40882994461756
 49
20.817659889235099
 49
-10.40882994461756
 49
0.0
 49
-10.40882994461756
  0
LTYPE
  2
CENTER
 70
     0
  3
____ _ ____ _
 72
    65
 73
     4
 40
83.270639556940452
 49
52.044149723087777
 49
-10.40882994461756
 49
10.40882994461756
 49
-10.40882994461756
  0
LTYPE
  2
DASHDOT
 70
     0
  3
__ . __ . __ .
 72
    65
 73
     4
 40
41.635319778470219
 49
20.817659889235099
 49
-10.40882994461756
 49
0.0
 49
-10.40882994461756
  0
LTYPE
  2
DASHED
 70
     0
  3
__ __ __ __ __
 72
    65
 73
     2
 40
31.226489833852671
 49
20.817659889235099
 49
-10.40882994461756
  0
LTYPE
  2
DIVIDE
 70
     0
  3
__ . . __ . . 
 72
    65
 73
     6
 40
52.044149723087777
 49
20.817659889235099
 49
-10.40882994461756
 49
0.0
 49
-10.40882994461756
 49
0.0
 49
-10.40882994461756
  0
LTYPE
  2
DOT
 70
     0
  3
..............
 72
    65
 73
     4
 40
20.817659889235099
 49
0.0
 49
-10.40882994461756
 49
0.0
 49
-10.40882994461756
  0
LTYPE
  2
HIDDEN
 70
     0
  3
_ _ _ _ _ _ _
 72
    65
 73
     2
 40
15.61324491692633
 49
10.40882994461756
 49
-5.2044149723087783
  0
LTYPE
  2
PHANTOM
 70
     0
  3
_____ _ _ _____ _ _ 
 72
    65
 73
     6
 40
104.0882994461755
 49
52.044149723087777
 49
-10.40882994461756
 49
10.40882994461756
 49
-10.40882994461756
 49
10.40882994461756
 49
-10.40882994461756
  0
ENDTAB
  0
TABLE
  2
LAYER
 70
     2
  0
LAYER
  2
0
 70
     0
 62
     7
  6
CONTINUOUS
  0
LAYER
  2
1
 70
     0
 62
     7
  6
CONTINUOUS
  0
ENDTAB
  0
TABLE
  2
STYLE
 70
     4
  0
STYLE
  2
STANDARD
 70
     0
 40
0.0
 41
1.0
 50
0.0
 71
     0
 42
3.5
  3
txt
  4

  0
STYLE
  2
SIMPLEX
 70
     0
 40
0.0
 41
1.0
 50
0.0
 71
     0
 42
3.5
  3
simplex
  4

  0
STYLE
  2
COMPLEX
 70
     0
 40
0.0
 41
1.0
 50
0.0
 71
     0
 42
3.5
  3
complex
  4

  0
STYLE
  2
ITALIC
 70
     0
 40
0.0
 41
1.0
 50
0.0
 71
     0
 42
3.5
  3
italic
  4

  0
ENDTAB
  0
TABLE
  2
VIEW
 70
     0
  0
ENDTAB
  0
TABLE
  2
UCS
 70
     0
  0
ENDTAB
  0
TABLE
  2
APPID
 70
     1
  0
APPID
  2
ACAD
 70
     0
  0
ENDTAB
  0
TABLE
  2
DIMSTYLE
 70
     1
  0
DIMSTYLE
  2
STANDARD
 70
     0
  3

  4

  5

  6

  7

 40
1.0
 41
0.18
 42
0.0625
 43
0.38
 44
0.18
 45
0.0
 46
0.0
 47
0.0
 48
0.0
140
0.18
141
0.09
142
0.0
143
25.399999999999999
144
1.0
145
0.0
146
1.0
147
0.09
 71
     0
 72
     0
 73
     1
 74
     1
 75
     0
 76
     0
 77
     0
 78
     0
170
     0
171
     2
172
     0
173
     0
174
     0
175
     0
176
     0
177
     0
178
     0
  0
ENDTAB
  0
ENDSEC
  0
SECTION
  2
BLOCKS
  0
BLOCK
  8
0
  2
$MODEL_SPACE
 70
     0
 10
0.0
 20
0.0
 30
0.0
  3
$MODEL_SPACE
  1

  0
ENDBLK
  5
20
  8
0
  0
BLOCK
 67
     1
  8
0
  2
$PAPER_SPACE
 70
     0
 10
0.0
 20
0.0
 30
0.0
  3
$PAPER_SPACE
  1

  0
ENDBLK
  5
1C
 67
     1
  8
0
  0
ENDSEC
  0
SECTION
  2
ENTITIES
  0
LINE
  5
33
  8
1
 62
     7
 10
-189.7109932667035
 20
200.0298078915902
 30
0.0
 11
-244.71099326670341
 21
200.0298078915902
 31
0.0
  0
LINE
  5
34
  8
1
 62
     7
 10
-164.9109932667034
 20
-118.0
 30
0.0
 11
-140.51099326670339
 21
-118.0
 31
0.0
  0
LINE
  5
35
  8
1
 62
     7
 10
-164.9109932667034
 20
-195.0
 30
0.0
 11
-164.9109932667034
 21
150.0
 31
0.0
  0
LINE
  5
36
  8
1
 62
     7
 10
-168.9109932667034
 20
-195.0
 30
0.0
 11
-168.9109932667034
 21
150.0
 31
0.0
  0
LINE
  5
37
  8
1
 62
     7
 10
-189.7109932667035
 20
-200.56748987604419
 30
0.0
 11
-189.7109932667035
 21
200.0298078915902
 31
0.0
  0
LINE
  5
38
  8
1
 62
     7
 10
-188.9109932667034
 20
200.0
 30
0.0
 11
-188.9109932667034
 21
-200.0
 31
0.0
  0
LINE
  5
39
  8
1
 62
     3
 10
-167.9109932667034
 20
-110.0
 30
0.0
 11
-135.91099326670351
 21
-110.0
 31
0.0
  0
LINE
  5
3A
  8
1
 62
     3
 10
-138.9109932667034
 20
-103.59999999999999
 30
0.0
 11
-164.9109932667034
 21
-103.59999999999999
 31
0.0
  0
LINE
  5
3B
  8
1
 62
     3
 10
-138.9109932667034
 20
-116.40000000000001
 30
0.0
 11
-164.9109932667034
 21
-116.40000000000001
 31
0.0
  0
LINE
  5
3C
  8
1
 62
     7
 10
-140.51099326670339
 20
-118.0
 30
0.0
 11
-140.51099326670339
 21
-102.0
 31
0.0
  0
LINE
  5
3D
  8
1
 62
     7
 10
-140.51099326670339
 20
-102.0
 30
0.0
 11
-164.9109932667034
 21
-102.0
 31
0.0
  0
LINE
  5
3E
  8
1
 62
     7
 10
-138.9109932667034
 20
-103.59999999999999
 30
0.0
 11
-140.51099326670339
 21
-102.0
 31
0.0
  0
LINE
  5
3F
  8
1
 62
     7
 10
-138.9109932667034
 20
-116.40000000000001
 30
0.0
 11
-138.9109932667034
 21
-103.59999999999999
 31
0.0
  0
LINE
  5
40
  8
1
 62
     7
 10
-140.51099326670339
 20
-118.0
 30
0.0
 11
-138.9109932667034
 21
-116.40000000000001
 31
0.0
  0
LINE
  5
41
  8
1
 62
     7
 10
-168.9109932667034
 20
-195.0
 30
0.0
 11
-164.9109932667034
 21
-195.0
 31
0.0
  0
LINE
  5
42
  8
1
 62
     7
 10
-169.9109932667034
 20
-200.0
 30
0.0
 11
-188.9109932667034
 21
-200.0
 31
0.0
  0
LINE
  5
43
  8
1
 62
     7
 10
-169.9109932667034
 20
-200.0
 30
0.0
 11
-169.9109932667034
 21
-150.0
 31
0.0
  0
LINE
  5
44
  8
1
 62
     7
 10
-168.9109932667034
 20
-150.0
 30
0.0
 11
-169.9109932667034
 21
-150.0
 31
0.0
  0
LINE
  5
45
  8
1
 62
     7
 10
-169.9109932667034
 20
150.0
 30
0.0
 11
-169.9109932667034
 21
200.0
 31
0.0
  0
LINE
  5
46
  8
1
 62
     7
 10
-165.9109932667034
 20
161.60469607439541
 30
0.0
 11
-165.9109932667034
 21
195.0
 31
0.0
  0
LINE
  5
47
  8
1
 62
     7
 10
-152.1109932667035
 20
189.0
 30
0.0
 11
-152.1109932667035
 21
171.0
 31
0.0
  0
LINE
  5
48
  8
1
 62
     7
 10
-152.1109932667035
 20
171.0
 30
0.0
 11
-163.4109932667034
 21
171.0
 31
0.0
  0
LINE
  5
49
  8
1
 62
     7
 10
-151.4109932667034
 20
172.21243556529811
 30
0.0
 11
-152.1109932667035
 21
171.0
 31
0.0
  0
LINE
  5
4A
  8
1
 62
     7
 10
-151.4109932667034
 20
187.78756443470181
 30
0.0
 11
-151.4109932667034
 21
172.21243556529811
 31
0.0
  0
LINE
  5
4B
  8
1
 62
     7
 10
-152.1109932667035
 20
189.0
 30
0.0
 11
-151.4109932667034
 21
187.78756443470181
 31
0.0
  0
LINE
  5
4C
  8
1
 62
     7
 10
-163.4109932667034
 20
189.0
 30
0.0
 11
-152.1109932667035
 21
189.0
 31
0.0
  0
LINE
  5
4D
  8
1
 62
     7
 10
-163.4109932667034
 20
168.0
 30
0.0
 11
-165.9109932667034
 21
168.0
 31
0.0
  0
LINE
  5
4E
  8
1
 62
     7
 10
-163.4109932667034
 20
192.0
 30
0.0
 11
-163.4109932667034
 21
168.0
 31
0.0
  0
LINE
  5
4F
  8
1
 62
     7
 10
-165.9109932667034
 20
192.0
 30
0.0
 11
-163.4109932667034
 21
192.0
 31
0.0
  0
LINE
  5
50
  8
1
 62
     7
 10
-168.9109932667034
 20
150.0
 30
0.0
 11
-169.9109932667034
 21
161.43005230276131
 31
0.0
  0
LINE
  5
51
  8
1
 62
     7
 10
-165.9109932667034
 20
161.60469607439541
 30
0.0
 11
-164.9109932667034
 21
150.0
 31
0.0
  0
LINE
  5
52
  8
1
 62
     7
 10
-169.9109932667034
 20
195.0
 30
0.0
 11
-165.9109932667034
 21
195.0
 31
0.0
  0
LINE
  5
53
  8
1
 62
     7
 10
-188.9109932667034
 20
200.0
 30
0.0
 11
-169.9109932667034
 21
200.0
 31
0.0
  0
LINE
  5
54
  8
1
 62
     7
 10
-244.71099326670341
 20
-200.56748987604419
 30
0.0
 11
-189.7109932667035
 21
-200.56748987604419
 31
0.0
  0
LINE
  5
55
  8
1
 62
     7
 10
-244.71099326670341
 20
200.0298078915902
 30
0.0
 11
-244.71099326670341
 21
188.2298078915901
 31
0.0
  0
LINE
  5
56
  8
1
 62
     7
 10
-169.9109932667034
 20
150.0
 30
0.0
 11
-168.9109932667034
 21
150.0
 31
0.0
  0
LINE
  5
57
  8
1
 62
     3
 10
-164.9109932667034
 20
0.0000000000000071
 30
0.0
 11
-159.9109932667034
 21
0.0000000000000071
 31
0.0
  0
LINE
  5
58
  8
1
 62
     7
 10
-244.71099326670341
 20
-187.5
 30
0.0
 11
-281.71099326670361
 21
-187.5
 31
0.0
  0
LINE
  5
59
  8
1
 62
     7
 10
-290.71099326670361
 20
-55.0
 30
0.0
 11
-295.71099326670361
 21
-55.0
 31
0.0
  0
LINE
  5
5A
  8
1
 62
     7
 10
418.11057642500748
 20
207.6740526521497
 30
0.0
 11
421.99286210154531
 21
193.18516525781359
 31
0.0
  0
LINE
  5
5B
  8
1
 62
     7
 10
420.0424280775855
 20
208.19169074235469
 30
0.0
 11
416.17872477242929
 21
207.1564145619447
 31
0.0
  0
LINE
  5
5C
  8
1
 62
     7
 10
420.0424280775855
 20
208.19169074235469
 30
0.0
 11
423.92730200928253
 21
193.69314384826231
 31
0.0
  0
LINE
  5
5D
  8
1
 62
     7
 10
416.17872477242929
 20
207.1564145619447
 30
0.0
 11
420.06359870412621
 21
192.65786766785229
 31
0.0
  0
LINE
  5
5E
  8
1
 62
     7
 10
37.000000000000092
 20
202.49999999999989
 30
0.0
 11
39.0
 21
202.49999999999989
 31
0.0
  0
LINE
  5
5F
  8
1
 62
     7
 10
39.0
 20
202.49999999999989
 30
0.0
 11
39.0
 21
187.5
 31
0.0
  0
LINE
  5
60
  8
1
 62
     7
 10
37.000000000000092
 20
202.49999999999989
 30
0.0
 11
37.0
 21
187.5
 31
0.0
  0
LINE
  5
61
  8
1
 62
     7
 10
102.0
 20
86.999999999999986
 30
0.0
 11
102.0
 21
137.52980789159011
 31
0.0
  0
LINE
  5
62
  8
1
 62
     7
 10
41.0
 20
-140.0
 30
0.0
 11
78.000000000000014
 21
-140.0
 31
0.0
  0
LINE
  5
63
  8
1
 62
     7
 10
85.000000000000014
 20
-52.5
 30
0.0
 11
102.0
 21
-52.5
 31
0.0
  0
LINE
  5
64
  8
1
 62
     7
 10
85.000000000000014
 20
-93.0
 30
0.0
 11
60.0
 21
-93.0
 31
0.0
  0
LINE
  5
65
  8
1
 62
     7
 10
85.000000000000014
 20
-93.0
 30
0.0
 11
85.000000000000014
 21
-52.5
 31
0.0
  0
LINE
  5
66
  8
1
 62
     7
 10
76.000000000000043
 20
93.0
 30
0.0
 11
76.000000000000043
 21
118.9499999999999
 31
0.0
  0
LINE
  5
67
  8
1
 62
     7
 10
41.0
 20
140.55000000000001
 30
0.0
 11
78.000000000000014
 21
140.55000000000001
 31
0.0
  0
LINE
  5
68
  8
1
 62
     7
 10
130.80000000000001
 20
-195.0
 30
0.0
 11
130.80000000000001
 21
-118.0
 31
0.0
  0
LINE
  5
69
  8
1
 62
     7
 10
126.8
 20
-195.0
 30
0.0
 11
126.8
 21
150.0
 31
0.0
  0
LINE
  5
6A
  8
1
 62
     7
 10
106.0
 20
-200.56748987604419
 30
0.0
 11
106.0
 21
63.0
 31
0.0
  0
LINE
  5
6B
  8
1
 62
     7
 10
10.0
 20
-100.0
 30
0.0
 11
10.0
 21
-52.5
 31
0.0
  0
LINE
  5
6C
  8
1
 62
     7
 10
55.0
 20
-88.0
 30
0.0
 11
55.0
 21
-65.000000000000014
 31
0.0
  0
LINE
  5
6D
  8
1
 62
     7
 10
42.59999999999998
 20
-55.0
 30
0.0
 11
10.0
 21
-55.0
 31
0.0
  0
LINE
  5
6E
  8
1
 62
     7
 10
5.0
 20
152.0
 30
0.0
 11
5.0
 21
55.0
 31
0.0
  0
LINE
  5
6F
  8
1
 62
     7
 10
42.59999999999998
 20
55.0
 30
0.0
 11
10.0
 21
55.0
 31
0.0
  0
LINE
  5
70
  8
1
 62
     7
 10
10.0
 20
100.0
 30
0.0
 11
10.0
 21
52.5
 31
0.0
  0
LINE
  5
71
  8
1
 62
     7
 10
10.0
 20
100.0
 30
0.0
 11
48.0
 21
100.0
 31
0.0
  0
LINE
  5
72
  8
1
 62
     7
 10
48.0
 20
102.5000000000001
 30
0.0
 11
48.0
 21
60.399999999999991
 31
0.0
  0
LINE
  5
73
  8
1
 62
     7
 10
55.0
 20
87.999999999999986
 30
0.0
 11
55.0
 21
64.999999999999986
 31
0.0
  0
LINE
  5
74
  8
1
 62
     7
 10
94.0
 20
87.999999999999986
 30
0.0
 11
94.0
 21
61.999999999999993
 31
0.0
  0
LINE
  5
75
  8
1
 62
     7
 10
106.0
 20
86.999999999999986
 30
0.0
 11
106.0
 21
200.0298078915902
 31
0.0
  0
LINE
  5
76
  8
1
 62
     7
 10
106.8
 20
86.999999999999986
 30
0.0
 11
106.8
 21
200.0
 31
0.0
  0
LINE
  5
77
  8
1
 62
     7
 10
102.0
 20
137.52980789159011
 30
0.0
 11
105.6999999999999
 21
137.52980789159011
 31
0.0
  0
LINE
  5
78
  8
1
 62
     7
 10
78.000000000000014
 20
139.0298078915902
 30
0.0
 11
78.0
 21
187.5
 31
0.0
  0
LINE
  5
79
  8
1
  6
DASHDOT
 62
     3
 10
-708.38548045981918
 20
20.00000000000006
 30
0.0
 11
-708.38548045981918
 21
-20.000000000000039
 31
0.0
  0
LINE
  5
7A
  8
1
  6
DASHDOT
 62
     3
 10
-688.38548045981906
 20
0.0000000000000071
 30
0.0
 11
-728.38548045981918
 21
0.0000000000000071
 31
0.0
  0
LINE
  5
7B
  8
1
 62
     7
 10
-660.49466593016177
 20
186.45835965085061
 30
0.0
 11
-661.79152197068765
 21
181.61842701750589
 31
0.0
  0
LINE
  5
7C
  8
1
 62
     7
 10
-658.56281427758381
 20
185.94072156064561
 30
0.0
 11
-659.85690950309629
 21
181.11109242920031
 31
0.0
  0
LINE
  5
7D
  8
1
 62
     7
 10
-656.63096262500574
 20
185.4230834704405
 30
0.0
 11
-657.92781866553128
 21
180.58315083709579
 31
0.0
  0
LINE
  5
7E
  8
1
 62
     7
 10
-584.45794598906502
 20
123.4184175883001
 30
0.0
 11
-584.96706287151903
 21
123.9275344707542
 31
0.0
  0
LINE
  5
7F
  8
1
 62
     7
 10
-587.85205853876039
 20
123.9275344707543
 30
0.0
 11
-588.36117542121463
 21
123.4184175883001
 31
0.0
  0
LINE
  5
80
  8
1
 62
     7
 10
-588.3611754212144
 20
120.5334219210587
 30
0.0
 11
-587.85205853876039
 21
120.0243050386046
 31
0.0
  0
LINE
  5
81
  8
1
 62
     7
 10
-584.96706287151903
 20
120.0243050386046
 30
0.0
 11
-584.45794598906446
 21
120.5334219210589
 31
0.0
  0
LINE
  5
82
  8
1
 62
     7
 10
-593.25763638087085
 20
122.1989118908139
 30
0.0
 11
-586.18656856900532
 21
115.1278440789484
 31
0.0
  0
LINE
  5
83
  8
1
 62
     7
 10
-586.18656856900532
 20
115.1278440789484
 30
0.0
 11
-574.16575328883368
 21
127.14865935911951
 31
0.0
  0
LINE
  5
84
  8
1
 62
     7
 10
-581.23682110069922
 20
134.21972717098501
 30
0.0
 11
-574.16575328883368
 21
127.14865935911951
 31
0.0
  0
LINE
  5
85
  8
1
 62
     7
 10
-593.25763638087085
 20
122.1989118908139
 30
0.0
 11
-581.23682110069922
 21
134.21972717098501
 31
0.0
  0
LINE
  5
86
  8
1
 62
     7
 10
-519.579550454784
 20
163.23468299541881
 30
0.0
 11
-519.97311329529634
 21
161.80785285200241
 31
0.0
  0
LINE
  5
87
  8
1
 62
     7
 10
-519.579550454784
 20
163.23468299541881
 30
0.0
 11
-516.20554872587275
 21
162.30403143156519
 31
0.0
  0
LINE
  5
88
  8
1
 62
     7
 10
-516.59911156638486
 20
160.87720128814871
 30
0.0
 11
-516.20554872587275
 21
162.30403143156519
 31
0.0
  0
LINE
  5
89
  8
1
 62
     7
 10
-519.09755020779664
 20
163.1017327720113
 30
0.0
 11
-518.79377230221576
 21
164.203054919251
 31
0.0
  0
LINE
  5
8A
  8
1
 62
     7
 10
-516.68754897285987
 20
162.4369816549729
 30
0.0
 11
-516.38377106727899
 21
163.53830380221291
 31
0.0
  0
LINE
  5
8B
  8
1
 62
     7
 10
-515.90177082029152
 20
163.40535357880509
 30
0.0
 11
-519.27577254920277
 21
164.33600514265879
 31
0.0
  0
LINE
  5
8C
  8
1
 62
     7
 10
-515.67374783224193
 20
164.23203241951461
 30
0.0
 11
-515.90177082029152
 21
163.40535357880509
 31
0.0
  0
LINE
  5
8D
  8
1
 62
     7
 10
-515.67374783224193
 20
164.23203241951461
 30
0.0
 11
-515.54274802645125
 21
166.58736459362041
 31
0.0
  0
LINE
  5
8E
  8
1
 62
     7
 10
-519.04774956115341
 20
165.16268398336811
 30
0.0
 11
-517.95274926138768
 21
167.25211571065881
 31
0.0
  0
LINE
  5
8F
  8
1
 62
     7
 10
-517.95274926138768
 20
167.25211571065881
 30
0.0
 11
-515.54274802645125
 21
166.58736459362041
 31
0.0
  0
LINE
  5
90
  8
1
 62
     7
 10
-519.27577254920277
 20
164.33600514265879
 30
0.0
 11
-519.04774956115341
 21
165.16268398336811
 31
0.0
  0
LINE
  5
91
  8
1
 62
     7
 10
-522.31468886519906
 20
155.19906363365951
 30
0.0
 11
-520.45511354228381
 21
161.94080307541009
 31
0.0
  0
LINE
  5
92
  8
1
 62
     7
 10
-516.11711131939762
 20
160.74425106474109
 30
0.0
 11
-520.45511354228381
 21
161.94080307541009
 31
0.0
  0
LINE
  5
93
  8
1
 62
     7
 10
-517.97668664231321
 20
154.0025116229908
 30
0.0
 11
-522.31468886519906
 21
155.19906363365951
 31
0.0
  0
LINE
  5
94
  8
1
 62
     7
 10
-517.97668664231321
 20
154.0025116229908
 30
0.0
 11
-516.11711131939762
 21
160.74425106474109
 31
0.0
  0
LINE
  5
95
  8
1
 62
     7
 10
-529.07746731508553
 20
162.0428927228493
 30
0.0
 11
-529.07746731508553
 21
155.049390661503
 31
0.0
  0
LINE
  5
96
  8
1
 62
     7
 10
-524.57746731508541
 20
162.0428927228493
 30
0.0
 11
-524.57746731508541
 21
155.049390661503
 31
0.0
  0
LINE
  5
97
  8
1
 62
     7
 10
-525.07746731508553
 20
165.52300622106259
 30
0.0
 11
-525.07746731508553
 21
164.66545599585379
 31
0.0
  0
LINE
  5
98
  8
1
 62
     7
 10
-528.07746731508553
 20
167.8283805072675
 30
0.0
 11
-525.57746731508553
 21
167.8283805072675
 31
0.0
  0
LINE
  5
99
  8
1
 62
     7
 10
-525.57746731508553
 20
167.8283805072675
 30
0.0
 11
-525.07746731508553
 21
165.52300622106259
 31
0.0
  0
LINE
  5
9A
  8
1
 62
     7
 10
-528.07746731508553
 20
167.8283805072675
 30
0.0
 11
-528.57746731508553
 21
165.52300622106259
 31
0.0
  0
LINE
  5
9B
  8
1
 62
     7
 10
-528.57746731508553
 20
164.66545599585379
 30
0.0
 11
-528.57746731508553
 21
165.52300622106259
 31
0.0
  0
LINE
  5
9C
  8
1
 62
     7
 10
-528.07746731508553
 20
164.66545599585379
 30
0.0
 11
-528.07746731508553
 21
163.52300622106259
 31
0.0
  0
LINE
  5
9D
  8
1
 62
     7
 10
-525.57746731508553
 20
164.66545599585379
 30
0.0
 11
-525.57746731508553
 21
163.52300622106259
 31
0.0
  0
LINE
  5
9E
  8
1
 62
     7
 10
-528.57746731508553
 20
163.52300622106259
 30
0.0
 11
-528.57746731508553
 21
162.0428927228493
 31
0.0
  0
LINE
  5
9F
  8
1
 62
     7
 10
-528.57746731508553
 20
163.52300622106259
 30
0.0
 11
-525.07746731508553
 21
163.52300622106259
 31
0.0
  0
LINE
  5
A0
  8
1
 62
     7
 10
-529.07746731508553
 20
155.049390661503
 30
0.0
 11
-524.57746731508541
 21
155.049390661503
 31
0.0
  0
LINE
  5
A1
  8
1
 62
     7
 10
-529.07746731508553
 20
162.0428927228493
 30
0.0
 11
-524.57746731508541
 21
162.0428927228493
 31
0.0
  0
LINE
  5
A2
  8
1
 62
     7
 10
-525.07746731508553
 20
162.0428927228493
 30
0.0
 11
-525.07746731508553
 21
163.52300622106259
 31
0.0
  0
LINE
  5
A3
  8
1
 62
     7
 10
-528.57746731508553
 20
164.66545599585379
 30
0.0
 11
-525.07746731508553
 21
164.66545599585379
 31
0.0
  0
LINE
  5
A4
  8
1
 62
     7
 10
-527.82746731508553
 20
141.73897307173061
 30
0.0
 11
-527.82746731508553
 21
155.049390661503
 31
0.0
  0
LINE
  5
A5
  8
1
 62
     7
 10
-525.82746731508553
 20
155.049390661503
 30
0.0
 11
-525.82746731508553
 21
141.7389730717338
 31
0.0
  0
LINE
  5
A6
  8
1
 62
     7
 10
-519.1816872597816
 20
154.3348871815098
 30
0.0
 11
-524.95988346353647
 21
133.38650570484521
 31
0.0
  0
LINE
  5
A7
  8
1
 62
     7
 10
-520.96923870447768
 20
154.827947849861
 30
0.0
 11
-526.88548618832249
 21
133.92098722906849
 31
0.0
  0
LINE
  5
A8
  8
1
 62
     7
 10
-685.38548045981895
 20
166.97653314140791
 30
0.0
 11
-688.38548045981906
 21
168.70858394897681
 31
0.0
  0
LINE
  5
A9
  8
1
 62
     7
 10
-685.38548045981895
 20
163.51243152627001
 30
0.0
 11
-685.38548045981895
 21
166.97653314140791
 31
0.0
  0
LINE
  5
AA
  8
1
 62
     7
 10
-688.38548045981906
 20
161.78038071870111
 30
0.0
 11
-685.38548045981895
 21
163.51243152627001
 31
0.0
  0
LINE
  5
AB
  8
1
 62
     7
 10
-691.38548045981918
 20
163.51243152627001
 30
0.0
 11
-688.38548045981906
 21
161.78038071870111
 31
0.0
  0
LINE
  5
AC
  8
1
 62
     7
 10
-691.38548045981918
 20
166.97653314140791
 30
0.0
 11
-691.38548045981918
 21
163.51243152627001
 31
0.0
  0
LINE
  5
AD
  8
1
 62
     7
 10
-688.38548045981906
 20
168.70858394897681
 30
0.0
 11
-691.38548045981918
 21
166.97653314140791
 31
0.0
  0
LINE
  5
AE
  8
1
 62
     7
 10
-725.38548045981918
 20
166.97653314140791
 30
0.0
 11
-728.38548045981918
 21
168.70858394897681
 31
0.0
  0
LINE
  5
AF
  8
1
 62
     7
 10
-725.38548045981918
 20
163.51243152627001
 30
0.0
 11
-725.38548045981918
 21
166.97653314140791
 31
0.0
  0
LINE
  5
B0
  8
1
 62
     7
 10
-728.38548045981918
 20
161.78038071870111
 30
0.0
 11
-725.38548045981918
 21
163.51243152627001
 31
0.0
  0
LINE
  5
B1
  8
1
 62
     7
 10
-731.38548045981906
 20
163.51243152627001
 30
0.0
 11
-728.38548045981918
 21
161.78038071870111
 31
0.0
  0
LINE
  5
B2
  8
1
 62
     7
 10
-731.38548045981906
 20
166.97653314140791
 30
0.0
 11
-731.38548045981906
 21
163.51243152627001
 31
0.0
  0
LINE
  5
B3
  8
1
 62
     7
 10
-728.38548045981918
 20
168.70858394897681
 30
0.0
 11
-731.38548045981906
 21
166.97653314140791
 31
0.0
  0
LINE
  5
B4
  8
1
 62
     7
 10
-2.5
 20
158.7444823338389
 30
0.0
 11
-2.5
 21
171.7444823338389
 31
0.0
  0
LINE
  5
B5
  8
1
 62
     7
 10
-2.5
 20
171.7444823338389
 30
0.0
 11
5.0
 21
171.7444823338389
 31
0.0
  0
LINE
  5
B6
  8
1
 62
     7
 10
-3.0
 20
170.87845693005451
 30
0.0
 11
-2.5
 21
171.7444823338389
 31
0.0
  0
LINE
  5
B7
  8
1
 62
     7
 10
-3.0
 20
159.61050773762341
 30
0.0
 11
-3.0
 21
170.87845693005451
 31
0.0
  0
LINE
  5
B8
  8
1
 62
     7
 10
-2.5
 20
158.7444823338389
 30
0.0
 11
-3.0
 21
159.61050773762341
 31
0.0
  0
LINE
  5
B9
  8
1
 62
     7
 10
5.0
 20
158.7444823338389
 30
0.0
 11
-2.5
 21
158.7444823338389
 31
0.0
  0
LINE
  5
BA
  8
1
 62
     7
 10
-694.38548045981906
 20
-61.888774341229933
 30
0.0
 11
-697.38548045981895
 21
-61.888774341229933
 31
0.0
  0
LINE
  5
BB
  8
1
 62
     7
 10
-697.38548045981895
 20
-61.888774341229933
 30
0.0
 11
-697.38548045981895
 21
-53.888774341229919
 31
0.0
  0
LINE
  5
BC
  8
1
 62
     7
 10
-722.38548045981906
 20
-61.888774341229933
 30
0.0
 11
-719.38548045981906
 21
-61.888774341229933
 31
0.0
  0
LINE
  5
BD
  8
1
 62
     7
 10
-719.38548045981906
 20
-61.888774341229933
 30
0.0
 11
-719.38548045981906
 21
-53.888774341229919
 31
0.0
  0
LINE
  5
BE
  8
1
 62
     7
 10
-691.38548045981918
 20
-58.888774341229919
 30
0.0
 11
-691.38548045981918
 21
-54.811472835828781
 31
0.0
  0
LINE
  5
BF
  8
1
 62
     7
 10
-725.38548045981918
 20
-58.888774341229919
 30
0.0
 11
-725.38548045981918
 21
-54.811472835828781
 31
0.0
  0
LINE
  5
C0
  8
1
 62
     7
 10
0.0
 20
-39.999999999999993
 30
0.0
 11
102.0
 21
-39.999999999999993
 31
0.0
  0
LINE
  5
C1
  8
1
 62
     7
 10
80.999999999999986
 20
-138.4499999999999
 30
0.0
 11
46.0
 21
-138.4499999999999
 31
0.0
  0
LINE
  5
C2
  8
1
 62
     7
 10
0.0
 20
40.0
 30
0.0
 11
102.0
 21
40.0
 31
0.0
  0
LINE
  5
C3
  8
1
 62
     7
 10
0.0
 20
46.0
 30
0.0
 11
102.0
 21
46.0
 31
0.0
  0
LINE
  5
C4
  8
1
 62
     7
 10
102.0
 20
-137.5
 30
0.0
 11
106.0
 21
-137.5
 31
0.0
  0
LINE
  5
C5
  8
1
 62
     3
 10
60.600000000000009
 20
66.999999999999986
 30
0.0
 11
55.0
 21
66.999999999999986
 31
0.0
  0
LINE
  5
C6
  8
1
 62
     7
 10
59.000000000000007
 20
68.599999999999994
 30
0.0
 11
55.0
 21
68.599999999999994
 31
0.0
  0
LINE
  5
C7
  8
1
 62
     7
 10
59.000000000000007
 20
81.399999999999977
 30
0.0
 11
55.0
 21
81.399999999999977
 31
0.0
  0
LINE
  5
C8
  8
1
 62
     3
 10
60.600000000000009
 20
82.999999999999986
 30
0.0
 11
55.0
 21
82.999999999999986
 31
0.0
  0
LINE
  5
C9
  8
1
 62
     3
 10
90.728718707889854
 20
82.999999999999986
 30
0.0
 11
90.728718707889854
 21
66.999999999999986
 31
0.0
  0
LINE
  5
CA
  8
1
 62
     3
 10
90.728718707889854
 20
68.599999999999994
 30
0.0
 11
93.499999999999986
 21
66.999999999999986
 31
0.0
  0
LINE
  5
CB
  8
1
 62
     3
 10
59.000000000000007
 20
68.599999999999994
 30
0.0
 11
90.728718707889854
 21
68.599999999999994
 31
0.0
  0
LINE
  5
CC
  8
1
 62
     3
 10
90.728718707889854
 20
81.399999999999977
 30
0.0
 11
93.499999999999986
 21
82.999999999999986
 31
0.0
  0
LINE
  5
CD
  8
1
 62
     3
 10
59.000000000000007
 20
81.399999999999977
 30
0.0
 11
90.728718707889854
 21
81.399999999999977
 31
0.0
  0
LINE
  5
CE
  8
1
 62
     7
 10
60.600000000000009
 20
82.999999999999986
 30
0.0
 11
60.600000000000009
 21
66.999999999999986
 31
0.0
  0
LINE
  5
CF
  8
1
 62
     7
 10
60.600000000000009
 20
66.999999999999986
 30
0.0
 11
94.0
 21
66.999999999999986
 31
0.0
  0
LINE
  5
D0
  8
1
 62
     7
 10
59.000000000000007
 20
68.599999999999994
 30
0.0
 11
60.600000000000009
 21
66.999999999999986
 31
0.0
  0
LINE
  5
D1
  8
1
 62
     7
 10
59.000000000000007
 20
81.399999999999977
 30
0.0
 11
59.000000000000007
 21
68.599999999999994
 31
0.0
  0
LINE
  5
D2
  8
1
 62
     7
 10
60.600000000000009
 20
82.999999999999986
 30
0.0
 11
59.000000000000007
 21
81.399999999999977
 31
0.0
  0
LINE
  5
D3
  8
1
 62
     7
 10
94.0
 20
82.999999999999986
 30
0.0
 11
60.600000000000009
 21
82.999999999999986
 31
0.0
  0
LINE
  5
D4
  8
1
 62
     7
 10
109.0
 20
86.999999999999986
 30
0.0
 11
109.0
 21
62.999999999999993
 31
0.0
  0
LINE
  5
D5
  8
1
 62
     7
 10
109.0
 20
62.999999999999993
 30
0.0
 11
94.0
 21
62.999999999999993
 31
0.0
  0
LINE
  5
D6
  8
1
 62
     7
 10
110.0
 20
64.732050807568896
 30
0.0
 11
109.0
 21
62.999999999999993
 31
0.0
  0
LINE
  5
D7
  8
1
 62
     7
 10
110.0
 20
85.267949192431203
 30
0.0
 11
110.0
 21
64.732050807568896
 31
0.0
  0
LINE
  5
D8
  8
1
 62
     7
 10
109.0
 20
86.999999999999986
 30
0.0
 11
110.0
 21
85.267949192431203
 31
0.0
  0
LINE
  5
D9
  8
1
 62
     7
 10
94.0
 20
86.999999999999986
 30
0.0
 11
109.0
 21
86.999999999999986
 31
0.0
  0
LINE
  5
DA
  8
1
 62
     7
 10
102.0
 20
87.999999999999986
 30
0.0
 11
94.0
 21
87.999999999999986
 31
0.0
  0
LINE
  5
DB
  8
1
 62
     7
 10
52.000000000000007
 20
100.0
 30
0.0
 11
76.000000000000043
 21
100.0
 31
0.0
  0
LINE
  5
DC
  8
1
 62
     7
 10
5.0
 20
153.0
 30
0.0
 11
10.0
 21
153.0
 31
0.0
  0
LINE
  5
DD
  8
1
 62
     7
 10
5.0
 20
213.5
 30
0.0
 11
10.0
 21
213.5
 31
0.0
  0
LINE
  5
DE
  8
1
 62
     3
 10
2.4049657916083049
 20
220.0
 30
0.0
 11
13.3324453513502
 21
220.0
 31
0.0
  0
LINE
  5
DF
  8
1
 62
     7
 10
5.0
 20
226.5
 30
0.0
 11
10.0
 21
226.5
 31
0.0
  0
LINE
  5
E0
  8
1
 62
     7
 10
5.0
 20
233.0
 30
0.0
 11
10.0
 21
233.0
 31
0.0
  0
LINE
  5
E1
  8
1
 62
     7
 10
5.0
 20
233.0
 30
0.0
 11
5.0
 21
153.0
 31
0.0
  0
LINE
  5
E2
  8
1
 62
     3
 10
107.8
 20
-110.0
 30
0.0
 11
159.80000000000001
 21
-110.0
 31
0.0
  0
LINE
  5
E3
  8
1
 62
     3
 10
130.0712812921102
 20
-118.0
 30
0.0
 11
130.0712812921102
 21
-102.0
 31
0.0
  0
LINE
  5
E4
  8
1
 62
     3
 10
130.0712812921102
 20
-103.59999999999999
 30
0.0
 11
127.2999999999999
 21
-102.0
 31
0.0
  0
LINE
  5
E5
  8
1
 62
     3
 10
156.80000000000001
 20
-103.59999999999999
 30
0.0
 11
130.0712812921102
 21
-103.59999999999999
 31
0.0
  0
LINE
  5
E6
  8
1
 62
     3
 10
130.0712812921102
 20
-116.40000000000001
 30
0.0
 11
127.2999999999999
 21
-118.0
 31
0.0
  0
LINE
  5
E7
  8
1
 62
     3
 10
156.80000000000001
 20
-116.40000000000001
 30
0.0
 11
130.0712812921102
 21
-116.40000000000001
 31
0.0
  0
LINE
  5
E8
  8
1
 62
     7
 10
155.1999999999999
 20
-118.0
 30
0.0
 11
155.1999999999999
 21
-102.0
 31
0.0
  0
LINE
  5
E9
  8
1
 62
     7
 10
155.1999999999999
 20
-102.0
 30
0.0
 11
126.8
 21
-102.0
 31
0.0
  0
LINE
  5
EA
  8
1
 62
     7
 10
156.80000000000001
 20
-103.59999999999999
 30
0.0
 11
155.1999999999999
 21
-102.0
 31
0.0
  0
LINE
  5
EB
  8
1
 62
     7
 10
156.80000000000001
 20
-116.40000000000001
 30
0.0
 11
156.80000000000001
 21
-103.59999999999999
 31
0.0
  0
LINE
  5
EC
  8
1
 62
     7
 10
155.1999999999999
 20
-118.0
 30
0.0
 11
156.80000000000001
 21
-116.40000000000001
 31
0.0
  0
LINE
  5
ED
  8
1
 62
     7
 10
126.8
 20
-118.0
 30
0.0
 11
155.1999999999999
 21
-118.0
 31
0.0
  0
LINE
  5
EE
  8
1
 62
     7
 10
111.8
 20
-122.0
 30
0.0
 11
111.8
 21
-98.0
 31
0.0
  0
LINE
  5
EF
  8
1
 62
     7
 10
111.8
 20
-98.0
 30
0.0
 11
126.8
 21
-98.0
 31
0.0
  0
LINE
  5
F0
  8
1
 62
     7
 10
110.8
 20
-99.732050807568797
 30
0.0
 11
111.8
 21
-98.0
 31
0.0
  0
LINE
  5
F1
  8
1
 62
     7
 10
110.8
 20
-120.267949192431
 30
0.0
 11
110.8
 21
-99.732050807568797
 31
0.0
  0
LINE
  5
F2
  8
1
 62
     7
 10
111.8
 20
-122.0
 30
0.0
 11
110.8
 21
-120.267949192431
 31
0.0
  0
LINE
  5
F3
  8
1
 62
     7
 10
126.8
 20
-122.0
 30
0.0
 11
111.8
 21
-122.0
 31
0.0
  0
LINE
  5
F4
  8
1
 62
     7
 10
126.8
 20
-195.0
 30
0.0
 11
130.80000000000001
 21
-195.0
 31
0.0
  0
LINE
  5
F5
  8
1
 62
     7
 10
125.8
 20
-200.0
 30
0.0
 11
106.8
 21
-200.0
 31
0.0
  0
LINE
  5
F6
  8
1
 62
     7
 10
125.8
 20
-200.0
 30
0.0
 11
125.8
 21
-150.0
 31
0.0
  0
LINE
  5
F7
  8
1
 62
     7
 10
126.8
 20
-150.0
 30
0.0
 11
125.8
 21
-150.0
 31
0.0
  0
LINE
  5
F8
  8
1
 62
     7
 10
126.8
 20
-137.5
 30
0.0
 11
106.8
 21
-137.5
 31
0.0
  0
LINE
  5
F9
  8
1
 62
     7
 10
106.8
 20
-200.0
 30
0.0
 11
106.8
 21
63.000000000000028
 31
0.0
  0
LINE
  5
FA
  8
1
 62
     7
 10
130.80000000000001
 20
-102.0
 30
0.0
 11
130.80000000000001
 21
150.0
 31
0.0
  0
LINE
  5
FB
  8
1
 62
     7
 10
130.7847206498266
 20
-92.5
 30
0.0
 11
126.8
 21
-92.5
 31
0.0
  0
LINE
  5
FC
  8
1
 62
     7
 10
125.8
 20
150.0
 30
0.0
 11
125.8
 21
200.0
 31
0.0
  0
LINE
  5
FD
  8
1
 62
     7
 10
129.80000000000001
 20
161.60469607439541
 30
0.0
 11
129.80000000000001
 21
195.0
 31
0.0
  0
LINE
  5
FE
  8
1
 62
     7
 10
143.59999999999991
 20
189.0
 30
0.0
 11
143.59999999999991
 21
171.0
 31
0.0
  0
LINE
  5
FF
  8
1
 62
     7
 10
143.59999999999991
 20
171.0
 30
0.0
 11
132.30000000000001
 21
171.0
 31
0.0
  0
LINE
  5
100
  8
1
 62
     7
 10
144.30000000000001
 20
172.21243556529811
 30
0.0
 11
143.59999999999991
 21
171.0
 31
0.0
  0
LINE
  5
101
  8
1
 62
     7
 10
144.30000000000001
 20
187.78756443470181
 30
0.0
 11
144.30000000000001
 21
172.21243556529811
 31
0.0
  0
LINE
  5
102
  8
1
 62
     7
 10
143.59999999999991
 20
189.0
 30
0.0
 11
144.30000000000001
 21
187.78756443470181
 31
0.0
  0
LINE
  5
103
  8
1
 62
     7
 10
132.30000000000001
 20
189.0
 30
0.0
 11
143.59999999999991
 21
189.0
 31
0.0
  0
LINE
  5
104
  8
1
 62
     7
 10
132.30000000000001
 20
168.0
 30
0.0
 11
129.80000000000001
 21
168.0
 31
0.0
  0
LINE
  5
105
  8
1
 62
     7
 10
132.30000000000001
 20
192.0
 30
0.0
 11
132.30000000000001
 21
168.0
 31
0.0
  0
LINE
  5
106
  8
1
 62
     7
 10
129.80000000000001
 20
192.0
 30
0.0
 11
132.30000000000001
 21
192.0
 31
0.0
  0
LINE
  5
107
  8
1
 62
     7
 10
126.8
 20
92.5
 30
0.0
 11
130.80000000000001
 21
92.5
 31
0.0
  0
LINE
  5
108
  8
1
 62
     7
 10
126.8
 20
150.0
 30
0.0
 11
125.8
 21
161.43005230276131
 31
0.0
  0
LINE
  5
109
  8
1
 62
     7
 10
129.80000000000001
 20
161.60469607439541
 30
0.0
 11
130.80000000000001
 21
150.0
 31
0.0
  0
LINE
  5
10A
  8
1
 62
     7
 10
125.8
 20
195.0
 30
0.0
 11
129.80000000000001
 21
195.0
 31
0.0
  0
LINE
  5
10B
  8
1
 62
     7
 10
106.8
 20
137.5
 30
0.0
 11
126.8
 21
137.5
 31
0.0
  0
LINE
  5
10C
  8
1
 62
     7
 10
106.8
 20
200.0
 30
0.0
 11
125.8
 21
200.0
 31
0.0
  0
LINE
  5
10D
  8
1
 62
     7
 10
52.000000000000007
 20
102.5000000000001
 30
0.0
 11
52.000000000000007
 21
89.191342951089865
 31
0.0
  0
LINE
  5
10E
  8
1
 62
     7
 10
52.000000000000007
 20
102.5000000000001
 30
0.0
 11
48.0
 21
102.5000000000001
 31
0.0
  0
LINE
  5
10F
  8
1
 62
     7
 10
48.0
 20
-102.4999999999999
 30
0.0
 11
52.000000000000007
 21
-102.4999999999999
 31
0.0
  0
LINE
  5
110
  8
1
 62
     7
 10
52.000000000000007
 20
-89.191342951089823
 30
0.0
 11
52.000000000000007
 21
-102.4999999999999
 31
0.0
  0
LINE
  5
111
  8
1
 62
     7
 10
48.0
 20
-102.4999999999999
 30
0.0
 11
48.0
 21
-60.40000000000002
 31
0.0
  0
LINE
  5
112
  8
1
 62
     7
 10
52.000000000000007
 20
-89.191342951089823
 30
0.0
 11
35.75
 21
-89.191342951089894
 31
0.0
  0
LINE
  5
113
  8
1
 62
     7
 10
78.0
 20
-187.5
 30
0.0
 11
14.0
 21
-187.5
 31
0.0
  0
LINE
  5
114
  8
1
 62
     7
 10
78.0
 20
-187.5
 30
0.0
 11
78.000000000000014
 21
-138.4499999999999
 31
0.0
  0
LINE
  5
115
  8
1
 62
     7
 10
41.0
 20
-118.9499999999999
 30
0.0
 11
41.0
 21
-140.0
 31
0.0
  0
LINE
  5
116
  8
1
 62
     7
 10
76.000000000000043
 20
-118.9499999999999
 30
0.0
 11
41.0
 21
-118.9499999999999
 31
0.0
  0
LINE
  5
117
  8
1
 62
     7
 10
76.000000000000043
 20
-118.9499999999999
 30
0.0
 11
76.000000000000043
 21
-93.0
 31
0.0
  0
LINE
  5
118
  8
1
 62
     7
 10
48.0
 20
-100.0
 30
0.0
 11
10.0
 21
-100.0
 31
0.0
  0
LINE
  5
119
  8
1
 62
     7
 10
10.0
 20
-152.0
 30
0.0
 11
10.0
 21
-183.49999999999989
 31
0.0
  0
LINE
  5
11A
  8
1
 62
     7
 10
5.0
 20
-152.0
 30
0.0
 11
10.0
 21
-152.0
 31
0.0
  0
LINE
  5
11B
  8
1
 62
     7
 10
5.0
 20
-152.0
 30
0.0
 11
5.0
 21
-55.0
 31
0.0
  0
LINE
  5
11C
  8
1
 62
     7
 10
10.0
 20
-85.0
 30
0.0
 11
5.0
 21
-85.0
 31
0.0
  0
LINE
  5
11D
  8
1
 62
     7
 10
14.0
 20
-187.5
 30
0.0
 11
10.0
 21
-183.49999999999989
 31
0.0
  0
LINE
  5
11E
  8
1
 62
     7
 10
76.000000000000071
 20
-100.0
 30
0.0
 11
52.000000000000007
 21
-100.0
 31
0.0
  0
LINE
  5
11F
  8
1
 62
     7
 10
10.0
 20
-89.191342951089823
 30
0.0
 11
22.25
 21
-89.191342951089894
 31
0.0
  0
LINE
  5
120
  8
1
 62
     7
 10
22.25
 20
-65.808657048910092
 30
0.0
 11
6.0
 21
-65.808657048910163
 31
0.0
  0
LINE
  5
121
  8
1
 62
     7
 10
48.0
 20
-65.808657048910163
 30
0.0
 11
35.75
 21
-65.808657048910092
 31
0.0
  0
LINE
  5
122
  8
1
 62
     7
 10
55.0
 20
-65.000000000000014
 30
0.0
 11
48.0
 21
-65.000000000000014
 31
0.0
  0
LINE
  5
123
  8
1
 62
     7
 10
55.0
 20
-88.0
 30
0.0
 11
60.0
 21
-93.0
 31
0.0
  0
LINE
  5
124
  8
1
 62
     7
 10
6.0
 20
-55.0
 30
0.0
 11
0.0
 21
-55.0
 31
0.0
  0
LINE
  5
125
  8
1
 62
     7
 10
6.0
 20
-52.5
 30
0.0
 11
6.0
 21
-65.808657048910163
 31
0.0
  0
LINE
  5
126
  8
1
 62
     7
 10
10.0
 20
-52.5
 30
0.0
 11
6.0
 21
-52.5
 31
0.0
  0
LINE
  5
127
  8
1
 62
     7
 10
0.0
 20
-55.0
 30
0.0
 11
0.0
 21
55.0
 31
0.0
  0
LINE
  5
128
  8
1
 62
     7
 10
102.0
 20
-137.5
 30
0.0
 11
102.0
 21
62.999999999999993
 31
0.0
  0
LINE
  5
129
  8
1
 62
     3
 10
13.294490771827901
 20
-61.721600441007887
 30
0.0
 11
13.294490771827901
 21
-93.0
 31
0.0
  0
LINE
  5
12A
  8
1
 62
     3
 10
45.368912099391089
 20
-61.721600441007887
 30
0.0
 11
45.368912099391089
 21
-91.47738890151831
 31
0.0
  0
LINE
  5
12B
  8
1
 62
     7
 10
51.000000000000007
 20
-200.56748987604419
 30
0.0
 11
106.0
 21
-200.56748987604419
 31
0.0
  0
LINE
  5
12C
  8
1
 62
     7
 10
51.000000000000007
 20
-189.31748987604431
 30
0.0
 11
51.000000000000007
 21
-200.56748987604419
 31
0.0
  0
LINE
  5
12D
  8
1
 62
     7
 10
89.000000000000014
 20
-189.31748987604431
 30
0.0
 11
51.000000000000007
 21
-189.31748987604431
 31
0.0
  0
LINE
  5
12E
  8
1
 62
     7
 10
89.000000000000014
 20
-189.31748987604431
 30
0.0
 11
88.999999999999986
 21
-160.0
 31
0.0
  0
LINE
  5
12F
  8
1
 62
     7
 10
80.999999999999986
 20
-160.0
 30
0.0
 11
88.999999999999986
 21
-160.0
 31
0.0
  0
LINE
  5
130
  8
1
 62
     7
 10
80.999999999999986
 20
-138.4499999999999
 30
0.0
 11
80.999999999999986
 21
-160.0
 31
0.0
  0
LINE
  5
131
  8
1
 62
     7
 10
46.0
 20
-120.1999999999999
 30
0.0
 11
46.0
 21
-138.4499999999999
 31
0.0
  0
LINE
  5
132
  8
1
 62
     7
 10
80.999999999999986
 20
-120.1999999999999
 30
0.0
 11
46.0
 21
-120.1999999999999
 31
0.0
  0
LINE
  5
133
  8
1
 62
     7
 10
80.999999999999986
 20
-93.0
 30
0.0
 11
80.999999999999986
 21
-120.1999999999999
 31
0.0
  0
LINE
  5
134
  8
1
 62
     7
 10
85.000000000000014
 20
66.999999999999986
 30
0.0
 11
85.000000000000014
 21
52.5
 31
0.0
  0
LINE
  5
135
  8
1
 62
     7
 10
94.0
 20
61.999999999999993
 30
0.0
 11
102.0
 21
61.999999999999993
 31
0.0
  0
LINE
  5
136
  8
1
 62
     7
 10
89.000000000000014
 20
188.77980789159011
 30
0.0
 11
89.000000000000014
 21
160.02980789159011
 31
0.0
  0
LINE
  5
137
  8
1
 62
     7
 10
60.0
 20
93.0
 30
0.0
 11
85.000000000000014
 21
93.0
 31
0.0
  0
LINE
  5
138
  8
1
 62
     7
 10
80.999999999999986
 20
120.2298078915901
 30
0.0
 11
80.999999999999986
 21
93.029807891590195
 31
0.0
  0
LINE
  5
139
  8
1
 62
     7
 10
46.0
 20
120.2298078915901
 30
0.0
 11
80.999999999999986
 21
120.2298078915901
 31
0.0
  0
LINE
  5
13A
  8
1
 62
     7
 10
46.0
 20
139.0298078915902
 30
0.0
 11
46.0
 21
120.2298078915901
 31
0.0
  0
LINE
  5
13B
  8
1
 62
     7
 10
81.000000000000014
 20
139.0298078915902
 30
0.0
 11
46.0
 21
139.0298078915902
 31
0.0
  0
LINE
  5
13C
  8
1
 62
     7
 10
81.000000000000014
 20
160.02980789159011
 30
0.0
 11
81.000000000000014
 21
139.0298078915902
 31
0.0
  0
LINE
  5
13D
  8
1
 62
     7
 10
89.000000000000014
 20
160.02980789159011
 30
0.0
 11
81.000000000000014
 21
160.02980789159011
 31
0.0
  0
LINE
  5
13E
  8
1
 62
     7
 10
51.000000000000007
 20
188.77980789159011
 30
0.0
 11
89.000000000000014
 21
188.77980789159011
 31
0.0
  0
LINE
  5
13F
  8
1
 62
     7
 10
51.000000000000007
 20
200.0298078915902
 30
0.0
 11
51.000000000000007
 21
188.77980789159011
 31
0.0
  0
LINE
  5
140
  8
1
 62
     7
 10
106.0
 20
200.0298078915902
 30
0.0
 11
51.000000000000007
 21
200.0298078915902
 31
0.0
  0
LINE
  5
141
  8
1
 62
     7
 10
102.0
 20
52.5
 30
0.0
 11
85.000000000000014
 21
52.5
 31
0.0
  0
LINE
  5
142
  8
1
 62
     3
 10
45.368912099391203
 20
91.477388901518282
 30
0.0
 11
45.368912099391203
 21
61.721600441007887
 31
0.0
  0
LINE
  5
143
  8
1
 62
     3
 10
13.294490771827901
 20
93.0
 30
0.0
 11
13.294490771827901
 21
61.721600441007887
 31
0.0
  0
LINE
  5
144
  8
1
 62
     7
 10
6.0
 20
52.5
 30
0.0
 11
10.0
 21
52.5
 31
0.0
  0
LINE
  5
145
  8
1
 62
     7
 10
6.0
 20
65.808657048910192
 30
0.0
 11
6.0
 21
52.5
 31
0.0
  0
LINE
  5
146
  8
1
 62
     7
 10
6.0
 20
65.808657048910192
 30
0.0
 11
22.25
 21
65.808657048910092
 31
0.0
  0
LINE
  5
147
  8
1
 62
     7
 10
0.0
 20
55.0
 30
0.0
 11
6.0
 21
55.0
 31
0.0
  0
LINE
  5
148
  8
1
 62
     3
 10
-5.0
 20
0.0000000000000071
 30
0.0
 11
0.0
 21
0.0
 31
0.0
  0
LINE
  5
149
  8
1
 62
     7
 10
60.0
 20
93.0
 30
0.0
 11
55.0
 21
87.999999999999986
 31
0.0
  0
LINE
  5
14A
  8
1
 62
     7
 10
85.000000000000014
 20
93.0
 30
0.0
 11
85.000000000000014
 21
82.999999999999986
 31
0.0
  0
LINE
  5
14B
  8
1
 62
     7
 10
48.0
 20
64.999999999999986
 30
0.0
 11
55.0
 21
64.999999999999986
 31
0.0
  0
LINE
  5
14C
  8
1
 62
     7
 10
35.75
 20
65.808657048910092
 30
0.0
 11
48.0
 21
65.808657048910192
 31
0.0
  0
LINE
  5
14D
  8
1
 62
     7
 10
22.25
 20
89.191342951089865
 30
0.0
 11
10.0
 21
89.191342951089865
 31
0.0
  0
LINE
  5
14E
  8
1
 62
     7
 10
35.75
 20
89.191342951089865
 30
0.0
 11
52.000000000000007
 21
89.191342951089865
 31
0.0
  0
LINE
  5
14F
  8
1
 62
     7
 10
10.0
 20
183.49999999999989
 30
0.0
 11
14.0
 21
187.5
 31
0.0
  0
LINE
  5
150
  8
1
 62
     7
 10
5.0
 20
84.999999999999986
 30
0.0
 11
10.0
 21
84.999999999999986
 31
0.0
  0
LINE
  5
151
  8
1
 62
     7
 10
10.0
 20
152.0
 30
0.0
 11
5.0
 21
152.0
 31
0.0
  0
LINE
  5
152
  8
1
 62
     7
 10
10.0
 20
152.0
 30
0.0
 11
10.0
 21
233.0
 31
0.0
  0
LINE
  5
153
  8
1
 62
     7
 10
41.0
 20
118.9499999999999
 30
0.0
 11
76.000000000000043
 21
118.9499999999999
 31
0.0
  0
LINE
  5
154
  8
1
 62
     7
 10
41.0
 20
140.55000000000001
 30
0.0
 11
41.0
 21
118.9499999999999
 31
0.0
  0
LINE
  5
155
  8
1
 62
     7
 10
14.0
 20
187.5
 30
0.0
 11
78.0
 21
187.5
 31
0.0
  0
LINE
  5
156
  8
1
 62
     7
 10
483.75667112204951
 20
46.0
 30
0.0
 11
483.75667112204951
 21
38.72983346207419
 31
0.0
  0
LINE
  5
157
  8
1
 62
     7
 10
463.75667112204951
 20
46.0
 30
0.0
 11
483.75667112204951
 21
46.0
 31
0.0
  0
LINE
  5
158
  8
1
 62
     7
 10
463.75667112204951
 20
38.72983346207419
 30
0.0
 11
463.75667112204951
 21
46.0
 31
0.0
  0
LINE
  5
159
  8
1
 62
     7
 10
453.7566711220494
 20
230.0
 30
0.0
 11
453.7566711220494
 21
199.01024909782689
 31
0.0
  0
LINE
  5
15A
  8
1
 62
     7
 10
493.7566711220494
 20
230.0
 30
0.0
 11
493.7566711220494
 21
199.0641236710058
 31
0.0
  0
LINE
  5
15B
  8
1
 62
     7
 10
490.7566711220494
 20
233.0
 30
0.0
 11
456.7566711220494
 21
233.0
 31
0.0
  0
LINE
  5
15C
  8
1
 62
     7
 10
-728.38548045981918
 20
178.0
 30
0.0
 11
-728.38548045981918
 21
230.0
 31
0.0
  0
LINE
  5
15D
  8
1
 62
     7
 10
-738.38548045981906
 20
153.0
 30
0.0
 11
-738.38548045981906
 21
168.0
 31
0.0
  0
LINE
  5
15E
  8
1
 62
     7
 10
-691.38548045981918
 20
233.0
 30
0.0
 11
-725.38548045981918
 21
233.0
 31
0.0
  0
LINE
  5
15F
  8
1
 62
     7
 10
-678.38548045981895
 20
153.0
 30
0.0
 11
-738.38548045981906
 21
153.0
 31
0.0
  0
LINE
  5
160
  8
1
 62
     7
 10
-678.38548045981895
 20
168.0
 30
0.0
 11
-678.38548045981895
 21
153.0
 31
0.0
  0
LINE
  5
161
  8
1
 62
     7
 10
-688.38548045981906
 20
230.0
 30
0.0
 11
-688.38548045981906
 21
178.0
 31
0.0
  0
LINE
  5
162
  8
1
 62
     7
 10
-718.38548045981906
 20
38.72983346207419
 30
0.0
 11
-718.38548045981906
 21
46.0
 31
0.0
  0
LINE
  5
163
  8
1
 62
     7
 10
-718.38548045981906
 20
46.0
 30
0.0
 11
-698.38548045981906
 21
46.0
 31
0.0
  0
LINE
  5
164
  8
1
 62
     7
 10
-698.38548045981906
 20
46.0
 30
0.0
 11
-698.38548045981906
 21
38.72983346207419
 31
0.0
  0
LINE
  5
165
  8
1
 62
     7
 10
654.89885716775666
 20
-30.000000000000011
 30
0.0
 11
657.78560851370446
 21
-25.000000000000011
 31
0.0
  0
LINE
  5
166
  8
1
 62
     7
 10
657.78560851370446
 20
-25.000000000000011
 30
0.0
 11
654.89885716775666
 21
-20.000000000000011
 31
0.0
  0
LINE
  5
167
  8
1
 62
     7
 10
654.89885716775666
 20
-20.000000000000011
 30
0.0
 11
649.12535447586026
 21
-20.000000000000011
 31
0.0
  0
LINE
  5
168
  8
1
 62
     7
 10
649.12535447586026
 20
-20.000000000000011
 30
0.0
 11
646.23860312991201
 21
-25.000000000000011
 31
0.0
  0
LINE
  5
169
  8
1
 62
     7
 10
646.23860312991201
 20
-25.000000000000011
 30
0.0
 11
649.12535447586026
 21
-30.000000000000011
 31
0.0
  0
LINE
  5
16A
  8
1
 62
     7
 10
649.12535447586026
 20
-30.000000000000011
 30
0.0
 11
654.89885716775666
 21
-30.000000000000011
 31
0.0
  0
LINE
  5
16B
  8
1
 62
     7
 10
654.89885716775666
 20
29.999999999999979
 30
0.0
 11
649.12535447586026
 21
29.999999999999979
 31
0.0
  0
LINE
  5
16C
  8
1
 62
     7
 10
649.12535447586026
 20
29.999999999999979
 30
0.0
 11
646.23860312991224
 21
24.999999999999979
 31
0.0
  0
LINE
  5
16D
  8
1
 62
     7
 10
646.23860312991224
 20
24.999999999999979
 30
0.0
 11
649.12535447586026
 21
19.999999999999979
 31
0.0
  0
LINE
  5
16E
  8
1
 62
     7
 10
649.12535447586026
 20
19.999999999999979
 30
0.0
 11
654.89885716775666
 21
19.999999999999979
 31
0.0
  0
LINE
  5
16F
  8
1
 62
     7
 10
654.89885716775666
 20
19.999999999999979
 30
0.0
 11
657.78560851370446
 21
24.999999999999979
 31
0.0
  0
LINE
  5
170
  8
1
 62
     7
 10
657.78560851370446
 20
24.999999999999979
 30
0.0
 11
654.89885716775666
 21
29.999999999999979
 31
0.0
  0
LINE
  5
171
  8
1
 62
     7
 10
443.7566711220494
 20
-181.14218604570701
 30
0.0
 11
448.7566711220494
 21
-184.02893739165501
 31
0.0
  0
LINE
  5
172
  8
1
 62
     7
 10
448.7566711220494
 20
-184.02893739165501
 30
0.0
 11
453.7566711220494
 21
-181.14218604570701
 31
0.0
  0
LINE
  5
173
  8
1
 62
     7
 10
453.7566711220494
 20
-181.14218604570701
 30
0.0
 11
453.7566711220494
 21
-175.3686833538107
 31
0.0
  0
LINE
  5
174
  8
1
 62
     7
 10
453.7566711220494
 20
-175.3686833538107
 30
0.0
 11
448.7566711220494
 21
-172.4819320078625
 31
0.0
  0
LINE
  5
175
  8
1
 62
     7
 10
448.7566711220494
 20
-172.4819320078625
 30
0.0
 11
443.7566711220494
 21
-175.3686833538107
 31
0.0
  0
LINE
  5
176
  8
1
 62
     7
 10
443.7566711220494
 20
-175.3686833538107
 30
0.0
 11
443.7566711220494
 21
-181.14218604570701
 31
0.0
  0
LINE
  5
177
  8
1
 62
     7
 10
503.7566711220494
 20
-181.14218604570701
 30
0.0
 11
503.7566711220494
 21
-175.3686833538107
 31
0.0
  0
LINE
  5
178
  8
1
 62
     7
 10
503.7566711220494
 20
-175.3686833538107
 30
0.0
 11
498.7566711220494
 21
-172.4819320078625
 31
0.0
  0
LINE
  5
179
  8
1
 62
     7
 10
498.7566711220494
 20
-172.4819320078625
 30
0.0
 11
493.7566711220494
 21
-175.3686833538107
 31
0.0
  0
LINE
  5
17A
  8
1
 62
     7
 10
493.7566711220494
 20
-175.3686833538107
 30
0.0
 11
493.7566711220494
 21
-181.14218604570701
 31
0.0
  0
LINE
  5
17B
  8
1
 62
     7
 10
493.7566711220494
 20
-181.14218604570701
 30
0.0
 11
498.7566711220494
 21
-184.02893739165501
 31
0.0
  0
LINE
  5
17C
  8
1
 62
     7
 10
498.7566711220494
 20
-184.02893739165501
 30
0.0
 11
503.7566711220494
 21
-181.14218604570701
 31
0.0
  0
LINE
  5
17D
  8
1
 62
     7
 10
292.61448507634248
 20
30.000000000000011
 30
0.0
 11
289.72773373039428
 21
25.000000000000011
 31
0.0
  0
LINE
  5
17E
  8
1
 62
     7
 10
289.72773373039428
 20
25.000000000000011
 30
0.0
 11
292.61448507634248
 21
20.000000000000011
 31
0.0
  0
LINE
  5
17F
  8
1
 62
     7
 10
292.61448507634248
 20
20.000000000000011
 30
0.0
 11
298.3879877682387
 21
20.000000000000011
 31
0.0
  0
LINE
  5
180
  8
1
 62
     7
 10
298.3879877682387
 20
20.000000000000011
 30
0.0
 11
301.27473911418679
 21
25.000000000000011
 31
0.0
  0
LINE
  5
181
  8
1
 62
     7
 10
301.27473911418679
 20
25.000000000000011
 30
0.0
 11
298.3879877682387
 21
30.000000000000011
 31
0.0
  0
LINE
  5
182
  8
1
 62
     7
 10
298.3879877682387
 20
30.000000000000011
 30
0.0
 11
292.61448507634248
 21
30.000000000000011
 31
0.0
  0
LINE
  5
183
  8
1
 62
     7
 10
292.61448507634248
 20
-29.999999999999979
 30
0.0
 11
298.3879877682387
 21
-29.999999999999979
 31
0.0
  0
LINE
  5
184
  8
1
 62
     7
 10
298.3879877682387
 20
-29.999999999999979
 30
0.0
 11
301.27473911418679
 21
-24.999999999999979
 31
0.0
  0
LINE
  5
185
  8
1
 62
     7
 10
301.27473911418679
 20
-24.999999999999979
 30
0.0
 11
298.3879877682387
 21
-19.999999999999979
 31
0.0
  0
LINE
  5
186
  8
1
 62
     7
 10
298.3879877682387
 20
-19.999999999999979
 30
0.0
 11
292.61448507634248
 21
-19.999999999999979
 31
0.0
  0
LINE
  5
187
  8
1
 62
     7
 10
292.61448507634248
 20
-19.999999999999979
 30
0.0
 11
289.72773373039428
 21
-24.999999999999979
 31
0.0
  0
LINE
  5
188
  8
1
 62
     7
 10
289.72773373039428
 20
-24.999999999999979
 30
0.0
 11
292.61448507634248
 21
-29.999999999999979
 31
0.0
  0
LINE
  5
189
  8
1
 62
     7
 10
448.75667112204951
 20
184.02893739165501
 30
0.0
 11
443.75667112204951
 21
181.14218604570701
 31
0.0
  0
LINE
  5
18A
  8
1
 62
     7
 10
453.7566711220494
 20
181.14218604570701
 30
0.0
 11
448.75667112204951
 21
184.02893739165501
 31
0.0
  0
LINE
  5
18B
  8
1
 62
     7
 10
453.7566711220494
 20
175.3686833538107
 30
0.0
 11
453.7566711220494
 21
181.14218604570701
 31
0.0
  0
LINE
  5
18C
  8
1
 62
     7
 10
448.75667112204951
 20
172.4819320078625
 30
0.0
 11
453.7566711220494
 21
175.3686833538107
 31
0.0
  0
LINE
  5
18D
  8
1
 62
     7
 10
443.75667112204951
 20
175.3686833538107
 30
0.0
 11
448.75667112204951
 21
172.4819320078625
 31
0.0
  0
LINE
  5
18E
  8
1
 62
     7
 10
443.75667112204951
 20
181.14218604570701
 30
0.0
 11
443.75667112204951
 21
175.3686833538107
 31
0.0
  0
LINE
  5
18F
  8
1
 62
     7
 10
503.7566711220494
 20
175.3686833538107
 30
0.0
 11
503.7566711220494
 21
181.14218604570701
 31
0.0
  0
LINE
  5
190
  8
1
 62
     7
 10
498.75667112204951
 20
172.4819320078625
 30
0.0
 11
503.7566711220494
 21
175.3686833538107
 31
0.0
  0
LINE
  5
191
  8
1
 62
     7
 10
493.75667112204951
 20
175.3686833538107
 30
0.0
 11
498.75667112204951
 21
172.4819320078625
 31
0.0
  0
LINE
  5
192
  8
1
 62
     7
 10
493.75667112204951
 20
181.14218604570701
 30
0.0
 11
493.75667112204951
 21
175.3686833538107
 31
0.0
  0
LINE
  5
193
  8
1
 62
     7
 10
498.75667112204951
 20
184.02893739165501
 30
0.0
 11
493.75667112204951
 21
181.14218604570701
 31
0.0
  0
LINE
  5
194
  8
1
 62
     7
 10
503.7566711220494
 20
181.14218604570701
 30
0.0
 11
498.75667112204951
 21
184.02893739165501
 31
0.0
  0
LINE
  5
195
  8
1
 62
     7
 10
480.75667112204951
 20
79.041451884327387
 30
0.0
 11
473.75667112204951
 21
83.082903768654774
 31
0.0
  0
LINE
  5
196
  8
1
 62
     7
 10
473.75667112204951
 20
83.082903768654774
 30
0.0
 11
466.7566711220494
 21
79.041451884327387
 31
0.0
  0
LINE
  5
197
  8
1
 62
     7
 10
466.7566711220494
 20
79.041451884327387
 30
0.0
 11
466.7566711220494
 21
70.958548115672599
 31
0.0
  0
LINE
  5
198
  8
1
 62
     7
 10
466.7566711220494
 20
70.958548115672599
 30
0.0
 11
473.75667112204951
 21
66.917096231345283
 31
0.0
  0
LINE
  5
199
  8
1
 62
     7
 10
473.75667112204951
 20
66.917096231345283
 30
0.0
 11
480.75667112204951
 21
70.958548115672599
 31
0.0
  0
LINE
  5
19A
  8
1
 62
     7
 10
480.75667112204951
 20
70.958548115672599
 30
0.0
 11
480.75667112204951
 21
79.041451884327387
 31
0.0
  0
LINE
  5
19B
  8
1
 62
     7
 10
428.53114803461131
 20
55.125018024049893
 30
0.0
 11
422.8156719681171
 21
60.84049409054397
 31
0.0
  0
LINE
  5
19C
  8
1
 62
     7
 10
426.43913859955262
 20
47.31753252249699
 30
0.0
 11
428.53114803461131
 21
55.125018024049893
 31
0.0
  0
LINE
  5
19D
  8
1
 62
     7
 10
418.63165309799962
 20
45.225523087438212
 30
0.0
 11
426.43913859955262
 21
47.31753252249699
 31
0.0
  0
LINE
  5
19E
  8
1
 62
     7
 10
412.91617703150558
 20
50.940999153932289
 30
0.0
 11
418.63165309799962
 21
45.225523087438212
 31
0.0
  0
LINE
  5
19F
  8
1
 62
     7
 10
415.00818646656438
 20
58.748484655485193
 30
0.0
 11
412.91617703150558
 21
50.940999153932289
 31
0.0
  0
LINE
  5
1A0
  8
1
 62
     7
 10
422.8156719681171
 20
60.84049409054397
 30
0.0
 11
415.00818646656438
 21
58.748484655485193
 31
0.0
  0
LINE
  5
1A1
  8
1
 62
     7
 10
402.7981230063769
 20
7.0000000000000471
 30
0.0
 11
394.71521923772201
 21
7.0000000000000471
 31
0.0
  0
LINE
  5
1A2
  8
1
 62
     7
 10
406.83957489070428
 20
0.0000000000000284
 30
0.0
 11
402.7981230063769
 21
7.0000000000000471
 31
0.0
  0
LINE
  5
1A3
  8
1
 62
     7
 10
402.7981230063769
 20
-6.9999999999999503
 30
0.0
 11
406.83957489070428
 21
0.0000000000000284
 31
0.0
  0
LINE
  5
1A4
  8
1
 62
     7
 10
394.71521923772201
 20
-6.9999999999999503
 30
0.0
 11
402.7981230063769
 21
-6.9999999999999503
 31
0.0
  0
LINE
  5
1A5
  8
1
 62
     7
 10
390.67376735339462
 20
0.0000000000000497
 30
0.0
 11
394.71521923772201
 21
-6.9999999999999503
 31
0.0
  0
LINE
  5
1A6
  8
1
 62
     7
 10
394.71521923772201
 20
7.0000000000000471
 30
0.0
 11
390.67376735339462
 21
0.0000000000000497
 31
0.0
  0
LINE
  5
1A7
  8
1
 62
     7
 10
418.63165309799962
 20
-45.225523087438141
 30
0.0
 11
412.91617703150558
 21
-50.940999153932218
 31
0.0
  0
LINE
  5
1A8
  8
1
 62
     7
 10
426.43913859955262
 20
-47.317532522496919
 30
0.0
 11
418.63165309799962
 21
-45.225523087438141
 31
0.0
  0
LINE
  5
1A9
  8
1
 62
     7
 10
428.53114803461131
 20
-55.125018024049808
 30
0.0
 11
426.43913859955262
 21
-47.317532522496919
 31
0.0
  0
LINE
  5
1AA
  8
1
 62
     7
 10
422.8156719681171
 20
-60.840494090543871
 30
0.0
 11
428.53114803461131
 21
-55.125018024049808
 31
0.0
  0
LINE
  5
1AB
  8
1
 62
     7
 10
415.00818646656438
 20
-58.7484846554851
 30
0.0
 11
422.8156719681171
 21
-60.840494090543871
 31
0.0
  0
LINE
  5
1AC
  8
1
 62
     7
 10
412.91617703150558
 20
-50.940999153932218
 30
0.0
 11
415.00818646656438
 21
-58.7484846554851
 31
0.0
  0
LINE
  5
1AD
  8
1
 62
     7
 10
466.75667112204928
 20
-70.958548115672556
 30
0.0
 11
466.75667112204928
 21
-79.041451884327302
 31
0.0
  0
LINE
  5
1AE
  8
1
 62
     7
 10
473.7566711220494
 20
-66.91709623134517
 30
0.0
 11
466.75667112204928
 21
-70.958548115672556
 31
0.0
  0
LINE
  5
1AF
  8
1
 62
     7
 10
480.7566711220494
 20
-70.958548115672556
 30
0.0
 11
473.7566711220494
 21
-66.91709623134517
 31
0.0
  0
LINE
  5
1B0
  8
1
 62
     7
 10
480.7566711220494
 20
-79.041451884327302
 30
0.0
 11
480.7566711220494
 21
-70.958548115672556
 31
0.0
  0
LINE
  5
1B1
  8
1
 62
     7
 10
473.7566711220494
 20
-83.082903768654688
 30
0.0
 11
480.7566711220494
 21
-79.041451884327302
 31
0.0
  0
LINE
  5
1B2
  8
1
 62
     7
 10
466.75667112204928
 20
-79.041451884327302
 30
0.0
 11
473.7566711220494
 21
-83.082903768654688
 31
0.0
  0
LINE
  5
1B3
  8
1
 62
     7
 10
518.9821942094876
 20
-55.125018024049851
 30
0.0
 11
524.69767027598175
 21
-60.840494090543942
 31
0.0
  0
LINE
  5
1B4
  8
1
 62
     7
 10
521.0742036445464
 20
-47.317532522496968
 30
0.0
 11
518.9821942094876
 21
-55.125018024049851
 31
0.0
  0
LINE
  5
1B5
  8
1
 62
     7
 10
528.88168914609935
 20
-45.225523087438177
 30
0.0
 11
521.0742036445464
 21
-47.317532522496968
 31
0.0
  0
LINE
  5
1B6
  8
1
 62
     7
 10
534.59716521259338
 20
-50.940999153932289
 30
0.0
 11
528.88168914609935
 21
-45.225523087438177
 31
0.0
  0
LINE
  5
1B7
  8
1
 62
     7
 10
532.50515577753458
 20
-58.748484655485143
 30
0.0
 11
534.59716521259338
 21
-50.940999153932289
 31
0.0
  0
LINE
  5
1B8
  8
1
 62
     7
 10
524.69767027598175
 20
-60.840494090543942
 30
0.0
 11
532.50515577753458
 21
-58.748484655485143
 31
0.0
  0
LINE
  5
1B9
  8
1
 62
     7
 10
544.71521923772195
 20
-7.0000000000000417
 30
0.0
 11
552.79812300637684
 21
-7.0000000000000417
 31
0.0
  0
LINE
  5
1BA
  8
1
 62
     7
 10
540.67376735339474
 20
-0.0000000000000213
 30
0.0
 11
544.71521923772195
 21
-7.0000000000000417
 31
0.0
  0
LINE
  5
1BB
  8
1
 62
     7
 10
544.71521923772195
 20
6.9999999999999591
 30
0.0
 11
540.67376735339474
 21
-0.0000000000000213
 31
0.0
  0
LINE
  5
1BC
  8
1
 62
     7
 10
552.79812300637684
 20
6.9999999999999591
 30
0.0
 11
544.71521923772195
 21
6.9999999999999591
 31
0.0
  0
LINE
  5
1BD
  8
1
 62
     7
 10
556.83957489070406
 20
-0.0000000000000426
 30
0.0
 11
552.79812300637684
 21
6.9999999999999591
 31
0.0
  0
LINE
  5
1BE
  8
1
 62
     7
 10
552.79812300637684
 20
-7.0000000000000417
 30
0.0
 11
556.83957489070406
 21
-0.0000000000000426
 31
0.0
  0
LINE
  5
1BF
  8
1
 62
     7
 10
528.88168914609935
 20
45.225523087438127
 30
0.0
 11
534.59716521259338
 21
50.940999153932218
 31
0.0
  0
LINE
  5
1C0
  8
1
 62
     7
 10
521.07420364454651
 20
47.317532522496911
 30
0.0
 11
528.88168914609935
 21
45.225523087438127
 31
0.0
  0
LINE
  5
1C1
  8
1
 62
     7
 10
518.98219420948772
 20
55.125018024049787
 30
0.0
 11
521.07420364454651
 21
47.317532522496911
 31
0.0
  0
LINE
  5
1C2
  8
1
 62
     7
 10
524.69767027598175
 20
60.840494090543871
 30
0.0
 11
518.98219420948772
 21
55.125018024049787
 31
0.0
  0
LINE
  5
1C3
  8
1
 62
     7
 10
532.50515577753458
 20
58.7484846554851
 30
0.0
 11
524.69767027598175
 21
60.840494090543871
 31
0.0
  0
LINE
  5
1C4
  8
1
 62
     7
 10
534.59716521259338
 20
50.940999153932218
 30
0.0
 11
532.50515577753458
 21
58.7484846554851
 31
0.0
  0
LINE
  5
1C5
  8
1
 62
     7
 10
125.8
 20
150.0
 30
0.0
 11
126.8
 21
150.0
 31
0.0
  0
LINE
  5
1C6
  8
1
 62
     3
 10
130.80000000000001
 20
0.0000000000000071
 30
0.0
 11
135.80000000000001
 21
0.0000000000000071
 31
0.0
  0
LINE
  5
1C7
  8
1
  6
DASHDOT
 62
     3
 10
473.75667112204951
 20
121.0
 30
0.0
 11
473.75667112204951
 21
99.0
 31
0.0
  0
LINE
  5
1C8
  8
1
  6
DASHDOT
 62
     3
 10
388.19675059847719
 20
85.559920523572245
 30
0.0
 11
403.75309978458131
 21
70.003571337468202
 31
0.0
  0
LINE
  5
1C9
  8
1
  6
DASHDOT
 62
     3
 10
352.7566711220494
 20
0.0000000000000284
 30
0.0
 11
374.7566711220494
 21
0.0000000000000284
 31
0.0
  0
LINE
  5
1CA
  8
1
  6
DASHDOT
 62
     3
 10
388.19675059847702
 20
-85.559920523572288
 30
0.0
 11
403.75309978458108
 21
-70.003571337468216
 31
0.0
  0
LINE
  5
1CB
  8
1
  6
DASHDOT
 62
     3
 10
473.75667112204928
 20
-121.0000000000001
 30
0.0
 11
473.7566711220494
 21
-99.000000000000114
 31
0.0
  0
LINE
  5
1CC
  8
1
  6
DASHDOT
 62
     3
 10
559.31659164562166
 20
-85.559920523572401
 30
0.0
 11
543.7602424595176
 21
-70.003571337468372
 31
0.0
  0
LINE
  5
1CD
  8
1
  6
DASHDOT
 62
     3
 10
594.75667112204951
 20
-0.0000000000001421
 30
0.0
 11
572.75667112204962
 21
-0.0000000000001315
 31
0.0
  0
LINE
  5
1CE
  8
1
  6
DASHDOT
 62
     3
 10
559.31659164562188
 20
85.559920523572217
 30
0.0
 11
543.76024245951794
 21
70.003571337468188
 31
0.0
  0
LINE
  5
1CF
  8
1
  6
DASHDOT
 62
     3
 10
493.75667112204951
 20
0.0000000000000071
 30
0.0
 11
453.7566711220494
 21
0.0000000000000071
 31
0.0
  0
LINE
  5
1D0
  8
1
  6
DASHDOT
 62
     3
 10
473.75667112204951
 20
20.000000000000011
 30
0.0
 11
473.75667112204951
 21
-19.999999999999989
 31
0.0
  0
LINE
  5
1D1
  8
1
  6
DASHDOT
 62
     3
 10
-698.88548045981906
 20
220.0
 30
0.0
 11
-717.88548045981906
 21
220.0
 31
0.0
  0
LINE
  5
1D2
  8
1
  6
DASHDOT
 62
     3
 10
-708.38548045981918
 20
229.49999999999989
 30
0.0
 11
-708.38548045981918
 21
210.49999999999989
 31
0.0
  0
LINE
  5
1D3
  8
1
  6
DASHDOT
 62
     3
 10
483.25667112204928
 20
220.0
 30
0.0
 11
464.2566711220494
 21
220.0
 31
0.0
  0
LINE
  5
1D4
  8
1
  6
DASHDOT
 62
     3
 10
473.7566711220494
 20
229.49999999999989
 30
0.0
 11
473.7566711220494
 21
210.49999999999989
 31
0.0
  0
LINE
  5
1D5
  8
1
 62
     7
 10
-290.71099326670361
 20
158.7444823338389
 30
0.0
 11
-296.71099326670361
 21
158.7444823338389
 31
0.0
  0
LINE
  5
1D6
  8
1
 62
     7
 10
-290.71099326670361
 20
153.0
 30
0.0
 11
-285.71099326670361
 21
153.0
 31
0.0
  0
LINE
  5
1D7
  8
1
 62
     3
 10
-293.30602747509511
 20
220.0
 30
0.0
 11
-282.37854791535341
 21
220.0
 31
0.0
  0
LINE
  5
1D8
  8
1
 62
     7
 10
-290.71099326670361
 20
233.0
 30
0.0
 11
-285.71099326670361
 21
233.0
 31
0.0
  0
LINE
  5
1D9
  8
1
 62
     7
 10
-290.71099326670361
 20
233.0
 30
0.0
 11
-290.71099326670361
 21
196.17464453655859
 31
0.0
  0
LINE
  5
1DA
  8
1
 62
     7
 10
-285.71099326670361
 20
-152.0
 30
0.0
 11
-285.71099326670361
 21
-183.49999999999989
 31
0.0
  0
LINE
  5
1DB
  8
1
 62
     7
 10
-290.71099326670361
 20
-152.0
 30
0.0
 11
-285.71099326670361
 21
-152.0
 31
0.0
  0
LINE
  5
1DC
  8
1
 62
     7
 10
-290.71099326670361
 20
-152.0
 30
0.0
 11
-290.71099326670361
 21
152.0
 31
0.0
  0
LINE
  5
1DD
  8
1
 62
     7
 10
-281.71099326670361
 20
-187.5
 30
0.0
 11
-285.71099326670361
 21
-183.49999999999989
 31
0.0
  0
LINE
  5
1DE
  8
1
 62
     7
 10
-295.71099326670361
 20
-55.0
 30
0.0
 11
-295.71099326670361
 21
55.0
 31
0.0
  0
LINE
  5
1DF
  8
1
 62
     7
 10
-244.71099326670341
 20
-200.56748987604419
 30
0.0
 11
-244.71099326670341
 21
200.0298078915902
 31
0.0
  0
LINE
  5
1E0
  8
1
 62
     7
 10
-295.71099326670361
 20
55.0
 30
0.0
 11
-290.71099326670361
 21
55.0
 31
0.0
  0
LINE
  5
1E1
  8
1
 62
     3
 10
-300.71099326670361
 20
0.0000000000000071
 30
0.0
 11
-295.71099326670361
 21
0.0
 31
0.0
  0
LINE
  5
1E2
  8
1
 62
     7
 10
-285.71099326670361
 20
183.49999999999989
 30
0.0
 11
-281.71099326670361
 21
187.5
 31
0.0
  0
LINE
  5
1E3
  8
1
 62
     7
 10
-285.71099326670361
 20
152.0
 30
0.0
 11
-290.71099326670361
 21
152.0
 31
0.0
  0
LINE
  5
1E4
  8
1
 62
     7
 10
-285.71099326670361
 20
152.0
 30
0.0
 11
-285.71099326670361
 21
195.48164703410569
 31
0.0
  0
LINE
  5
1E5
  8
1
 62
     7
 10
-281.71099326670361
 20
187.5
 30
0.0
 11
-244.71099326670341
 21
187.5
 31
0.0
  0
LINE
  5
1E6
  8
1
 62
     7
 10
-256.71099326670361
 20
191.5
 30
0.0
 11
-256.71099326670361
 21
187.5
 31
0.0
  0
LINE
  5
1E7
  8
1
 62
     7
 10
-258.71099326670361
 20
191.5
 30
0.0
 11
-258.71099326670361
 21
187.5
 31
0.0
  0
LINE
  5
1E8
  8
1
 62
     7
 10
-313.96099326670361
 20
137.762762881089
 30
0.0
 11
-313.96099326670361
 21
155.049390661503
 31
0.0
  0
LINE
  5
1E9
  8
1
 62
     7
 10
-310.49768479100248
 20
117.6852069938987
 30
0.0
 11
-320.6067733220076
 21
154.33488718150991
 31
0.0
  0
LINE
  5
1EA
  8
1
 62
     7
 10
-308.56968380305301
 20
118.21700788752921
 30
0.0
 11
-318.67877233405812
 21
154.8666880751403
 31
0.0
  0
LINE
  5
1EB
  8
1
 62
     7
 10
-311.96099326670361
 20
155.049390661503
 30
0.0
 11
-311.96099326670361
 21
137.28128310842601
 31
0.0
  0
LINE
  5
1EC
  8
1
 62
     7
 10
-293.3109899040187
 20
123.3982148955883
 30
0.0
 11
-292.5788967863208
 21
123.2387922404052
 31
0.0
  0
LINE
  5
1ED
  8
1
 62
     7
 10
-293.31098990401858
 20
122.2759231173645
 30
0.0
 11
-292.90461615444281
 21
122.68229686694021
 31
0.0
  0
LINE
  5
1EE
  8
1
 62
     7
 10
-293.3109899040183
 20
120.9759231173646
 30
0.0
 11
-292.31099326670352
 21
121.9759197546795
 31
0.0
  0
LINE
  5
1EF
  8
1
 62
     7
 10
-293.61099326670359
 20
117.7403752586614
 30
0.0
 11
-293.61099326670359
 21
117.7259197546795
 31
0.0
  0
LINE
  5
1F0
  8
1
 62
     7
 10
-295.31098990401892
 20
124.9199975681253
 30
0.0
 11
-295.3109899040179
 21
120.0120647842846
 31
0.0
  0
LINE
  5
1F1
  8
1
 62
     7
 10
-293.31098990401881
 20
126.1721658264765
 30
0.0
 11
-293.3109899040183
 21
120.0120647842846
 31
0.0
  0
LINE
  5
1F2
  8
1
 62
     7
 10
-320.51268803258608
 20
164.33600514265879
 30
0.0
 11
-323.88668976149751
 21
163.40535357880509
 31
0.0
  0
LINE
  5
1F3
  8
1
 62
     7
 10
-319.81534728649262
 20
161.80785285200241
 30
0.0
 11
-320.20891012700508
 21
163.23468299541881
 31
0.0
  0
LINE
  5
1F4
  8
1
 62
     7
 10
-319.33334703950521
 20
161.94080307541009
 30
0.0
 11
-323.67134926239152
 21
160.74425106474109
 31
0.0
  0
LINE
  5
1F5
  8
1
 62
     7
 10
-317.47377171659002
 20
155.19906363365951
 30
0.0
 11
-321.81177393947581
 21
154.0025116229908
 31
0.0
  0
LINE
  5
1F6
  8
1
 62
     7
 10
-323.58291185591639
 20
162.30403143156519
 30
0.0
 11
-320.20891012700508
 21
163.23468299541881
 31
0.0
  0
LINE
  5
1F7
  8
1
 62
     7
 10
-323.58291185591639
 20
162.30403143156519
 30
0.0
 11
-323.18934901540428
 21
160.87720128814871
 31
0.0
  0
LINE
  5
1F8
  8
1
 62
     7
 10
-320.9946882795731
 20
164.203054919251
 30
0.0
 11
-320.69091037399232
 21
163.1017327720113
 31
0.0
  0
LINE
  5
1F9
  8
1
 62
     7
 10
-323.40468951450998
 20
163.53830380221291
 30
0.0
 11
-323.1009116089291
 21
162.4369816549729
 31
0.0
  0
LINE
  5
1FA
  8
1
 62
     7
 10
-323.88668976149751
 20
163.40535357880509
 30
0.0
 11
-324.11471274954721
 21
164.23203241951461
 31
0.0
  0
LINE
  5
1FB
  8
1
 62
     7
 10
-324.24571255533789
 20
166.58736459362041
 30
0.0
 11
-324.11471274954721
 21
164.23203241951461
 31
0.0
  0
LINE
  5
1FC
  8
1
 62
     7
 10
-321.83571132040112
 20
167.25211571065881
 30
0.0
 11
-320.74071102063562
 21
165.16268398336831
 31
0.0
  0
LINE
  5
1FD
  8
1
 62
     7
 10
-324.24571255533789
 20
166.58736459362041
 30
0.0
 11
-321.83571132040112
 21
167.25211571065881
 31
0.0
  0
LINE
  5
1FE
  8
1
 62
     7
 10
-320.74071102063562
 20
165.16268398336831
 30
0.0
 11
-320.51268803258608
 21
164.33600514265879
 31
0.0
  0
LINE
  5
1FF
  8
1
 62
     7
 10
-319.33334703950521
 20
161.94080307541009
 30
0.0
 11
-317.47377171659002
 21
155.19906363365951
 31
0.0
  0
LINE
  5
200
  8
1
 62
     7
 10
-323.67134926239152
 20
160.74425106474109
 30
0.0
 11
-321.81177393947581
 21
154.0025116229908
 31
0.0
  0
LINE
  5
201
  8
1
 62
     7
 10
-310.71099326670361
 20
155.049390661503
 30
0.0
 11
-310.71099326670361
 21
162.0428927228493
 31
0.0
  0
LINE
  5
202
  8
1
 62
     7
 10
-315.21099326670361
 20
155.049390661503
 30
0.0
 11
-315.21099326670361
 21
162.0428927228493
 31
0.0
  0
LINE
  5
203
  8
1
 62
     7
 10
-314.71099326670361
 20
164.66545599585379
 30
0.0
 11
-314.71099326670361
 21
165.52300622106279
 31
0.0
  0
LINE
  5
204
  8
1
 62
     7
 10
-314.21099326670361
 20
167.8283805072675
 30
0.0
 11
-311.71099326670361
 21
167.8283805072675
 31
0.0
  0
LINE
  5
205
  8
1
 62
     7
 10
-314.71099326670361
 20
165.52300622106279
 30
0.0
 11
-314.21099326670361
 21
167.8283805072675
 31
0.0
  0
LINE
  5
206
  8
1
 62
     7
 10
-311.21099326670361
 20
165.52300622106279
 30
0.0
 11
-311.71099326670361
 21
167.8283805072675
 31
0.0
  0
LINE
  5
207
  8
1
 62
     7
 10
-311.21099326670361
 20
165.52300622106279
 30
0.0
 11
-311.21099326670361
 21
164.66545599585379
 31
0.0
  0
LINE
  5
208
  8
1
 62
     7
 10
-311.71099326670361
 20
163.52300622106279
 30
0.0
 11
-311.71099326670361
 21
164.66545599585379
 31
0.0
  0
LINE
  5
209
  8
1
 62
     7
 10
-314.21099326670361
 20
163.52300622106279
 30
0.0
 11
-314.21099326670361
 21
164.66545599585379
 31
0.0
  0
LINE
  5
20A
  8
1
 62
     7
 10
-311.21099326670361
 20
162.0428927228493
 30
0.0
 11
-311.21099326670361
 21
163.52300622106279
 31
0.0
  0
LINE
  5
20B
  8
1
 62
     7
 10
-314.71099326670361
 20
163.52300622106279
 30
0.0
 11
-311.21099326670361
 21
163.52300622106279
 31
0.0
  0
LINE
  5
20C
  8
1
 62
     7
 10
-315.21099326670361
 20
155.049390661503
 30
0.0
 11
-310.71099326670361
 21
155.049390661503
 31
0.0
  0
LINE
  5
20D
  8
1
 62
     7
 10
-315.21099326670361
 20
162.0428927228493
 30
0.0
 11
-310.71099326670361
 21
162.0428927228493
 31
0.0
  0
LINE
  5
20E
  8
1
 62
     7
 10
-314.71099326670361
 20
163.52300622106279
 30
0.0
 11
-314.71099326670361
 21
162.0428927228493
 31
0.0
  0
LINE
  5
20F
  8
1
 62
     7
 10
-314.71099326670361
 20
164.66545599585379
 30
0.0
 11
-311.21099326670361
 21
164.66545599585379
 31
0.0
  0
LINE
  5
210
  8
1
 62
     7
 10
-299.73999247193558
 20
143.29791886370089
 30
0.0
 11
-299.91099326670337
 21
143.59410092837351
 31
0.0
  0
LINE
  5
211
  8
1
 62
     7
 10
-296.71099326670361
 20
146.16361543584091
 30
0.0
 11
-296.71099326670361
 21
184.86093603757379
 31
0.0
  0
LINE
  5
212
  8
1
 62
     7
 10
-297.91096657377062
 20
131.0156115426829
 30
0.0
 11
-297.91096657377051
 21
124.1434555390769
 31
0.0
  0
LINE
  5
213
  8
1
 62
     7
 10
-297.44162612892052
 20
131.8631966042125
 30
0.0
 11
-294.27273088558962
 21
133.8471916230819
 31
0.0
  0
LINE
  5
214
  8
1
 62
     7
 10
-292.21099326670361
 20
124.1434555390769
 30
0.0
 11
-291.51099326670362
 21
122.139986325715
 31
0.0
  0
LINE
  5
215
  8
1
 62
     7
 10
-296.53209584493959
 20
123.1912500724702
 30
0.0
 11
-295.3109899040183
 21
122.9914335624029
 31
0.0
  0
LINE
  5
216
  8
1
 62
     7
 10
-296.06651629568472
 20
123.90544468904019
 30
0.0
 11
-295.3109899040187
 21
123.78159556085269
 31
0.0
  0
LINE
  5
217
  8
1
 62
     7
 10
-292.97864732762531
 20
122.694245391929
 30
0.0
 11
-293.31098990401858
 21
122.7339013909662
 31
0.0
  0
LINE
  5
218
  8
1
 62
     7
 10
-297.47273088558961
 20
124.7692341868342
 30
0.0
 11
-294.27273088558962
 21
126.77270340019621
 31
0.0
  0
LINE
  5
219
  8
1
 62
     7
 10
-296.30142767142507
 20
124.2999002010162
 30
0.0
 11
-293.10142767142509
 21
126.303369414378
 31
0.0
  0
LINE
  5
21A
  8
1
 62
     7
 10
-292.21099326670361
 20
124.1434555390769
 30
0.0
 11
-292.21099326670361
 21
126.14692475243859
 31
0.0
  0
LINE
  5
21B
  8
1
 62
     7
 10
-292.31099326670352
 20
122.1051900146892
 30
0.0
 11
-292.62474700556112
 21
122.53638288012429
 31
0.0
  0
LINE
  5
21C
  8
1
 62
     7
 10
-292.31099326670352
 20
122.1051900146892
 30
0.0
 11
-291.51099326670362
 21
122.139986325715
 31
0.0
  0
LINE
  5
21D
  8
1
 62
     7
 10
-291.51099326670362
 20
122.139986325715
 30
0.0
 11
-291.51099326670362
 21
115.1278440789484
 31
0.0
  0
LINE
  5
21E
  8
1
 62
     7
 10
-291.51099326670362
 20
122.139986325715
 30
0.0
 11
-290.71099326670361
 21
122.139986325715
 31
0.0
  0
LINE
  5
21F
  8
1
 62
     7
 10
-292.31099326670352
 20
115.1278440789484
 30
0.0
 11
-290.71099326670361
 21
115.1278440789484
 31
0.0
  0
LINE
  5
220
  8
1
 62
     7
 10
-293.61099326670359
 20
117.7259197546795
 30
0.0
 11
-292.31099326670352
 21
117.7259197546795
 31
0.0
  0
LINE
  5
221
  8
1
 62
     7
 10
-292.31099326670352
 20
115.1278440789484
 30
0.0
 11
-292.31099326670352
 21
122.1051900146892
 31
0.0
  0
LINE
  5
222
  8
1
 62
     7
 10
-298.71099326670361
 20
146.16361543584091
 30
0.0
 11
-298.71099326670361
 21
184.86093603757379
 31
0.0
  0
LINE
  5
223
  8
1
 62
     7
 10
-270.06272127608651
 20
201.7451412377543
 30
0.0
 11
-289.81682180793382
 21
196.45204595304261
 31
0.0
  0
LINE
  5
224
  8
1
 62
     7
 10
-269.54508318588159
 20
199.81328958517599
 30
0.0
 11
-289.29918371772862
 21
194.52019430046451
 31
0.0
  0
LINE
  5
225
  8
1
 62
     7
 10
-285.71099326670361
 20
197.55219939492591
 30
0.0
 11
-285.71099326670361
 21
233.0
 31
0.0
  0
LINE
  5
226
  8
1
 62
     7
 10
-290.71099326670361
 20
194.02608742748549
 30
0.0
 11
-290.71099326670361
 21
153.0
 31
0.0
  0
LINE
  5
227
  8
1
 62
     7
 10
-296.71099326670361
 20
171.7444823338389
 30
0.0
 11
-290.71099326670361
 21
171.7444823338389
 31
0.0
  0
ARC
  5
228
  8
1
 62
     7
 10
-694.38548045981906
 20
-58.888774341229919
 30
0.0
 40
3.0
 50
270.0
 51
0.0
  0
ARC
  5
229
  8
1
 62
     7
 10
-722.38548045981906
 20
-58.888774341229919
 30
0.0
 40
3.0
 50
180.0
 51
270.0
  0
ARC
  5
22A
  8
1
 62
     7
 10
15.4
 20
-60.40000000000002
 30
0.0
 40
5.4000000000000119
 50
90.0
 51
180.0
  0
ARC
  5
22B
  8
1
 62
     7
 10
42.59999999999998
 20
-94.599999999999994
 30
0.0
 40
5.3999999999999906
 50
270.0
 51
0.0
  0
ARC
  5
22C
  8
1
 62
     7
 10
15.4
 20
-94.599999999999994
 30
0.0
 40
5.4000000000000083
 50
180.0
 51
270.0
  0
ARC
  5
22D
  8
1
 62
     7
 10
42.59999999999998
 20
-60.40000000000002
 30
0.0
 40
5.4000000000000119
 50
0.0
 51
90.0
  0
ARC
  5
22E
  8
1
 62
     7
 10
42.59999999999998
 20
60.399999999999991
 30
0.0
 40
5.3999999999999977
 50
270.0
 51
0.0
  0
ARC
  5
22F
  8
1
 62
     7
 10
15.4
 20
94.599999999999994
 30
0.0
 40
5.4000000000000048
 50
90.0
 51
180.0
  0
ARC
  5
230
  8
1
 62
     7
 10
42.59999999999998
 20
94.599999999999994
 30
0.0
 40
5.4000000000000119
 50
0.0
 51
90.0
  0
ARC
  5
231
  8
1
 62
     7
 10
15.4
 20
60.399999999999991
 30
0.0
 40
5.4000000000000083
 50
180.0
 51
270.0
  0
ARC
  5
232
  8
1
 62
     7
 10
-261.96099326670361
 20
137.28128310842601
 30
0.0
 40
50.0
 50
180.0
 51
195.42046435251731
  0
ARC
  5
233
  8
1
 62
     7
 10
-293.9109932667036
 20
117.77591975467951
 30
0.0
 40
0.3000000000000276
 50
339.50824758259103
 51
349.80906739484209
  0
ARC
  5
234
  8
1
 62
     7
 10
-294.8984854444227
 20
119.0759197546795
 30
0.0
 40
1.5999999999997681
 50
196.19135163861759
 51
239.16824074109209
  0
ARC
  5
235
  8
1
 62
     7
 10
-286.71099326670361
 20
184.86093603757379
 30
0.0
 40
9.9999999999999982
 50
104.9999999999992
 51
180.0
  0
ARC
  5
236
  8
1
 62
     7
 10
-286.71099326670361
 20
184.86093603757379
 30
0.0
 40
11.999999999999989
 50
104.9999999999997
 51
180.0
  0
ARC
  5
237
  8
1
 62
     7
 10
473.75667112204951
 20
0.0000000000000071
 30
0.0
 40
150.0
 50
329.17619820302588
 51
30.82380179697401
  0
ARC
  5
238
  8
1
 62
     7
 10
605.94493398188058
 20
64.306011865922599
 30
0.0
 40
13.00000000000014
 50
25.941667517106801
 51
205.94166751710679
  0
ARC
  5
239
  8
1
 62
     7
 10
473.75667112204951
 20
0.0000000000000071
 30
0.0
 40
160.0
 50
334.05833248289281
 51
25.94166751710712
  0
ARC
  5
23A
  8
1
 62
     7
 10
473.75667112204951
 20
0.0000000000000071
 30
0.0
 40
134.0
 50
334.05833248289281
 51
25.94166751710717
  0
ARC
  5
23B
  8
1
 62
     7
 10
605.94493398188058
 20
-64.306011865922642
 30
0.0
 40
13.00000000000003
 50
154.05833248289289
 51
334.05833248289298
  0
ARC
  5
23C
  8
1
 62
     7
 10
473.75667112204951
 20
0.0000000000000071
 30
0.0
 40
150.0
 50
239.1761982030259
 51
300.82380179697401
  0
ARC
  5
23D
  8
1
 62
     7
 10
538.06268298797215
 20
-132.18826285983121
 30
0.0
 40
13.000000000000121
 50
295.94166751710583
 51
115.94166751710711
  0
ARC
  5
23E
  8
1
 62
     7
 10
473.75667112204951
 20
0.0000000000000071
 30
0.0
 40
160.0000000000002
 50
244.05833248289281
 51
295.94166751710708
  0
ARC
  5
23F
  8
1
 62
     7
 10
473.75667112204951
 20
0.0000000000000071
 30
0.0
 40
134.0
 50
244.05833248289281
 51
295.94166751710708
  0
ARC
  5
240
  8
1
 62
     7
 10
409.45065925612681
 20
-132.18826285983121
 30
0.0
 40
13.000000000000091
 50
64.058332482892681
 51
244.05833248289309
  0
ARC
  5
241
  8
1
 62
     7
 10
473.75667112204951
 20
0.0000000000000071
 30
0.0
 40
150.0
 50
149.17619820302599
 51
210.8238017969739
  0
ARC
  5
242
  8
1
 62
     7
 10
341.56840826221833
 20
-64.306011865922571
 30
0.0
 40
13.000000000000099
 50
205.94166751710759
 51
25.941667517107831
  0
ARC
  5
243
  8
1
 62
     7
 10
473.75667112204951
 20
0.0000000000000071
 30
0.0
 40
160.0
 50
154.05833248289281
 51
205.94166751710719
  0
ARC
  5
244
  8
1
 62
     7
 10
473.75667112204951
 20
0.0000000000000071
 30
0.0
 40
134.0
 50
154.05833248289289
 51
205.94166751710699
  0
ARC
  5
245
  8
1
 62
     7
 10
341.56840826221833
 20
64.30601186592267
 30
0.0
 40
12.999999999999959
 50
334.05833248289241
 51
154.05833248289301
  0
ARC
  5
246
  8
1
 62
     7
 10
-708.38548045981918
 20
0.0000000000000071
 30
0.0
 40
187.5
 50
96.123198866269405
 51
36.516293318700377
  0
ARC
  5
247
  8
1
 62
     7
 10
-708.38548045981918
 20
0.0000000000000071
 30
0.0
 40
200.0
 50
95.739170477266725
 51
34.380242608304648
  0
ARC
  5
248
  8
1
 62
     7
 10
-708.38548045981918
 20
0.0000000000000071
 30
0.0
 40
187.5
 50
38.359504678267641
 51
48.20773657240742
  0
ARC
  5
249
  8
1
 62
     7
 10
-708.38548045981918
 20
0.0000000000000071
 30
0.0
 40
200.0
 50
61.220422022261332
 51
73.924201800945312
  0
ARC
  5
24A
  8
1
 62
     7
 10
-708.38548045981918
 20
0.0000000000000071
 30
0.0
 40
187.5
 50
49.555674021717529
 51
56.225719334021079
  0
ARC
  5
24B
  8
1
 62
     7
 10
-708.38548045981918
 20
0.0000000000000071
 30
0.0
 40
199.99999999999989
 50
35.572341412614499
 51
59.610251742711228
  0
ARC
  5
24C
  8
1
 62
     7
 10
-640.44915697699537
 20
181.0871817149789
 30
0.0
 40
20.75263794341036
 50
107.1624784167108
 51
164.99999999999989
  0
ARC
  5
24D
  8
1
 62
     7
 10
-640.44915697699537
 20
181.0871817149789
 30
0.0
 40
18.752637943410349
 50
107.1624784167105
 51
164.9999999999998
  0
ARC
  5
24E
  8
1
 62
     7
 10
-638.68156591684783
 20
175.3637517983114
 30
0.0
 40
26.742798890072599
 50
63.310238201838821
 51
107.1624784167106
  0
ARC
  5
24F
  8
1
 62
     7
 10
-638.68156591684783
 20
175.3637517983114
 30
0.0
 40
24.742798890072581
 50
63.310238201838693
 51
107.1624784167105
  0
ARC
  5
250
  8
1
 62
     7
 10
-641.80848682987175
 20
169.1437929770309
 30
0.0
 40
33.704517222117417
 50
34.403363769344978
 51
63.310238201838821
  0
ARC
  5
251
  8
1
 62
     7
 10
-641.80848682987175
 20
169.1437929770309
 30
0.0
 40
31.704517222117509
 50
34.403363769344907
 51
63.310238201838708
  0
ARC
  5
252
  8
1
 62
     7
 10
-651.01167871142127
 20
162.84144232329879
 30
0.0
 40
44.858815253424403
 50
4.5190048856998368
 51
34.403363769345127
  0
ARC
  5
253
  8
1
 62
     7
 10
-651.01167871142127
 20
162.84144232329879
 30
0.0
 40
42.858815253424488
 50
4.5190048856999061
 51
34.40336376934507
  0
ARC
  5
254
  8
1
 62
     7
 10
-561.41697817822455
 20
169.92260140146379
 30
0.0
 40
45.015281000855097
 50
184.51900488569979
 51
195.87322489103661
  0
ARC
  5
255
  8
1
 62
     7
 10
-561.41697817822455
 20
169.92260140146379
 30
0.0
 40
47.015281000855033
 50
184.51900488569979
 51
195.87322489103661
  0
ARC
  5
256
  8
1
 62
     7
 10
-579.36866092340779
 20
164.81799863679561
 30
0.0
 40
26.351951105877419
 50
195.8732248910367
 51
223.9109563157561
  0
ARC
  5
257
  8
1
 62
     7
 10
-579.36866092340779
 20
164.81799863679561
 30
0.0
 40
28.35195110587733
 50
195.8732248910367
 51
223.91095631575629
  0
ARC
  5
258
  8
1
 62
     7
 10
-651.01167871142127
 20
162.84144232329879
 30
0.0
 40
40.858815253424567
 50
4.5190048856998626
 51
34.403363769345013
  0
ARC
  5
259
  8
1
 62
     7
 10
-561.41697817822455
 20
169.92260140146379
 30
0.0
 40
49.015281000854941
 50
184.51900488569979
 51
195.87322489103661
  0
ARC
  5
25A
  8
1
 62
     7
 10
-579.36866092340779
 20
164.81799863679561
 30
0.0
 40
30.35195110587744
 50
195.87322489103661
 51
223.91095631575629
  0
ARC
  5
25B
  8
1
 62
     7
 10
-641.80848682987175
 20
169.1437929770309
 30
0.0
 40
29.704517222117591
 50
34.4033637693448
 51
63.310238201838693
  0
ARC
  5
25C
  8
1
 62
     7
 10
-638.68156591684783
 20
175.3637517983114
 30
0.0
 40
22.742798890072638
 50
63.310238201838636
 51
107.1624784167106
  0
ARC
  5
25D
  8
1
 62
     7
 10
-640.44915697699537
 20
181.0871817149789
 30
0.0
 40
16.752637943410338
 50
107.1624784167108
 51
165.0
  0
ARC
  5
25E
  8
1
 62
     7
 10
-589.73921975347434
 20
137.78175254814531
 30
0.0
 40
4.8627211824792802
 50
242.2447023965351
 51
260.0956553029626
  0
ARC
  5
25F
  8
1
 62
     7
 10
-588.92268234807193
 20
139.3333867008752
 30
0.0
 40
6.6160899053493383
 50
205.4938931590581
 51
242.24470239653689
  0
ARC
  5
260
  8
1
 62
     7
 10
-583.01544815544423
 20
121.9759197546795
 30
0.0
 40
2.0400000000001999
 50
135.00000000000361
 51
225.0000000000073
  0
ARC
  5
261
  8
1
 62
     7
 10
-586.40956070513982
 20
125.370032304375
 30
0.0
 40
2.0400000000001111
 50
225.00000000000281
 51
314.99999999999977
  0
ARC
  5
262
  8
1
 62
     7
 10
-589.80367325483519
 20
121.9759197546795
 30
0.0
 40
2.0400000000002612
 50
315.00000000000188
 51
45.000000000000853
  0
ARC
  5
263
  8
1
 62
     7
 10
-586.40956070513948
 20
118.581807204984
 30
0.0
 40
2.0399999999999601
 50
44.9999999999986
 51
135.00000000000591
  0
ARC
  5
264
  8
1
 62
     7
 10
-589.13115886879405
 20
157.39994726565669
 30
0.0
 40
14.478789798676219
 50
259.25578242273042
 51
272.2325788470767
  0
ARC
  5
265
  8
1
 62
     7
 10
-588.35551454775339
 20
137.50427748491521
 30
0.0
 40
5.4319937152157358
 50
351.62423627811381
 51
92.232578847078088
  0
ARC
  5
266
  8
1
 62
     7
 10
-589.13115886879405
 20
157.39994726565669
 30
0.0
 40
16.478789798676392
 50
259.25587536292988
 51
272.23257884707692
  0
ARC
  5
267
  8
1
 62
     7
 10
-589.13115886879405
 20
157.39994726565669
 30
0.0
 40
18.478789798676321
 50
262.13751241128199
 51
272.23257884707641
  0
ARC
  5
268
  8
1
 62
     7
 10
-588.27760256397835
 20
135.5057956304104
 30
0.0
 40
5.4319937152156363
 50
336.11541938967952
 51
92.232578847076937
  0
ARC
  5
269
  8
1
 62
     7
 10
-588.27760256397835
 20
135.5057956304104
 30
0.0
 40
3.4319937152158388
 50
7.5785908879707398
 51
92.232578847079353
  0
ARC
  5
26A
  8
1
 62
     7
 10
-564.15908879962569
 20
151.14177519328419
 30
0.0
 40
30.050987467037011
 50
205.49389315905771
 51
216.06188861198621
  0
ARC
  5
26B
  8
1
 62
     7
 10
-581.66675498659595
 20
142.7933372524536
 30
0.0
 40
10.654730318652209
 50
182.69860776632589
 51
205.4938931590579
  0
ARC
  5
26C
  8
1
 62
     7
 10
-591.34032245643789
 20
142.33737897212211
 30
0.0
 40
0.970423139148534
 50
42.982368801013337
 51
182.69860776632279
  0
ARC
  5
26D
  8
1
 62
     7
 10
-564.15908879962569
 20
151.14177519328419
 30
0.0
 40
32.050987467037032
 50
205.49389315905759
 51
216.06188861198621
  0
ARC
  5
26E
  8
1
 62
     7
 10
-581.66675498659595
 20
142.7933372524536
 30
0.0
 40
12.654730318652179
 50
182.6986077663264
 51
205.49389315905771
  0
ARC
  5
26F
  8
1
 62
     7
 10
-591.34032245643789
 20
142.33737897212211
 30
0.0
 40
2.9704231391484819
 50
42.982368801012051
 51
182.69860776632621
  0
ARC
  5
270
  8
1
 62
     7
 10
-594.60566535042437
 20
139.2942755178529
 30
0.0
 40
7.4339355283653266
 50
29.290664477330932
 51
42.982368801012989
  0
ARC
  5
271
  8
1
 62
     7
 10
-515.83846540495358
 20
171.6032505746976
 30
0.0
 40
77.702083032955827
 50
205.65524554812021
 51
206.64805384341881
  0
ARC
  5
272
  8
1
 62
     7
 10
-515.83846540495244
 20
171.60325057469541
 30
0.0
 40
79.702083032955812
 50
204.20061957541611
 51
206.64805384341699
  0
ARC
  5
273
  8
1
 62
     7
 10
-581.66675498659595
 20
142.7933372524536
 30
0.0
 40
14.654730318652099
 50
178.97091371509131
 51
205.49389315905779
  0
ARC
  5
274
  8
1
 62
     7
 10
-593.35199259646276
 20
143.1963898835709
 30
0.0
 40
2.9704231391485001
 50
45.272408365218361
 51
182.69860776632581
  0
ARC
  5
275
  8
1
 62
     7
 10
-515.83846540495244
 20
171.60325057469541
 30
0.0
 40
81.702083032955812
 50
203.52478637073031
 51
206.64805384341699
  0
ARC
  5
276
  8
1
 62
     7
 10
-590.4384252300332
 20
154.16124857495461
 30
0.0
 40
10.98620987140435
 50
223.91095631575581
 51
239.9424894077093
  0
ARC
  5
277
  8
1
 62
     7
 10
-590.4384252300332
 20
154.16124857495461
 30
0.0
 40
12.98620987140427
 50
223.9109563157561
 51
243.06960572589171
  0
ARC
  5
278
  8
1
 62
     7
 10
-590.4384252300332
 20
154.16124857495461
 30
0.0
 40
14.9862098714043
 50
223.91095631575621
 51
247.77971904359919
  0
ARC
  5
279
  8
1
 62
     7
 10
-586.99003844908054
 20
134.5164109337114
 30
0.0
 40
3.8082008010684558
 50
216.06188861198629
 51
278.64018844694709
  0
ARC
  5
27A
  8
1
 62
     7
 10
-586.99003844908054
 20
134.5164109337114
 30
0.0
 40
1.808200801068496
 50
216.06188861198649
 51
245.7263144255345
  0
ARC
  5
27B
  8
1
 62
     7
 10
-553.26635275015053
 20
152.82148191332161
 30
0.0
 40
35.826056655394531
 50
206.6480538434171
 51
214.34397677396259
  0
ARC
  5
27C
  8
1
 62
     7
 10
-553.26635275015053
 20
152.82148191332161
 30
0.0
 40
37.82605665539463
 50
206.6480538434171
 51
214.91346333894441
  0
ARC
  5
27D
  8
1
 62
     7
 10
-553.26635275015053
 20
152.82148191332161
 30
0.0
 40
39.826056655394602
 50
206.6480538434171
 51
215.4248919729981
  0
ARC
  5
27E
  8
1
 62
     7
 10
-543.68316023896375
 20
159.3694764953195
 30
0.0
 40
47.432684578798593
 50
226.4848558943354
 51
230.3899513338221
  0
ARC
  5
27F
  8
1
 62
     7
 10
-552.91008896231153
 20
148.2200175710349
 30
0.0
 40
32.960412885313353
 50
230.38995133382221
 51
271.00112090907737
  0
ARC
  5
280
  8
1
 62
     7
 10
-552.74191335494413
 20
138.59603328380641
 30
0.0
 40
23.33495930661217
 50
271.00112090907709
 51
305.2250107059711
  0
ARC
  5
281
  8
1
 62
     7
 10
-554.85788848393156
 20
141.59284113772819
 30
0.0
 40
27.00350234981353
 50
305.2250107059711
 51
339.12521725233711
  0
ARC
  5
282
  8
1
 62
     7
 10
-555.24107615794719
 20
141.73897307168801
 30
0.0
 40
27.413608842861692
 50
339.12521725214509
 51
0.0000000000892229
  0
ARC
  5
283
  8
1
 62
     7
 10
-554.85788848393156
 20
141.59284113772819
 30
0.0
 40
29.003502349813449
 50
305.22501070597087
 51
339.12521725233711
  0
ARC
  5
284
  8
1
 62
     7
 10
-552.74191335494413
 20
138.59603328380641
 30
0.0
 40
25.334959306612149
 50
271.00112090907709
 51
305.22501070597087
  0
ARC
  5
285
  8
1
 62
     7
 10
-552.91008896231153
 20
148.2200175710349
 30
0.0
 40
34.96041288531346
 50
230.3899513338223
 51
271.00112090907731
  0
ARC
  5
286
  8
1
 62
     7
 10
-543.68316023896375
 20
159.3694764953195
 30
0.0
 40
49.43268457879855
 50
226.42476737189659
 51
230.3899513338221
  0
ARC
  5
287
  8
1
 62
     7
 10
-543.68316023896375
 20
159.3694764953195
 30
0.0
 40
51.431085256344822
 50
226.36939600829581
 51
230.3899513338219
  0
ARC
  5
288
  8
1
 62
     7
 10
-552.91008896231153
 20
148.2200175710349
 30
0.0
 40
36.958813562859689
 50
230.38995133382221
 51
271.00112090907731
  0
ARC
  5
289
  8
1
 62
     7
 10
-552.74191335494413
 20
138.59603328380641
 30
0.0
 40
27.33335998415842
 50
271.00112090907709
 51
305.22501070597087
  0
ARC
  5
28A
  8
1
 62
     7
 10
-554.85788848393156
 20
141.59284113772819
 30
0.0
 40
31.001903027359688
 50
305.22501070597087
 51
339.12521725233728
  0
ARC
  5
28B
  8
1
 62
     7
 10
-555.24107615794719
 20
141.73897307168801
 30
0.0
 40
31.41200952040796
 50
339.12521725214509
 51
344.57953564748152
  0
ARC
  5
28C
  8
1
 62
     7
 10
-555.24107615794719
 20
141.73897307168801
 30
0.0
 40
29.413608842861741
 50
339.12521725214509
 51
0.0000000000891908
  0
ARC
  5
28D
  8
1
 62
     7
 10
-708.38548045981918
 20
0.0000000000000071
 30
0.0
 40
200.0
 50
75.171227202457331
 51
84.260829522733218
  0
ARC
  5
28E
  8
1
 62
     7
 10
-708.38548045981918
 20
2.6124999999999972
 30
0.0
 40
59.887500000000017
 50
286.49105085940931
 51
253.50894914059049
  0
ARC
  5
28F
  8
1
 62
     7
 10
-708.38548045981918
 20
0.0000000000000071
 30
0.0
 40
187.5
 50
58.073938461087607
 51
83.876801133730595
  0
ARC
  5
290
  8
1
 62
     7
 10
473.75667112204951
 20
0.0000000000000071
 30
0.0
 40
150.0
 50
59.17619820302599
 51
120.8238017969739
  0
ARC
  5
291
  8
1
 62
     7
 10
409.45065925612681
 20
132.18826285983121
 30
0.0
 40
13.000000000000121
 50
115.94166751710689
 51
295.94166751710628
  0
ARC
  5
292
  8
1
 62
     7
 10
473.75667112204951
 20
0.0000000000000071
 30
0.0
 40
40.0
 50
104.4775121859299
 51
75.522487814070075
  0
ARC
  5
293
  8
1
 62
     7
 10
490.7566711220494
 20
230.0
 30
0.0
 40
3.0
 50
0.0
 51
90.0
  0
ARC
  5
294
  8
1
 62
     7
 10
456.7566711220494
 20
230.0
 30
0.0
 40
3.0
 50
90.0
 51
180.0
  0
ARC
  5
295
  8
1
 62
     7
 10
-725.38548045981918
 20
230.0
 30
0.0
 40
3.0
 50
90.0
 51
180.0
  0
ARC
  5
296
  8
1
 62
     7
 10
-733.38548045981918
 20
178.0
 30
0.0
 40
5.0
 50
270.0
 51
0.0
  0
ARC
  5
297
  8
1
 62
     7
 10
-733.38548045981918
 20
168.0
 30
0.0
 40
5.0
 50
90.0
 51
180.0
  0
ARC
  5
298
  8
1
 62
     7
 10
-683.38548045981895
 20
168.0
 30
0.0
 40
5.0
 50
0.0
 51
90.0
  0
ARC
  5
299
  8
1
 62
     7
 10
-683.38548045981895
 20
178.0
 30
0.0
 40
5.0
 50
180.0
 51
270.0
  0
ARC
  5
29A
  8
1
 62
     7
 10
-691.38548045981918
 20
230.0
 30
0.0
 40
3.0
 50
0.0
 51
90.0
  0
ARC
  5
29B
  8
1
 62
     7
 10
473.75667112204951
 20
0.0000000000000071
 30
0.0
 40
160.0
 50
64.058332482892894
 51
115.94166751710711
  0
ARC
  5
29C
  8
1
 62
     7
 10
473.75667112204951
 20
0.0000000000000071
 30
0.0
 40
134.0
 50
64.058332482892851
 51
115.94166751710721
  0
ARC
  5
29D
  8
1
 62
     7
 10
538.06268298797215
 20
132.18826285983121
 30
0.0
 40
13.00000000000006
 50
244.05833248289289
 51
64.058332482893491
  0
ARC
  5
29E
  8
1
 62
     7
 10
-708.38548045981918
 20
0.0000000000000071
 30
0.0
 40
40.0
 50
104.4775121859299
 51
75.522487814070075
  0
ARC
  5
29F
  8
1
  6
DASHDOT
 62
     3
 10
473.75667112204951
 20
0.0000000000000071
 30
0.0
 40
110.0
 50
84.260829522733218
 51
95.739170477266725
  0
ARC
  5
2A0
  8
1
  6
DASHDOT
 62
     3
 10
473.75667112204951
 20
0.0000000000000071
 30
0.0
 40
110.0
 50
129.26082952273319
 51
140.73917047726681
  0
ARC
  5
2A1
  8
1
  6
DASHDOT
 62
     3
 10
473.75667112204951
 20
0.0000000000000071
 30
0.0
 40
110.0
 50
174.2608295227331
 51
185.73917047726681
  0
ARC
  5
2A2
  8
1
  6
DASHDOT
 62
     3
 10
473.75667112204951
 20
0.0000000000000071
 30
0.0
 40
110.0
 50
219.2608295227331
 51
230.73917047726661
  0
ARC
  5
2A3
  8
1
  6
DASHDOT
 62
     3
 10
473.75667112204951
 20
0.0000000000000071
 30
0.0
 40
110.0
 50
264.26082952273322
 51
275.73917047726661
  0
ARC
  5
2A4
  8
1
  6
DASHDOT
 62
     3
 10
473.75667112204951
 20
0.0000000000000071
 30
0.0
 40
110.0
 50
309.2608295227331
 51
320.73917047726661
  0
ARC
  5
2A5
  8
1
  6
DASHDOT
 62
     3
 10
473.75667112204951
 20
0.0000000000000071
 30
0.0
 40
110.0000000000002
 50
354.2608295227331
 51
5.7391704772667014
  0
ARC
  5
2A6
  8
1
  6
DASHDOT
 62
     3
 10
473.75667112204951
 20
0.0000000000000071
 30
0.0
 40
110.0
 50
39.260829522733168
 51
50.739170477266747
  0
ARC
  5
2A7
  8
1
 62
     7
 10
-302.06185068012832
 20
120.0120647842846
 30
0.0
 40
6.7508607761103239
 50
195.4204643525168
 51
0.0
  0
ARC
  5
2A8
  8
1
 62
     7
 10
-302.06185068012832
 20
120.0120647842846
 30
0.0
 40
8.7508607761104376
 50
195.420464352517
 51
0.0
  0
ARC
  5
2A9
  8
1
 62
     7
 10
-283.75121114813362
 20
143.90558205128491
 30
0.0
 40
14.302546835188499
 50
212.45689583909791
 51
224.00010331882561
  0
ARC
  5
2AA
  8
1
 62
     7
 10
-285.10747406738631
 20
139.72831521874051
 30
0.0
 40
12.255878865438021
 50
203.65520854483509
 51
212.61627641761919
  0
ARC
  5
2AB
  8
1
 62
     7
 10
-292.47841350461579
 20
129.79013948137131
 30
0.0
 40
4.7325797620868864
 50
130.96625686798001
 51
143.95621575618961
  0
ARC
  5
2AC
  8
1
 62
     7
 10
-292.47841350459493
 20
131.79017616469321
 30
0.0
 40
4.732579762108994
 50
142.97965491511749
 51
177.3278420787629
  0
ARC
  5
2AD
  8
1
 62
     7
 10
-283.09484591753107
 20
146.09179123399861
 30
0.0
 40
18.441734698398552
 50
214.14177525587181
 51
222.04458255356329
  0
ARC
  5
2AE
  8
1
 62
     7
 10
-289.44951705392248
 20
143.78259490349751
 30
0.0
 40
10.763778051834761
 50
192.96240094957801
 51
194.88204367506441
  0
ARC
  5
2AF
  8
1
 62
     7
 10
-270.41625660406811
 20
146.1636154358394
 30
0.0
 40
28.29473666263549
 50
179.99999999999699
 51
183.2719893871637
  0
ARC
  5
2B0
  8
1
 62
     7
 10
-280.20091746636552
 20
146.16361543584091
 30
0.0
 40
18.510075800338079
 50
180.0
 51
184.9583526991749
  0
ARC
  5
2B1
  8
1
 62
     7
 10
-280.20091746636552
 20
146.1636154358396
 30
0.0
 40
16.51007580033809
 50
179.99999999999559
 51
183.96348179357619
  0
ARC
  5
2B2
  8
1
 62
     7
 10
-297.013333994964
 20
142.04157751927161
 30
0.0
 40
3.002175881550265
 50
92.497835593473553
 51
192.96240094955829
  0
ARC
  5
2B3
  8
1
 62
     7
 10
-297.01932787798978
 20
142.1789791189116
 30
0.0
 40
2.8646436081840809
 50
41.090517617748603
 51
92.4978355934755
  0
ARC
  5
2B4
  8
1
 62
     7
 10
-305.92389286203371
 20
134.4136267910126
 30
0.0
 40
14.67954836156488
 50
25.571216651862919
 51
41.090517617748219
  0
ARC
  5
2B5
  8
1
 62
     7
 10
-295.96236078361511
 20
137.79579415215321
 30
0.0
 40
3.8678507098933541
 50
349.4820712523063
 51
352.89831554273781
  0
ARC
  5
2B6
  8
1
 62
     7
 10
-298.25795623815651
 20
138.08179421731921
 30
0.0
 40
6.1811934273015536
 50
352.89831554267909
 51
25.571216651861949
  0
ARC
  5
2B7
  8
1
 62
     7
 10
-289.44951705392162
 20
141.78259490349359
 30
0.0
 40
10.76377805183486
 50
192.96240094955701
 51
214.14177525587149
  0
ARC
  5
2B8
  8
1
 62
     7
 10
-297.013333994964
 20
140.0415775192717
 30
0.0
 40
3.002175881550265
 50
92.497835593473553
 51
192.96240094955829
  0
ARC
  5
2B9
  8
1
 62
     7
 10
-297.01932787798978
 20
140.17897911891171
 30
0.0
 40
2.8646436081840809
 50
41.090517617748603
 51
92.4978355934755
  0
ARC
  5
2BA
  8
1
 62
     7
 10
-305.92389286203371
 20
132.4136267910126
 30
0.0
 40
14.67954836156488
 50
25.571216651862919
 51
41.090517617748219
  0
ARC
  5
2BB
  8
1
 62
     7
 10
-298.25795623815651
 20
136.08179421731921
 30
0.0
 40
6.1811934273015536
 50
352.89831554267909
 51
25.571216651861949
  0
ARC
  5
2BC
  8
1
 62
     7
 10
-295.9623607836146
 20
135.7957941521571
 30
0.0
 40
3.8678507098932728
 50
347.39074312849442
 51
352.89831554267948
  0
ARC
  5
2BD
  8
1
 62
     7
 10
-297.013333994964
 20
140.0415775192717
 30
0.0
 40
1.0021758815504089
 50
92.497835593466945
 51
192.9624009495605
  0
ARC
  5
2BE
  8
1
 62
     7
 10
-297.01932787798978
 20
140.17897911891171
 30
0.0
 40
0.8646436081840494
 50
41.090517617746748
 51
92.497835593472345
  0
ARC
  5
2BF
  8
1
 62
     7
 10
-305.92389286203371
 20
132.4136267910126
 30
0.0
 40
12.67954836156515
 50
25.599357694733111
 51
41.090517617748048
  0
ARC
  5
2C0
  8
1
 62
     7
 10
-270.41625660406811
 20
146.16361543584091
 30
0.0
 40
28.29473666263538
 50
192.96240094955741
 51
203.65520854483529
  0
ARC
  5
2C1
  8
1
 62
     7
 10
-291.71099326670361
 20
133.24726975865241
 30
0.0
 40
1.0
 50
0.0
 51
53.24709128646802
  0
ARC
  5
2C2
  8
1
 62
     7
 10
-283.75121114813362
 20
143.90558205128491
 30
0.0
 40
12.30254683518857
 50
212.45689583909831
 51
233.24709128646981
  0
ARC
  5
2C3
  8
1
 62
     7
 10
-280.20091746636552
 20
146.16361543584091
 30
0.0
 40
16.510075800338068
 50
206.16430090532819
 51
212.45689583909791
  0
ARC
  5
2C4
  8
1
 62
     7
 10
-280.20091746636552
 20
146.16361543584091
 30
0.0
 40
18.510075800338011
 50
197.5236950854985
 51
212.45689583909771
  0
ARC
  5
2C5
  8
1
 62
     7
 10
-284.9109932667036
 20
121.9759197546795
 30
0.0
 40
11.99999999999979
 50
173.8716930444518
 51
196.19135163861679
  0
ARC
  5
2C6
  8
1
 62
     7
 10
-267.3175439550875
 20
191.5
 30
0.0
 40
10.606550688384001
 50
0.0
 51
104.9999999999996
  0
ARC
  5
2C7
  8
1
 62
     7
 10
-267.3175439550875
 20
191.5
 30
0.0
 40
8.6065506883840044
 50
0.0
 51
104.9999999999998
  0
CIRCLE
  5
2C8
  8
1
 62
     7
 10
473.7566711220494
 20
220.0
 30
0.0
 40
6.5
  0
CIRCLE
  5
2C9
  8
1
 62
     7
 10
473.75667112204951
 20
0.0000000000000071
 30
0.0
 40
200.0
  0
CIRCLE
  5
2CA
  8
1
 62
     7
 10
29.0
 20
-77.5
 30
0.0
 40
13.499999999999989
  0
CIRCLE
  5
2CB
  8
1
 62
     7
 10
29.0
 20
77.499999999999986
 30
0.0
 40
13.49999999999998
  0
CIRCLE
  5
2CC
  8
1
 62
     7
 10
-708.38548045981918
 20
0.0000000000000071
 30
0.0
 40
85.0
  0
CIRCLE
  5
2CD
  8
1
 62
     7
 10
-708.38548045981918
 20
0.0000000000000071
 30
0.0
 40
152.0
  0
CIRCLE
  5
2CE
  8
1
 62
     7
 10
-586.40956070513948
 20
121.9759197546795
 30
0.0
 40
4.5000000000001128
  0
CIRCLE
  5
2CF
  8
1
 62
     7
 10
-688.38548045981906
 20
165.2444823338389
 30
0.0
 40
6.5
  0
CIRCLE
  5
2D0
  8
1
 62
     7
 10
-728.38548045981918
 20
165.2444823338389
 30
0.0
 40
6.5
  0
CIRCLE
  5
2D1
  8
1
 62
     7
 10
-694.38548045981895
 20
-57.888774341229919
 30
0.0
 40
1.5
  0
CIRCLE
  5
2D2
  8
1
 62
     7
 10
-722.38548045981906
 20
-57.888774341229919
 30
0.0
 40
1.5000000000001139
  0
CIRCLE
  5
2D3
  8
1
 62
     7
 10
-708.38548045981918
 20
0.0000000000000071
 30
0.0
 40
55.0
  0
CIRCLE
  5
2D4
  8
1
 62
     7
 10
473.7566711220494
 20
220.0
 30
0.0
 40
6.5
  0
CIRCLE
  5
2D5
  8
1
 62
     7
 10
-708.38548045981918
 20
220.0
 30
0.0
 40
6.5
  0
CIRCLE
  5
2D6
  8
1
 62
     7
 10
652.01210582180829
 20
-25.000000000000011
 30
0.0
 40
12.0
  0
CIRCLE
  5
2D7
  8
1
 62
     7
 10
652.01210582180829
 20
-25.000000000000011
 30
0.0
 40
9.0
  0
CIRCLE
  5
2D8
  8
1
 62
     7
 10
652.01210582180829
 20
24.999999999999979
 30
0.0
 40
9.0
  0
CIRCLE
  5
2D9
  8
1
 62
     7
 10
652.01210582180829
 20
24.999999999999979
 30
0.0
 40
12.0
  0
CIRCLE
  5
2DA
  8
1
 62
     7
 10
448.7566711220494
 20
-178.25543469975889
 30
0.0
 40
11.99999999999989
  0
CIRCLE
  5
2DB
  8
1
 62
     7
 10
448.7566711220494
 20
-178.25543469975889
 30
0.0
 40
8.9999999999998863
  0
CIRCLE
  5
2DC
  8
1
 62
     7
 10
498.7566711220494
 20
-178.25543469975889
 30
0.0
 40
9.0
  0
CIRCLE
  5
2DD
  8
1
 62
     7
 10
498.7566711220494
 20
-178.25543469975889
 30
0.0
 40
12.0
  0
CIRCLE
  5
2DE
  8
1
 62
     7
 10
295.50123642229062
 20
25.000000000000011
 30
0.0
 40
12.0
  0
CIRCLE
  5
2DF
  8
1
 62
     7
 10
295.50123642229062
 20
25.000000000000011
 30
0.0
 40
9.0
  0
CIRCLE
  5
2E0
  8
1
 62
     7
 10
295.50123642229062
 20
-24.999999999999979
 30
0.0
 40
9.0
  0
CIRCLE
  5
2E1
  8
1
 62
     7
 10
295.50123642229062
 20
-24.999999999999979
 30
0.0
 40
12.0
  0
CIRCLE
  5
2E2
  8
1
 62
     7
 10
448.75667112204951
 20
178.25543469975889
 30
0.0
 40
12.0
  0
CIRCLE
  5
2E3
  8
1
 62
     7
 10
448.75667112204951
 20
178.25543469975889
 30
0.0
 40
9.0
  0
CIRCLE
  5
2E4
  8
1
 62
     7
 10
498.75667112204951
 20
178.25543469975889
 30
0.0
 40
9.0
  0
CIRCLE
  5
2E5
  8
1
 62
     7
 10
498.75667112204951
 20
178.25543469975889
 30
0.0
 40
12.0
  0
CIRCLE
  5
2E6
  8
1
 62
     7
 10
473.75667112204951
 20
0.0000000000000071
 30
0.0
 40
92.5
  0
CIRCLE
  5
2E7
  8
1
 62
     7
 10
473.75667112204951
 20
0.0000000000000071
 30
0.0
 40
195.0
  0
CIRCLE
  5
2E8
  8
1
 62
     7
 10
473.75667112204951
 20
0.0000000000000071
 30
0.0
 40
52.5
  0
CIRCLE
  5
2E9
  8
1
 62
     7
 10
473.75667112204951
 20
74.999999999999986
 30
0.0
 40
13.0
  0
CIRCLE
  5
2EA
  8
1
 62
     7
 10
473.75667112204951
 20
74.999999999999986
 30
0.0
 40
12.0
  0
CIRCLE
  5
2EB
  8
1
 62
     7
 10
420.72366253305842
 20
53.033008588991102
 30
0.0
 40
13.00000000000006
  0
CIRCLE
  5
2EC
  8
1
 62
     7
 10
398.75667112204951
 20
0.0000000000000497
 30
0.0
 40
13.0
  0
CIRCLE
  5
2ED
  8
1
 62
     7
 10
420.72366253305842
 20
-53.033008588991031
 30
0.0
 40
13.0
  0
CIRCLE
  5
2EE
  8
1
 62
     7
 10
473.7566711220494
 20
-74.999999999999915
 30
0.0
 40
13.0
  0
CIRCLE
  5
2EF
  8
1
 62
     7
 10
526.78967971104055
 20
-53.033008588991052
 30
0.0
 40
13.00000000000011
  0
CIRCLE
  5
2F0
  8
1
 62
     7
 10
548.75667112204951
 20
0.0000000000000071
 30
0.0
 40
13.0
  0
CIRCLE
  5
2F1
  8
1
 62
     7
 10
526.78967971104055
 20
53.033008588991002
 30
0.0
 40
13.00000000000011
  0
CIRCLE
  5
2F2
  8
1
 62
     7
 10
420.72366253305842
 20
53.033008588991102
 30
0.0
 40
12.00000000000006
  0
CIRCLE
  5
2F3
  8
1
 62
     7
 10
398.75667112204951
 20
0.0000000000000497
 30
0.0
 40
12.0
  0
CIRCLE
  5
2F4
  8
1
 62
     7
 10
420.72366253305842
 20
-53.033008588991031
 30
0.0
 40
12.0
  0
CIRCLE
  5
2F5
  8
1
 62
     7
 10
473.7566711220494
 20
-74.999999999999915
 30
0.0
 40
12.0
  0
CIRCLE
  5
2F6
  8
1
 62
     7
 10
526.78967971104055
 20
-53.033008588991052
 30
0.0
 40
12.0
  0
CIRCLE
  5
2F7
  8
1
 62
     7
 10
548.75667112204951
 20
0.0000000000000071
 30
0.0
 40
12.0
  0
CIRCLE
  5
2F8
  8
1
 62
     7
 10
526.78967971104055
 20
53.033008588991002
 30
0.0
 40
12.0
  0
CIRCLE
  5
2F9
  8
1
 62
     3
 10
473.75667112204951
 20
110.0
 30
0.0
 40
6.3999999999999773
  0
CIRCLE
  5
2FA
  8
1
 62
     7
 10
473.75667112204951
 20
110.0
 30
0.0
 40
8.0
  0
CIRCLE
  5
2FB
  8
1
 62
     3
 10
395.97492519152928
 20
77.781745930520174
 30
0.0
 40
6.4000000000000341
  0
CIRCLE
  5
2FC
  8
1
 62
     7
 10
395.97492519152928
 20
77.781745930520174
 30
0.0
 40
8.0
  0
CIRCLE
  5
2FD
  8
1
 62
     3
 10
363.7566711220494
 20
0.0000000000000284
 30
0.0
 40
6.3999999999999773
  0
CIRCLE
  5
2FE
  8
1
 62
     7
 10
363.7566711220494
 20
0.0000000000000284
 30
0.0
 40
8.0
  0
CIRCLE
  5
2FF
  8
1
 62
     3
 10
395.97492519152911
 20
-77.781745930520202
 30
0.0
 40
6.3999999999999773
  0
CIRCLE
  5
300
  8
1
 62
     7
 10
395.97492519152911
 20
-77.781745930520202
 30
0.0
 40
8.0
  0
CIRCLE
  5
301
  8
1
 62
     3
 10
473.7566711220494
 20
-110.0
 30
0.0
 40
6.3999999999999773
  0
CIRCLE
  5
302
  8
1
 62
     7
 10
473.7566711220494
 20
-110.0
 30
0.0
 40
8.0
  0
CIRCLE
  5
303
  8
1
 62
     3
 10
551.53841705256957
 20
-77.781745930520415
 30
0.0
 40
6.3999999999999773
  0
CIRCLE
  5
304
  8
1
 62
     7
 10
551.53841705256957
 20
-77.781745930520415
 30
0.0
 40
8.0
  0
CIRCLE
  5
305
  8
1
 62
     3
 10
583.75667112204951
 20
-0.0000000000000213
 30
0.0
 40
6.4000000000000901
  0
CIRCLE
  5
306
  8
1
 62
     7
 10
583.75667112204951
 20
-0.0000000000000213
 30
0.0
 40
8.0000000000001137
  0
CIRCLE
  5
307
  8
1
 62
     3
 10
551.53841705256991
 20
77.781745930520202
 30
0.0
 40
6.3999999999999773
  0
CIRCLE
  5
308
  8
1
 62
     7
 10
551.53841705256991
 20
77.781745930520202
 30
0.0
 40
8.0
  0
POLYLINE
  5
309
  8
1
 62
     7
 66
     1
 10
0.0
 20
0.0
 30
0.0
  0
VERTEX
  5
368
  8
1
 62
     7
 10
-292.98322464427991
 20
122.694245391929
 30
0.0
 42
-0.0358136882003808
  0
VERTEX
  5
369
  8
1
 62
     7
 10
-292.89660210641978
 20
122.6804749089805
 30
0.0
 42
-0.036911655843613
  0
VERTEX
  5
36A
  8
1
 62
     7
 10
-292.81395719162629
 20
122.6545272401859
 30
0.0
 42
-0.0364391557750063
  0
VERTEX
  5
36B
  8
1
 62
     7
 10
-292.73528989990012
 20
122.6164023855457
 30
0.0
 42
-0.034511008806949
  0
VERTEX
  5
36C
  8
1
 62
     7
 10
-292.66060023124061
 20
122.5661003450595
 30
0.0
  0
VERTEX
  5
36D
  8
1
 62
     7
 10
-292.62474700556112
 20
122.53638288012429
 30
0.0
  0
SEQEND
  5
36E
  8
1
 62
     7
  0
POLYLINE
  5
311
  8
1
 62
     7
 66
     1
 10
0.0
 20
0.0
 30
0.0
  0
VERTEX
  5
36F
  8
1
 62
     7
 10
-292.5788967863208
 20
123.2387922404052
 30
0.0
 42
-0.0364910798742119
  0
VERTEX
  5
370
  8
1
 62
     7
 10
-292.3702616026531
 20
123.20036934894451
 30
0.0
 42
-0.0418949121589055
  0
VERTEX
  5
371
  8
1
 62
     7
 10
-292.18328493078832
 20
123.13381207317499
 30
0.0
 42
-0.0457916035464788
  0
VERTEX
  5
372
  8
1
 62
     7
 10
-292.01796677072628
 20
123.0391204130967
 30
0.0
 42
-0.0469277297219109
  0
VERTEX
  5
373
  8
1
 62
     7
 10
-291.87430712246709
 20
122.9162943687093
 30
0.0
 42
-0.0448776961538258
  0
VERTEX
  5
374
  8
1
 62
     7
 10
-291.75230598601081
 20
122.76533394001299
 30
0.0
  0
VERTEX
  5
375
  8
1
 62
     7
 10
-291.69942735970881
 20
122.67930333154909
 30
0.0
  0
SEQEND
  5
376
  8
1
 62
     7
  0
POLYLINE
  5
31A
  8
1
 62
     7
 66
     1
 10
0.0
 20
0.0
 30
0.0
  0
VERTEX
  5
377
  8
1
 62
     7
 10
-296.06651629568472
 20
123.90544468904019
 30
0.0
 42
-0.0190570502516283
  0
VERTEX
  5
378
  8
1
 62
     7
 10
-296.17648288746102
 20
123.9333068613777
 30
0.0
 42
-0.0272792027613762
  0
VERTEX
  5
379
  8
1
 62
     7
 10
-296.26548314728598
 20
123.9651605881857
 30
0.0
 42
-0.0409696120492992
  0
VERTEX
  5
37A
  8
1
 62
     7
 10
-296.3335170751597
 20
124.00100586946429
 30
0.0
 42
-0.0635806984919554
  0
VERTEX
  5
37B
  8
1
 62
     7
 10
-296.3805846710822
 20
124.04084270521319
 30
0.0
 42
-0.0941938513137481
  0
VERTEX
  5
37C
  8
1
 62
     7
 10
-296.4066859350533
 20
124.0846710954329
 30
0.0
 42
-0.1104407157891833
  0
VERTEX
  5
37D
  8
1
 62
     7
 10
-296.41182086707312
 20
124.132491040123
 30
0.0
 42
-0.0907080386143858
  0
VERTEX
  5
37E
  8
1
 62
     7
 10
-296.39598946714182
 20
124.18430253928361
 30
0.0
 42
-0.0604330766294976
  0
VERTEX
  5
37F
  8
1
 62
     7
 10
-296.35919173525912
 20
124.2401055929146
 30
0.0
 42
-0.0390024375538284
  0
VERTEX
  5
380
  8
1
 62
     7
 10
-296.30142767142507
 20
124.2999002010162
 30
0.0
  0
SEQEND
  5
381
  8
1
 62
     7
  0
POLYLINE
  5
326
  8
1
 62
     7
 66
     1
 10
0.0
 20
0.0
 30
0.0
  0
VERTEX
  5
382
  8
1
 62
     7
 10
-293.10142767142509
 20
126.303369414378
 30
0.0
 42
-0.0327660456427006
  0
VERTEX
  5
383
  8
1
 62
     7
 10
-292.97592120057232
 20
126.35165544291731
 30
0.0
 42
-0.0337288481995653
  0
VERTEX
  5
384
  8
1
 62
     7
 10
-292.84331450829211
 20
126.38343969286839
 30
0.0
 42
-0.0364847605605167
  0
VERTEX
  5
385
  8
1
 62
     7
 10
-292.70727991684959
 20
126.3964461988454
 30
0.0
 42
-0.0408255806826535
  0
VERTEX
  5
386
  8
1
 62
     7
 10
-292.57148974851009
 20
126.38839899546269
 30
0.0
 42
-0.046278307940222
  0
VERTEX
  5
387
  8
1
 62
     7
 10
-292.43961632553902
 20
126.35702211733449
 30
0.0
 42
-0.0517624077999205
  0
VERTEX
  5
388
  8
1
 62
     7
 10
-292.31533197020133
 20
126.30003959907521
 30
0.0
 42
-0.0371620811129016
  0
VERTEX
  5
389
  8
1
 62
     7
 10
-292.26852683601908
 20
126.26813605635201
 30
0.0
 42
-0.0742314288391428
  0
VERTEX
  5
38A
  8
1
 62
     7
 10
-292.23142029926998
 20
126.22834355689641
 30
0.0
 42
-0.1133295665787911
  0
VERTEX
  5
38B
  8
1
 62
     7
 10
-292.2118056867518
 20
126.1774903240677
 30
0.0
  0
VERTEX
  5
38C
  8
1
 62
     7
 10
-292.21099326670361
 20
126.14692475243859
 30
0.0
  0
SEQEND
  5
38D
  8
1
 62
     7
  0
POLYLINE
  5
333
  8
1
 62
     7
 66
     1
 10
0.0
 20
0.0
 30
0.0
  0
VERTEX
  5
38E
  8
1
 62
     7
 10
-294.27273088558962
 20
126.77270340019621
 30
0.0
 42
-0.024134019639292
  0
VERTEX
  5
38F
  8
1
 62
     7
 10
-293.82474135470562
 20
126.93725696520021
 30
0.0
 42
-0.0260693977505534
  0
VERTEX
  5
390
  8
1
 62
     7
 10
-293.34518154424802
 20
127.06130306022391
 30
0.0
 42
-0.0298709050244908
  0
VERTEX
  5
391
  8
1
 62
     7
 10
-292.84802785640892
 20
127.1324590041778
 30
0.0
 42
-0.0355401340070584
  0
VERTEX
  5
392
  8
1
 62
     7
 10
-292.34725669338081
 20
127.1383421159732
 30
0.0
 42
-0.0429387421787038
  0
VERTEX
  5
393
  8
1
 62
     7
 10
-291.85684445735581
 20
127.0665697145209
 30
0.0
 42
-0.0512092135251465
  0
VERTEX
  5
394
  8
1
 62
     7
 10
-291.39076755052599
 20
126.904759118732
 30
0.0
 42
-0.0284053838132865
  0
VERTEX
  5
395
  8
1
 62
     7
 10
-291.07125219324359
 20
126.7203303074398
 30
0.0
 42
-0.0502763981169951
  0
VERTEX
  5
396
  8
1
 62
     7
 10
-290.89226134957607
 20
126.5666296709129
 30
0.0
 42
-0.0802254949439305
  0
VERTEX
  5
397
  8
1
 62
     7
 10
-290.76332601643162
 20
126.377839049795
 30
0.0
 42
-0.1049826840001568
  0
VERTEX
  5
398
  8
1
 62
     7
 10
-290.71099326670361
 20
126.14692475243859
 30
0.0
  0
SEQEND
  5
399
  8
1
 62
     7
  0
POLYLINE
  5
340
  8
1
 62
     7
 66
     1
 10
0.0
 20
0.0
 30
0.0
  0
VERTEX
  5
39A
  8
1
 62
     7
 10
-294.27273088558962
 20
133.8471916230819
 30
0.0
 42
-0.0542187422529956
  0
VERTEX
  5
39B
  8
1
 62
     7
 10
-293.80959402607613
 20
134.06112086403479
 30
0.0
 42
-0.0442067650035748
  0
VERTEX
  5
39C
  8
1
 62
     7
 10
-293.31219975947761
 20
134.18007959670771
 30
0.0
 42
-0.0335013741722788
  0
VERTEX
  5
39D
  8
1
 62
     7
 10
-292.79334599965142
 20
134.2217059317436
 30
0.0
 42
-0.0209252570500606
  0
VERTEX
  5
39E
  8
1
 62
     7
 10
-292.31604406214871
 20
134.2068663039386
 30
0.0
 42
-0.0307411337445226
  0
VERTEX
  5
39F
  8
1
 62
     7
 10
-291.89463747682362
 20
134.1485797926085
 30
0.0
 42
-0.0440661799628474
  0
VERTEX
  5
3A0
  8
1
 62
     7
 10
-291.49383087823003
 20
134.0301826508753
 30
0.0
 42
-0.058215768032153
  0
VERTEX
  5
3A1
  8
1
 62
     7
 10
-291.12834808069482
 20
133.83387236187031
 30
0.0
 42
-0.0479438819306911
  0
VERTEX
  5
3A2
  8
1
 62
     7
 10
-290.933322888416
 20
133.66867452451689
 30
0.0
 42
-0.0710675032249674
  0
VERTEX
  5
3A3
  8
1
 62
     7
 10
-290.78487499282829
 20
133.46537266552349
 30
0.0
 42
-0.0956798137979612
  0
VERTEX
  5
3A4
  8
1
 62
     7
 10
-290.71099326670361
 20
133.2214129753244
 30
0.0
  0
SEQEND
  5
3A5
  8
1
 62
     7
  0
POLYLINE
  5
34D
  8
1
 62
     7
 66
     1
 10
0.0
 20
0.0
 30
0.0
  0
VERTEX
  5
3A6
  8
1
 62
     7
 10
-296.53209584493959
 20
123.1912500724702
 30
0.0
 42
-0.0319905412859734
  0
VERTEX
  5
3A7
  8
1
 62
     7
 10
-296.70646201392663
 20
123.22038875198891
 30
0.0
 42
-0.0254330638709372
  0
VERTEX
  5
3A8
  8
1
 62
     7
 10
-296.89268365460981
 20
123.2731984428742
 30
0.0
 42
-0.0226002506976031
  0
VERTEX
  5
3A9
  8
1
 62
     7
 10
-297.08329838657562
 20
123.3471666670019
 30
0.0
 42
-0.022268542890103
  0
VERTEX
  5
3AA
  8
1
 62
     7
 10
-297.27084382941013
 20
123.4397809462485
 30
0.0
 42
-0.0241002710641271
  0
VERTEX
  5
3AB
  8
1
 62
     7
 10
-297.44785760270003
 20
123.54852880249
 30
0.0
 42
-0.02835588368196
  0
VERTEX
  5
3AC
  8
1
 62
     7
 10
-297.60687732603151
 20
123.6708977576027
 30
0.0
 42
-0.0358543011437782
  0
VERTEX
  5
3AD
  8
1
 62
     7
 10
-297.74044061899082
 20
123.8043753334624
 30
0.0
 42
-0.0478951698376261
  0
VERTEX
  5
3AE
  8
1
 62
     7
 10
-297.84108510116448
 20
123.94644905194539
 30
0.0
 42
-0.0652354211377987
  0
VERTEX
  5
3AF
  8
1
 62
     7
 10
-297.9013483921388
 20
124.094606434928
 30
0.0
 42
-0.0839621391646818
  0
VERTEX
  5
3B0
  8
1
 62
     7
 10
-297.91376811150002
 20
124.2463350042861
 30
0.0
 42
-0.0912717759338182
  0
VERTEX
  5
3B1
  8
1
 62
     7
 10
-297.87088187883461
 20
124.399122281896
 30
0.0
 42
-0.0794135208423941
  0
VERTEX
  5
3B2
  8
1
 62
     7
 10
-297.76522731372881
 20
124.5504557896337
 30
0.0
 42
-0.059400215545797
  0
VERTEX
  5
3B3
  8
1
 62
     7
 10
-297.58934203576899
 20
124.6978230493755
 30
0.0
  0
VERTEX
  5
3B4
  8
1
 62
     7
 10
-297.47273088558961
 20
124.7692341868342
 30
0.0
  0
SEQEND
  5
3B5
  8
1
 62
     7
  0
ARC
  5
35E
  8
1
 62
     7
 10
-296.91096657377062
 20
131.0156115426829
 30
0.0
 40
0.9999999999999381
 50
122.0500291495869
 51
180.0
  0
TEXT
  5
360
  8
1
 62
     7
 10
-748.45911469350631
 20
376.38708507461467
 30
0.0
 40
20.0
  1
MMC 200
 41
0.9
  7
SIMPLEX
  0
ENDSEC
  0
EOF
