  0
SECTION
  2
HEADER
  9
$ACADVER
  1
AC1009
  9
$INSBASE
 10
0.0
 20
0.0
 30
0.0
  9
$EXTMIN
 10
-1465.0092861186581
 20
-700.34712932046023
 30
0.0
  9
$EXTMAX
 10
-841.3775765706539
 20
-477.05109966452591
 30
0.0
  9
$LIMMIN
 10
-1465.0092861186581
 20
-700.34712932046023
  9
$LIMMAX
 10
-841.37757657065367
 20
-477.05109966452591
  9
$ORTHOMODE
 70
     0
  9
$REGENMODE
 70
     1
  9
$FILLMODE
 70
     1
  9
$QTEXTMODE
 70
     0
  9
$MIRRTEXT
 70
     1
  9
$DRAGMODE
 70
     2
  9
$LTSCALE
 40
1.0
  9
$OSMODE
 70
    37
  9
$ATTMODE
 70
     1
  9
$TEXTSIZE
 40
3.5
  9
$TRACEWID
 40
0.5
  9
$TEXTSTYLE
  7
STANDARD
  9
$CLAYER
  8
0
  9
$CELTYPE
  6
BYLAYER
  9
$CECOLOR
 62
   256
  9
$DIMSCALE
 40
1.0
  9
$DIMASZ
 40
0.18
  9
$DIMEXO
 40
0.0625
  9
$DIMDLI
 40
0.38
  9
$DIMRND
 40
0.0
  9
$DIMDLE
 40
0.0
  9
$DIMEXE
 40
0.18
  9
$DIMTP
 40
0.0
  9
$DIMTM
 40
0.0
  9
$DIMTXT
 40
0.18
  9
$DIMCEN
 40
0.09
  9
$DIMTSZ
 40
0.0
  9
$DIMTOL
 70
     0
  9
$DIMLIM
 70
     0
  9
$DIMTIH
 70
     1
  9
$DIMTOH
 70
     1
  9
$DIMSE1
 70
     0
  9
$DIMSE2
 70
     0
  9
$DIMTAD
 70
     0
  9
$DIMZIN
 70
     0
  9
$DIMBLK
  1

  9
$DIMASO
 70
     1
  9
$DIMSHO
 70
     1
  9
$DIMPOST
  1

  9
$DIMAPOST
  1

  9
$DIMALT
 70
     0
  9
$DIMALTD
 70
     2
  9
$DIMALTF
 40
25.399999999999999
  9
$DIMLFAC
 40
1.0
  9
$DIMTOFL
 70
     0
  9
$DIMTVP
 40
0.0
  9
$DIMTIX
 70
     0
  9
$DIMSOXD
 70
     0
  9
$DIMSAH
 70
     0
  9
$DIMBLK1
  1

  9
$DIMBLK2
  1

  9
$DIMSTYLE
  2
STANDARD
  9
$DIMCLRD
 70
     0
  9
$DIMCLRE
 70
     0
  9
$DIMCLRT
 70
     0
  9
$DIMTFAC
 40
1.0
  9
$DIMGAP
 40
0.09
  9
$LUNITS
 70
     2
  9
$LUPREC
 70
     4
  9
$SKETCHINC
 40
0.1
  9
$FILLETRAD
 40
2.0
  9
$AUNITS
 70
     0
  9
$AUPREC
 70
     0
  9
$MENU
  1
ACAD
  9
$ELEVATION
 40
0.0
  9
$PELEVATION
 40
0.0
  9
$THICKNESS
 40
0.0
  9
$LIMCHECK
 70
     0
  9
$BLIPMODE
 70
     0
  9
$CHAMFERA
 40
0.0
  9
$CHAMFERB
 40
0.0
  9
$SKPOLY
 70
     0
  9
$TDCREATE
 40
2452094.8889061338
  9
$TDUPDATE
 40
2452094.8908628472
  9
$TDINDWG
 40
0.0019967593
  9
$TDUSRTIMER
 40
0.0019967593
  9
$USRTIMER
 70
     1
  9
$ANGBASE
 50
0.0
  9
$ANGDIR
 70
     0
  9
$PDMODE
 70
     0
  9
$PDSIZE
 40
0.0
  9
$PLINEWID
 40
0.0
  9
$COORDS
 70
     1
  9
$SPLFRAME
 70
     0
  9
$SPLINETYPE
 70
     6
  9
$SPLINESEGS
 70
     8
  9
$ATTDIA
 70
     0
  9
$ATTREQ
 70
     1
  9
$HANDLING
 70
 10241
  9
$HANDSEED
  5
650
  9
$SURFTAB1
 70
     6
  9
$SURFTAB2
 70
     6
  9
$SURFTYPE
 70
     6
  9
$SURFU
 70
     6
  9
$SURFV
 70
     6
  9
$UCSNAME
  2

  9
$UCSORG
 10
0.0
 20
0.0
 30
0.0
  9
$UCSXDIR
 10
1.0
 20
0.0
 30
0.0
  9
$UCSYDIR
 10
0.0
 20
1.0
 30
0.0
  9
$PUCSNAME
  2

  9
$PUCSORG
 10
0.0
 20
0.0
 30
0.0
  9
$PUCSXDIR
 10
1.0
 20
0.0
 30
0.0
  9
$PUCSYDIR
 10
0.0
 20
1.0
 30
0.0
  9
$USERI1
 70
     0
  9
$USERI2
 70
     0
  9
$USERI3
 70
     0
  9
$USERI4
 70
     0
  9
$USERI5
 70
     0
  9
$USERR1
 40
0.0
  9
$USERR2
 40
0.0
  9
$USERR3
 40
0.0
  9
$USERR4
 40
0.0
  9
$USERR5
 40
0.0
  9
$WORLDVIEW
 70
     1
  9
$SHADEDGE
 70
     3
  9
$SHADEDIF
 70
    70
  9
$TILEMODE
 70
     1
  9
$MAXACTVP
 70
    64
  9
$PLIMCHECK
 70
     0
  9
$PEXTMIN
 10
1.0000000000000000E+020
 20
1.0000000000000000E+020
 30
1.0000000000000000E+020
  9
$PEXTMAX
 10
-1.0000000000000000E+020
 20
-1.0000000000000000E+020
 30
-1.0000000000000000E+020
  9
$PLIMMIN
 10
0.0
 20
0.0
  9
$PLIMMAX
 10
12.0
 20
9.0
  9
$UNITMODE
 70
     0
  9
$VISRETAIN
 70
     1
  9
$PLINEGEN
 70
     0
  9
$PSLTSCALE
 70
     1
  0
ENDSEC
  0
SECTION
  2
TABLES
  0
TABLE
  2
VPORT
 70
     2
  0
VPORT
  2
*ACTIVE
 70
     0
 10
0.0
 20
0.0
 11
1.0
 21
1.0
 12
-1391.9015798978271
 22
-494.9826669242301
 13
0.0
 23
0.0
 14
1.0
 24
1.0
 15
0.0
 25
0.0
 16
0.0
 26
0.0
 36
1.0
 17
0.0
 27
0.0
 37
0.0
 40
8.9999990131602772
 41
2.4144144144144142
 42
50.0
 43
0.0
 44
0.0
 50
0.0
 51
0.0
 71
     0
 72
   100
 73
     1
 74
     1
 75
     0
 76
     0
 77
     0
 78
     0
  0
ENDTAB
  0
TABLE
  2
LTYPE
 70
     9
  0
LTYPE
  2
CONTINUOUS
 70
     0
  3
Solid line
 72
    65
 73
     0
 40
0.0
  0
LTYPE
  2
BORDER
 70
     0
  3
__ __ . __ __ .
 72
    65
 73
     6
 40
28.719881360763349
 49
8.2056803887895295
 49
-4.1028401943947639
 49
8.2056803887895295
 49
-4.1028401943947639
 49
0.0
 49
-4.1028401943947639
  0
LTYPE
  2
CENTER
 70
     0
  3
____ _ ____ _
 72
    65
 73
     4
 40
32.822721555158118
 49
20.514200971973821
 49
-4.1028401943947639
 49
4.1028401943947639
 49
-4.1028401943947639
  0
LTYPE
  2
DASHDOT
 70
     0
  3
__ . __ . __ .
 72
    65
 73
     4
 40
16.411360777579059
 49
8.2056803887895295
 49
-4.1028401943947639
 49
0.0
 49
-4.1028401943947639
  0
LTYPE
  2
DASHED
 70
     0
  3
__ __ __ __ __
 72
    65
 73
     2
 40
12.30852058318429
 49
8.2056803887895295
 49
-4.1028401943947639
  0
LTYPE
  2
DIVIDE
 70
     0
  3
__ . . __ . . 
 72
    65
 73
     6
 40
20.514200971973821
 49
8.2056803887895295
 49
-4.1028401943947639
 49
0.0
 49
-4.1028401943947639
 49
0.0
 49
-4.1028401943947639
  0
LTYPE
  2
DOT
 70
     0
  3
..............
 72
    65
 73
     4
 40
8.2056803887895295
 49
0.0
 49
-4.1028401943947639
 49
0.0
 49
-4.1028401943947639
  0
LTYPE
  2
HIDDEN
 70
     0
  3
_ _ _ _ _ _ _
 72
    65
 73
     2
 40
6.1542602915921467
 49
4.1028401943947639
 49
-2.0514200971973811
  0
LTYPE
  2
PHANTOM
 70
     0
  3
_____ _ _ _____ _ _ 
 72
    65
 73
     6
 40
41.028401943947642
 49
20.514200971973821
 49
-4.1028401943947639
 49
4.1028401943947639
 49
-4.1028401943947639
 49
4.1028401943947639
 49
-4.1028401943947639
  0
ENDTAB
  0
TABLE
  2
LAYER
 70
     2
  0
LAYER
  2
0
 70
     0
 62
     7
  6
CONTINUOUS
  0
LAYER
  2
1
 70
     0
 62
     7
  6
CONTINUOUS
  0
ENDTAB
  0
TABLE
  2
STYLE
 70
     4
  0
STYLE
  2
STANDARD
 70
     0
 40
0.0
 41
1.0
 50
0.0
 71
     0
 42
3.5
  3
txt
  4

  0
STYLE
  2
SIMPLEX
 70
     0
 40
0.0
 41
1.0
 50
0.0
 71
     0
 42
3.5
  3
simplex
  4

  0
STYLE
  2
COMPLEX
 70
     0
 40
0.0
 41
1.0
 50
0.0
 71
     0
 42
3.5
  3
complex
  4

  0
STYLE
  2
ITALIC
 70
     0
 40
0.0
 41
1.0
 50
0.0
 71
     0
 42
3.5
  3
italic
  4

  0
ENDTAB
  0
TABLE
  2
VIEW
 70
     0
  0
ENDTAB
  0
TABLE
  2
UCS
 70
     0
  0
ENDTAB
  0
TABLE
  2
APPID
 70
     1
  0
APPID
  2
ACAD
 70
     0
  0
ENDTAB
  0
TABLE
  2
DIMSTYLE
 70
     1
  0
DIMSTYLE
  2
STANDARD
 70
     0
  3

  4

  5

  6

  7

 40
1.0
 41
0.18
 42
0.0625
 43
0.38
 44
0.18
 45
0.0
 46
0.0
 47
0.0
 48
0.0
140
0.18
141
0.09
142
0.0
143
25.399999999999999
144
1.0
145
0.0
146
1.0
147
0.09
 71
     0
 72
     0
 73
     1
 74
     1
 75
     0
 76
     0
 77
     0
 78
     0
170
     0
171
     2
172
     0
173
     0
174
     0
175
     0
176
     0
177
     0
178
     0
  0
ENDTAB
  0
ENDSEC
  0
SECTION
  2
BLOCKS
  0
BLOCK
  8
0
  2
$MODEL_SPACE
 70
     0
 10
0.0
 20
0.0
 30
0.0
  3
$MODEL_SPACE
  1

  0
ENDBLK
  5
20
  8
0
  0
BLOCK
 67
     1
  8
0
  2
$PAPER_SPACE
 70
     0
 10
0.0
 20
0.0
 30
0.0
  3
$PAPER_SPACE
  1

  0
ENDBLK
  5
1C
 67
     1
  8
0
  0
ENDSEC
  0
SECTION
  2
ENTITIES
  0
POLYLINE
  5
33
  8
1
 62
     2
 66
     1
 10
0.0
 20
0.0
 30
0.0
  0
VERTEX
  5
46C
  8
1
 62
     2
 10
-1080.6267717809719
 20
-543.43037021337443
 30
0.0
 42
-0.0013085085598894
  0
VERTEX
  5
46D
  8
1
 62
     2
 10
-1080.5562437782589
 20
-543.36941434256175
 30
0.0
 42
-0.0039762516524541
  0
VERTEX
  5
46E
  8
1
 62
     2
 10
-1080.485757067501
 20
-543.30978393758778
 30
0.0
 42
-0.0069028550045008
  0
VERTEX
  5
46F
  8
1
 62
     2
 10
-1080.4153529406481
 20
-543.2528044642911
 30
0.0
 42
-0.0102152131391763
  0
VERTEX
  5
470
  8
1
 62
     2
 10
-1080.345072689656
 20
-543.19980138851065
 30
0.0
 42
-0.0141673020205878
  0
VERTEX
  5
471
  8
1
 62
     2
 10
-1080.274957606475
 20
-543.15210017608513
 30
0.0
 42
-0.0189337018920118
  0
VERTEX
  5
472
  8
1
 62
     2
 10
-1080.2050489830631
 20
-543.1110262928529
 30
0.0
 42
-0.0247635221756867
  0
VERTEX
  5
473
  8
1
 62
     2
 10
-1080.1353881113721
 20
-543.07790520465335
 30
0.0
 42
-0.0316407066831625
  0
VERTEX
  5
474
  8
1
 62
     2
 10
-1080.0660162833531
 20
-543.05406237732461
 30
0.0
 42
-0.0391858542309306
  0
VERTEX
  5
475
  8
1
 62
     2
 10
-1079.9969747909611
 20
-543.04082327670551
 30
0.0
 42
-0.0460581165873052
  0
VERTEX
  5
476
  8
1
 62
     2
 10
-1079.9283049261501
 20
-543.03951336863486
 30
0.0
 42
-0.0750838782527235
  0
VERTEX
  5
477
  8
1
 62
     2
 10
-1079.814304564741
 20
-543.06534917523948
 30
0.0
 42
-0.0417924514920299
  0
VERTEX
  5
478
  8
1
 62
     2
 10
-1079.70116697205
 20
-543.12088086917674
 30
0.0
 42
-0.0325936569020869
  0
VERTEX
  5
479
  8
1
 62
     2
 10
-1079.5885996188331
 20
-543.19871943733983
 30
0.0
 42
-0.0101353808052296
  0
VERTEX
  5
47A
  8
1
 62
     2
 10
-1079.476309975845
 20
-543.29147586662145
 30
0.0
 42
-0.0091147591236899
  0
VERTEX
  5
47B
  8
1
 62
     2
 10
-1079.3640055138451
 20
-543.39176114391455
 30
0.0
 42
0.0048959518997364
  0
VERTEX
  5
47C
  8
1
 62
     2
 10
-1079.251393703589
 20
-543.49218625611218
 30
0.0
 42
0.0149215300701988
  0
VERTEX
  5
47D
  8
1
 62
     2
 10
-1079.1381820158331
 20
-543.58536219010705
 30
0.0
 42
0.0279835721954215
  0
VERTEX
  5
47E
  8
1
 62
     2
 10
-1079.024077921335
 20
-543.66389993279245
 30
0.0
 42
0.0455961968997441
  0
VERTEX
  5
47F
  8
1
 62
     2
 10
-1078.9087888908521
 20
-543.7204104710612
 30
0.0
 42
0.0684139712961448
  0
VERTEX
  5
480
  8
1
 62
     2
 10
-1078.7920223951401
 20
-543.74750479180602
 30
0.0
 42
0.0451713958150734
  0
VERTEX
  5
481
  8
1
 62
     2
 10
-1078.727025921077
 20
-543.74757674967861
 30
0.0
 42
0.0309402163593966
  0
VERTEX
  5
482
  8
1
 62
     2
 10
-1078.6615467352181
 20
-543.73761120785139
 30
0.0
 42
0.0331125785150202
  0
VERTEX
  5
483
  8
1
 62
     2
 10
-1078.5956384722069
 20
-543.71872344406904
 30
0.0
 42
0.0187839482321973
  0
VERTEX
  5
484
  8
1
 62
     2
 10
-1078.529354766689
 20
-543.69202873607583
 30
0.0
 42
0.022117020743162
  0
VERTEX
  5
485
  8
1
 62
     2
 10
-1078.462749253307
 20
-543.65864236161599
 30
0.0
 42
0.0093367181221065
  0
VERTEX
  5
486
  8
1
 62
     2
 10
-1078.395875566704
 20
-543.61967959843423
 30
0.0
 42
0.0141140552617878
  0
VERTEX
  5
487
  8
1
 62
     2
 10
-1078.328787341525
 20
-543.57625572427457
 30
0.0
 42
0.0025011281554923
  0
VERTEX
  5
488
  8
1
 62
     2
 10
-1078.2615382124141
 20
-543.52948601688195
 30
0.0
 42
0.0081247637666714
  0
VERTEX
  5
489
  8
1
 62
     2
 10
-1078.1941818140151
 20
-543.48048575400037
 30
0.0
 42
0.0012843032379029
  0
VERTEX
  5
48A
  8
1
 62
     2
 10
-1078.1267717809731
 20
-543.43037021337443
 30
0.0
  0
SEQEND
  5
48B
  8
1
 62
     2
  0
POLYLINE
  5
54
  8
1
 62
     2
 66
     1
 10
0.0
 20
0.0
 30
0.0
  0
VERTEX
  5
48C
  8
1
 62
     2
 10
-929.27908884744795
 20
-557.10189483847398
 30
0.0
 42
0.0011834524374686
  0
VERTEX
  5
48D
  8
1
 62
     2
 10
-929.39025234925396
 20
-557.05385312318651
 30
0.0
 42
0.0035853802093069
  0
VERTEX
  5
48E
  8
1
 62
     2
 10
-929.50105122129935
 20
-557.00721801247619
 30
0.0
 42
0.0061644027475876
  0
VERTEX
  5
48F
  8
1
 62
     2
 10
-929.61112083382329
 20
-556.96339611092105
 30
0.0
 42
0.0089997381049926
  0
VERTEX
  5
490
  8
1
 62
     2
 10
-929.72009655706518
 20
-556.92379402309825
 30
0.0
 42
0.0122473549594025
  0
VERTEX
  5
491
  8
1
 62
     2
 10
-929.82761376126496
 20
-556.88981835358516
 30
0.0
 42
0.0159927392499652
  0
VERTEX
  5
492
  8
1
 62
     2
 10
-929.93330781666168
 20
-556.86287570695936
 30
0.0
 42
0.0203625448589578
  0
VERTEX
  5
493
  8
1
 62
     2
 10
-930.0368140934944
 20
-556.84437268779834
 30
0.0
 42
0.0253222473397222
  0
VERTEX
  5
494
  8
1
 62
     2
 10
-930.13776796200307
 20
-556.83571590067947
 30
0.0
 42
0.0307002224253855
  0
VERTEX
  5
495
  8
1
 62
     2
 10
-930.23580479242673
 20
-556.83831195018035
 30
0.0
 42
0.0359023588859352
  0
VERTEX
  5
496
  8
1
 62
     2
 10
-930.33055995500524
 20
-556.85356744087835
 30
0.0
 42
0.0402944702323286
  0
VERTEX
  5
497
  8
1
 62
     2
 10
-930.42896429936206
 20
-556.88530060393168
 30
0.0
 42
0.0315389974369699
  0
VERTEX
  5
498
  8
1
 62
     2
 10
-930.52364661895831
 20
-556.93168734180904
 30
0.0
 42
0.0281754647833242
  0
VERTEX
  5
499
  8
1
 62
     2
 10
-930.61513881559085
 20
-556.99097117942881
 30
0.0
 42
0.0195193053263542
  0
VERTEX
  5
49A
  8
1
 62
     2
 10
-930.70397279105748
 20
-557.06139564170917
 30
0.0
 42
0.0173231363743793
  0
VERTEX
  5
49B
  8
1
 62
     2
 10
-930.79068044715564
 20
-557.14120425356816
 30
0.0
 42
0.010114058918434
  0
VERTEX
  5
49C
  8
1
 62
     2
 10
-930.87579368568242
 20
-557.22864053992396
 30
0.0
 42
0.0092279930971907
  0
VERTEX
  5
49D
  8
1
 62
     2
 10
-930.95984440843563
 20
-557.32194802569495
 30
0.0
 42
0.003040213160245
  0
VERTEX
  5
49E
  8
1
 62
     2
 10
-931.04336451721235
 20
-557.41937023579897
 30
0.0
 42
0.0028540355581616
  0
VERTEX
  5
49F
  8
1
 62
     2
 10
-931.12688591381038
 20
-557.51915069515439
 30
0.0
 42
-0.0015088520761102
  0
VERTEX
  5
4A0
  8
1
 62
     2
 10
-931.21094050002625
 20
-557.61953292867906
 30
0.0
 42
-0.0043032753759804
  0
VERTEX
  5
4A1
  8
1
 62
     2
 10
-931.30016635443667
 20
-557.72360885750425
 30
0.0
 42
-0.0062137867104587
  0
VERTEX
  5
4A2
  8
1
 62
     2
 10
-931.39077088451575
 20
-557.82490132912528
 30
0.0
 42
-0.0089107937778032
  0
VERTEX
  5
4A3
  8
1
 62
     2
 10
-931.48296161648364
 20
-557.92189656827725
 30
0.0
 42
-0.0113457567501599
  0
VERTEX
  5
4A4
  8
1
 62
     2
 10
-931.57694607656219
 20
-558.01308079969556
 30
0.0
 42
-0.0147572082085227
  0
VERTEX
  5
4A5
  8
1
 62
     2
 10
-931.67293179097305
 20
-558.09694024811597
 30
0.0
 42
-0.0180813091345351
  0
VERTEX
  5
4A6
  8
1
 62
     2
 10
-931.77112628593761
 20
-558.17196113827356
 30
0.0
 42
-0.0224917150279539
  0
VERTEX
  5
4A7
  8
1
 62
     2
 10
-931.87173708767659
 20
-558.23662969490385
 30
0.0
 42
-0.0267580063030335
  0
VERTEX
  5
4A8
  8
1
 62
     2
 10
-931.97497172241162
 20
-558.28943214274204
 30
0.0
 42
-0.0317254689165934
  0
VERTEX
  5
4A9
  8
1
 62
     2
 10
-932.08103771636399
 20
-558.32885470652377
 30
0.0
 42
-0.0646358549664608
  0
VERTEX
  5
4AA
  8
1
 62
     2
 10
-932.27951099807433
 20
-558.36156365973068
 30
0.0
 42
-0.0238714263193983
  0
VERTEX
  5
4AB
  8
1
 62
     2
 10
-932.37074146987732
 20
-558.36033276912235
 30
0.0
 42
-0.0208637105577184
  0
VERTEX
  5
4AC
  8
1
 62
     2
 10
-932.46362711455458
 20
-558.35073659908767
 30
0.0
 42
-0.0163837952585757
  0
VERTEX
  5
4AD
  8
1
 62
     2
 10
-932.55796103549778
 20
-558.33382080955505
 30
0.0
 42
-0.0139190159329062
  0
VERTEX
  5
4AE
  8
1
 62
     2
 10
-932.65353633609675
 20
-558.31063106045258
 30
0.0
 42
-0.0101074958726325
  0
VERTEX
  5
4AF
  8
1
 62
     2
 10
-932.75014611974245
 20
-558.28221301170868
 30
0.0
 42
-0.008287588053612
  0
VERTEX
  5
4B0
  8
1
 62
     2
 10
-932.84758348982518
 20
-558.24961232325165
 30
0.0
 42
-0.005022698984721
  0
VERTEX
  5
4B1
  8
1
 62
     2
 10
-932.94564154973591
 20
-558.21387465500959
 30
0.0
 42
-0.0036195243168239
  0
VERTEX
  5
4B2
  8
1
 62
     2
 10
-933.04411340286572
 20
-558.17604566691102
 30
0.0
 42
-0.0006324540247944
  0
VERTEX
  5
4B3
  8
1
 62
     2
 10
-933.14279215260422
 20
-558.13717101888415
 30
0.0
  0
SEQEND
  5
4B4
  8
1
 62
     2
  0
POLYLINE
  5
7E
  8
1
 62
     7
 66
     1
 10
0.0
 20
0.0
 30
0.0
  0
VERTEX
  5
4B5
  8
1
 62
     7
 10
-1216.313536741244
 20
-593.07471246197542
 30
0.0
 42
0.0169524690365748
  0
VERTEX
  5
4B6
  8
1
 62
     7
 10
-1216.313819673541
 20
-593.06639827612605
 30
0.0
 42
0.0162411731259544
  0
VERTEX
  5
4B7
  8
1
 62
     7
 10
-1216.314655389441
 20
-593.05810224371078
 30
0.0
 42
0.0237373584872552
  0
VERTEX
  5
4B8
  8
1
 62
     7
 10
-1216.316902510531
 20
-593.04577738835656
 30
0.0
 42
0.0308295231933082
  0
VERTEX
  5
4B9
  8
1
 62
     7
 10
-1216.321756642428
 20
-593.02947810171031
 30
0.0
 42
0.0153482276148588
  0
VERTEX
  5
4BA
  8
1
 62
     7
 10
-1216.3250942750601
 20
-593.02116479676044
 30
0.0
 42
0.0143415234833954
  0
VERTEX
  5
4BB
  8
1
 62
     7
 10
-1216.328918446427
 20
-593.01306608911887
 30
0.0
 42
0.0135066005879529
  0
VERTEX
  5
4BC
  8
1
 62
     7
 10
-1216.3331883703131
 20
-593.00519118984801
 30
0.0
 42
0.0125756470333842
  0
VERTEX
  5
4BD
  8
1
 62
     7
 10
-1216.3378632605029
 20
-592.99754931001041
 30
0.0
 42
0.0125494003618538
  0
VERTEX
  5
4BE
  8
1
 62
     7
 10
-1216.3432149871551
 20
-592.98971426183709
 30
0.0
 42
0.0123534933714214
  0
VERTEX
  5
4BF
  8
1
 62
     7
 10
-1216.349269802226
 20
-592.981734020315
 30
0.0
 42
0.0115663989892298
  0
VERTEX
  5
4C0
  8
1
 62
     7
 10
-1216.3556993056741
 20
-592.97405243787421
 30
0.0
 42
0.0106771897596367
  0
VERTEX
  5
4C1
  8
1
 62
     7
 10
-1216.362465947072
 20
-592.96666231105246
 30
0.0
 42
0.0099313541432755
  0
VERTEX
  5
4C2
  8
1
 62
     7
 10
-1216.369532175984
 20
-592.95955643638638
 30
0.0
 42
0.0096973349337173
  0
VERTEX
  5
4C3
  8
1
 62
     7
 10
-1216.3773442483159
 20
-592.95229419711291
 30
0.0
 42
0.0097161293584751
  0
VERTEX
  5
4C4
  8
1
 62
     7
 10
-1216.3859200397831
 20
-592.94492136172482
 30
0.0
 42
0.0090193526088681
  0
VERTEX
  5
4C5
  8
1
 62
     7
 10
-1216.3947650793041
 20
-592.93787569837821
 30
0.0
 42
0.0084565794737137
  0
VERTEX
  5
4C6
  8
1
 62
     7
 10
-1216.4038519088069
 20
-592.93114268480929
 30
0.0
 42
0.0038720417366857
  0
VERTEX
  5
4C7
  8
1
 62
     7
 10
-1216.4084774141529
 20
-592.92788888348446
 30
0.0
 42
0.0039379387435281
  0
VERTEX
  5
4C8
  8
1
 62
     7
 10
-1216.413153070218
 20
-592.92470779875521
 30
0.0
 42
0.0035696045722608
  0
VERTEX
  5
4C9
  8
1
 62
     7
 10
-1216.4178754447421
 20
-592.9215976153389
 30
0.0
 42
0.008002300076822
  0
VERTEX
  5
4CA
  8
1
 62
     7
 10
-1216.4285940423799
 20
-592.91488867255475
 30
0.0
 42
0.0072557882941211
  0
VERTEX
  5
4CB
  8
1
 62
     7
 10
-1216.4395106170739
 20
-592.90851089638045
 30
0.0
 42
0.0071359697290831
  0
VERTEX
  5
4CC
  8
1
 62
     7
 10
-1216.4506065444659
 20
-592.90244975128815
 30
0.0
 42
0.0063965147885808
  0
VERTEX
  5
4CD
  8
1
 62
     7
 10
-1216.4618632001921
 20
-592.89669070175114
 30
0.0
 42
0.0032218085197512
  0
VERTEX
  5
4CE
  8
1
 62
     7
 10
-1216.467545981068
 20
-592.89391992046319
 30
0.0
 42
0.006170117667372
  0
VERTEX
  5
4CF
  8
1
 62
     7
 10
-1216.479576907818
 20
-592.88833114473061
 30
0.0
 42
0.006269285035057
  0
VERTEX
  5
4D0
  8
1
 62
     7
 10
-1216.492312332821
 20
-592.88279599143232
 30
0.0
 42
0.0058760164531003
  0
VERTEX
  5
4D1
  8
1
 62
     7
 10
-1216.5051780797389
 20
-592.87757193347477
 30
0.0
 42
0.005691334911651
  0
VERTEX
  5
4D2
  8
1
 62
     7
 10
-1216.5181616882221
 20
-592.87264671450862
 30
0.0
 42
0.0053034911816258
  0
VERTEX
  5
4D3
  8
1
 62
     7
 10
-1216.5312506979219
 20
-592.86800807818531
 30
0.0
 42
0.0053229824702946
  0
VERTEX
  5
4D4
  8
1
 62
     7
 10
-1216.5449362821651
 20
-592.86348300790553
 30
0.0
 42
0.0052208482274008
  0
VERTEX
  5
4D5
  8
1
 62
     7
 10
-1216.5592182400351
 20
-592.85909258124275
 30
0.0
 42
0.00513643954726
  0
VERTEX
  5
4D6
  8
1
 62
     7
 10
-1216.573587863307
 20
-592.85499897695024
 30
0.0
 42
0.0048473155899999
  0
VERTEX
  5
4D7
  8
1
 62
     7
 10
-1216.588036650809
 20
-592.85119301493285
 30
0.0
 42
0.0047665216786891
  0
VERTEX
  5
4D8
  8
1
 62
     7
 10
-1216.6025561013689
 20
-592.84766551509597
 30
0.0
 42
0.0046065071232549
  0
VERTEX
  5
4D9
  8
1
 62
     7
 10
-1216.617530482677
 20
-592.84432345389951
 30
0.0
 42
0.0070276225118806
  0
VERTEX
  5
4DA
  8
1
 62
     7
 10
-1216.6406917487921
 20
-592.83971713865469
 30
0.0
 42
0.0066239578695505
  0
VERTEX
  5
4DB
  8
1
 62
     7
 10
-1216.6639702223699
 20
-592.83574481213873
 30
0.0
 42
0.0065262651723443
  0
VERTEX
  5
4DC
  8
1
 62
     7
 10
-1216.6873452950449
 20
-592.83238598703974
 30
0.0
 42
0.0106565390778129
  0
VERTEX
  5
4DD
  8
1
 62
     7
 10
-1216.727726002702
 20
-592.82799349040658
 30
0.0
 42
0.0104370093400069
  0
VERTEX
  5
4DE
  8
1
 62
     7
 10
-1216.768256214033
 20
-592.82530786587563
 30
0.0
 42
0.0514510882976017
  0
VERTEX
  5
4DF
  8
1
 62
     7
 10
-1216.970648936021
 20
-592.83696219212322
 30
0.0
 42
0.0087447513294499
  0
VERTEX
  5
4E0
  8
1
 62
     7
 10
-1216.9939891485969
 20
-592.84115684887172
 30
0.0
 42
0.0049918387963351
  0
VERTEX
  5
4E1
  8
1
 62
     7
 10
-1217.016827660148
 20
-592.84591241900523
 30
0.0
 42
0.006628304289784
  0
VERTEX
  5
4E2
  8
1
 62
     7
 10
-1217.0314739850221
 20
-592.84931909398404
 30
0.0
 42
0.0028753528433794
  0
VERTEX
  5
4E3
  8
1
 62
     7
 10
-1217.046052675051
 20
-592.85300345988014
 30
0.0
 42
0.0069794390056534
  0
VERTEX
  5
4E4
  8
1
 62
     7
 10
-1217.060555351798
 20
-592.85697427188416
 30
0.0
 42
0.0032303927051432
  0
VERTEX
  5
4E5
  8
1
 62
     7
 10
-1217.074973636825
 20
-592.86124028518736
 30
0.0
 42
0.0071564135908728
  0
VERTEX
  5
4E6
  8
1
 62
     7
 10
-1217.088808324824
 20
-592.86564815677343
 30
0.0
 42
0.0033121102205461
  0
VERTEX
  5
4E7
  8
1
 62
     7
 10
-1217.1020592104589
 20
-592.87017771402429
 30
0.0
 42
0.0075139564767564
  0
VERTEX
  5
4E8
  8
1
 62
     7
 10
-1217.115208998782
 20
-592.87499312018133
 30
0.0
 42
0.0038632807785971
  0
VERTEX
  5
4E9
  8
1
 62
     7
 10
-1217.1282463500449
 20
-592.88010667336994
 30
0.0
 42
0.0080684781176486
  0
VERTEX
  5
4EA
  8
1
 62
     7
 10
-1217.141159924503
 20
-592.88553067171642
 30
0.0
 42
0.0041431381954801
  0
VERTEX
  5
4EB
  8
1
 62
     7
 10
-1217.153380006449
 20
-592.8910181987369
 30
0.0
 42
0.0081810131701244
  0
VERTEX
  5
4EC
  8
1
 62
     7
 10
-1217.164908711927
 20
-592.8965406096429
 30
0.0
 42
0.0046610887019932
  0
VERTEX
  5
4ED
  8
1
 62
     7
 10
-1217.176290434797
 20
-592.90235657254971
 30
0.0
 42
0.0090034669281293
  0
VERTEX
  5
4EE
  8
1
 62
     7
 10
-1217.1875052821681
 20
-592.90847934920441
 30
0.0
 42
0.0055003466849959
  0
VERTEX
  5
4EF
  8
1
 62
     7
 10
-1217.198533361149
 20
-592.91492220135433
 30
0.0
 42
0.0059097360772969
  0
VERTEX
  5
4F0
  8
1
 62
     7
 10
-1217.2039711459649
 20
-592.91826780003612
 30
0.0
  0
SEQEND
  5
4F1
  8
1
 62
     7
  0
POLYLINE
  5
BC
  8
1
 62
     7
 66
     1
 10
0.0
 20
0.0
 30
0.0
  0
VERTEX
  5
4F2
  8
1
 62
     7
 10
-1214.813536741244
 20
-593.07471246197542
 30
0.0
 42
0.0169524690277262
  0
VERTEX
  5
4F3
  8
1
 62
     7
 10
-1214.814668470437
 20
-593.04145571857771
 30
0.0
 42
0.0162411731383867
  0
VERTEX
  5
4F4
  8
1
 62
     7
 10
-1214.8180113340361
 20
-593.00827158891695
 30
0.0
 42
0.0237373584662607
  0
VERTEX
  5
4F5
  8
1
 62
     7
 10
-1214.8269998183921
 20
-592.95897216749995
 30
0.0
 42
0.0308295232117978
  0
VERTEX
  5
4F6
  8
1
 62
     7
 10
-1214.8464163459821
 20
-592.8937750209152
 30
0.0
 42
0.0153482276065601
  0
VERTEX
  5
4F7
  8
1
 62
     7
 10
-1214.8597668765119
 20
-592.86052180111551
 30
0.0
 42
0.0143415234747209
  0
VERTEX
  5
4F8
  8
1
 62
     7
 10
-1214.875063561977
 20
-592.82812697054942
 30
0.0
 42
0.013506600600646
  0
VERTEX
  5
4F9
  8
1
 62
     7
 10
-1214.89214325752
 20
-592.79662737346632
 30
0.0
 42
0.012575647012755
  0
VERTEX
  5
4FA
  8
1
 62
     7
 10
-1214.910842818281
 20
-592.76605985411538
 30
0.0
 42
0.0125494003911132
  0
VERTEX
  5
4FB
  8
1
 62
     7
 10
-1214.9322497248861
 20
-592.7347196614229
 30
0.0
 42
0.0123534933401689
  0
VERTEX
  5
4FC
  8
1
 62
     7
 10
-1214.95646898517
 20
-592.70279869533442
 30
0.0
 42
0.0115663990346388
  0
VERTEX
  5
4FD
  8
1
 62
     7
 10
-1214.9821869989701
 20
-592.67207236557169
 30
0.0
 42
0.0106771897055433
  0
VERTEX
  5
4FE
  8
1
 62
     7
 10
-1215.009253564557
 20
-592.64251185828368
 30
0.0
 42
0.0099313542004562
  0
VERTEX
  5
4FF
  8
1
 62
     7
 10
-1215.037518480204
 20
-592.61408835962004
 30
0.0
 42
0.0096973348761327
  0
VERTEX
  5
500
  8
1
 62
     7
 10
-1215.068766769532
 20
-592.58503940252615
 30
0.0
 42
0.0097161294123898
  0
VERTEX
  5
501
  8
1
 62
     7
 10
-1215.1030699354051
 20
-592.55554806097371
 30
0.0
 42
0.0090193525528465
  0
VERTEX
  5
502
  8
1
 62
     7
 10
-1215.1384500934889
 20
-592.52736540758679
 30
0.0
 42
0.0084565795317384
  0
VERTEX
  5
503
  8
1
 62
     7
 10
-1215.1747974114951
 20
-592.50043335331168
 30
0.0
 42
0.0038720416795908
  0
VERTEX
  5
504
  8
1
 62
     7
 10
-1215.193299432879
 20
-592.48741814801213
 30
0.0
 42
0.0039379387858313
  0
VERTEX
  5
505
  8
1
 62
     7
 10
-1215.2120020571381
 20
-592.47469380909524
 30
0.0
 42
0.0035696045391931
  0
VERTEX
  5
506
  8
1
 62
     7
 10
-1215.2308915552351
 20
-592.46225307542954
 30
0.0
 42
0.008002300109968
  0
VERTEX
  5
507
  8
1
 62
     7
 10
-1215.273765945785
 20
-592.4354173042932
 30
0.0
 42
0.007255788267887
  0
VERTEX
  5
508
  8
1
 62
     7
 10
-1215.3174322445641
 20
-592.4099061995953
 30
0.0
 42
0.0071359697515385
  0
VERTEX
  5
509
  8
1
 62
     7
 10
-1215.361815954129
 20
-592.38566161922665
 30
0.0
 42
0.0063965147663098
  0
VERTEX
  5
50A
  8
1
 62
     7
 10
-1215.4068425770349
 20
-592.36262542107795
 30
0.0
 42
0.0032218085600253
  0
VERTEX
  5
50B
  8
1
 62
     7
 10
-1215.42957370054
 20
-592.35154229592729
 30
0.0
 42
0.0061701176103015
  0
VERTEX
  5
50C
  8
1
 62
     7
 10
-1215.477697407538
 20
-592.32918719299653
 30
0.0
 42
0.0062692850934822
  0
VERTEX
  5
50D
  8
1
 62
     7
 10
-1215.528639107552
 20
-592.307046579803
 30
0.0
 42
0.0058760163928612
  0
VERTEX
  5
50E
  8
1
 62
     7
 10
-1215.5801020952231
 20
-592.28615034797201
 30
0.0
 42
0.0056913349734084
  0
VERTEX
  5
50F
  8
1
 62
     7
 10
-1215.6320365291569
 20
-592.26644947210764
 30
0.0
 42
0.0053034911206077
  0
VERTEX
  5
510
  8
1
 62
     7
 10
-1215.684392567958
 20
-592.24789492681373
 30
0.0
 42
0.0053229825339599
  0
VERTEX
  5
511
  8
1
 62
     7
 10
-1215.7391349049281
 20
-592.22979464569562
 30
0.0
 42
0.0052208481596937
  0
VERTEX
  5
512
  8
1
 62
     7
 10
-1215.7962627364129
 20
-592.21223293904472
 30
0.0
 42
0.0051364396156626
  0
VERTEX
  5
513
  8
1
 62
     7
 10
-1215.8537412294991
 20
-592.19585852187436
 30
0.0
 42
0.0048473155169322
  0
VERTEX
  5
514
  8
1
 62
     7
 10
-1215.911536379504
 20
-592.18063467380489
 30
0.0
 42
0.0047665217560004
  0
VERTEX
  5
515
  8
1
 62
     7
 10
-1215.9696141817451
 20
-592.16652467445726
 30
0.0
 42
0.0046065070480451
  0
VERTEX
  5
516
  8
1
 62
     7
 10
-1216.029511706975
 20
-592.15315642967175
 30
0.0
 42
0.0070276225847688
  0
VERTEX
  5
517
  8
1
 62
     7
 10
-1216.122156771436
 20
-592.13473116869318
 30
0.0
 42
0.0066239577984962
  0
VERTEX
  5
518
  8
1
 62
     7
 10
-1216.2152706657489
 20
-592.11884186262864
 30
0.0
 42
0.006526265241958
  0
VERTEX
  5
519
  8
1
 62
     7
 10
-1216.3087709564479
 20
-592.10540656223259
 30
0.0
 42
0.0106565390080237
  0
VERTEX
  5
51A
  8
1
 62
     7
 10
-1216.470293787075
 20
-592.08783657570007
 30
0.0
 42
0.0104370094078843
  0
VERTEX
  5
51B
  8
1
 62
     7
 10
-1216.6324146323991
 20
-592.07709407757568
 30
0.0
 42
0.0514510882315182
  0
VERTEX
  5
51C
  8
1
 62
     7
 10
-1217.441985520348
 20
-592.1237113825664
 30
0.0
 42
0.0087447513947355
  0
VERTEX
  5
51D
  8
1
 62
     7
 10
-1217.5353463706531
 20
-592.14049000956072
 30
0.0
 42
0.0049918387304231
  0
VERTEX
  5
51E
  8
1
 62
     7
 10
-1217.6267004168569
 20
-592.15951229009409
 30
0.0
 42
0.0066283043560317
  0
VERTEX
  5
51F
  8
1
 62
     7
 10
-1217.685285716356
 20
-592.17313899000965
 30
0.0
 42
0.0028753527729346
  0
VERTEX
  5
520
  8
1
 62
     7
 10
-1217.7436004764729
 20
-592.18787645359373
 30
0.0
 42
0.0069794390819936
  0
VERTEX
  5
521
  8
1
 62
     7
 10
-1217.801611183459
 20
-592.20375970161035
 30
0.0
 42
0.0032303926247084
  0
VERTEX
  5
522
  8
1
 62
     7
 10
-1217.859284323572
 20
-592.22082375482319
 30
0.0
 42
0.0071564136803024
  0
VERTEX
  5
523
  8
1
 62
     7
 10
-1217.914623075565
 20
-592.23845524116746
 30
0.0
 42
0.0033121101289724
  0
VERTEX
  5
524
  8
1
 62
     7
 10
-1217.9676266181091
 20
-592.25657347017125
 30
0.0
 42
0.0075139565676221
  0
VERTEX
  5
525
  8
1
 62
     7
 10
-1218.0202257713961
 20
-592.27583509479894
 30
0.0
 42
0.0038632806866036
  0
VERTEX
  5
526
  8
1
 62
     7
 10
-1218.0723751764481
 20
-592.29628930755382
 30
0.0
 42
0.0080684782094605
  0
VERTEX
  5
527
  8
1
 62
     7
 10
-1218.124029474282
 20
-592.31798530093965
 30
0.0
 42
0.0041431380994127
  0
VERTEX
  5
528
  8
1
 62
     7
 10
-1218.172909802063
 20
-592.33993540902145
 30
0.0
 42
0.0081810132651355
  0
VERTEX
  5
529
  8
1
 62
     7
 10
-1218.2190246239741
 20
-592.36202505264521
 30
0.0
 42
0.004661088606811
  0
VERTEX
  5
52A
  8
1
 62
     7
 10
-1218.264551515455
 20
-592.38528890427222
 30
0.0
 42
0.0090034670221691
  0
VERTEX
  5
52B
  8
1
 62
     7
 10
-1218.3094109049421
 20
-592.40978001089127
 30
0.0
 42
0.0055003465936611
  0
VERTEX
  5
52C
  8
1
 62
     7
 10
-1218.3535232208669
 20
-592.43555141949116
 30
0.0
 42
0.0059097361711849
  0
VERTEX
  5
52D
  8
1
 62
     7
 10
-1218.3752743601301
 20
-592.44893381421787
 30
0.0
  0
SEQEND
  5
52E
  8
1
 62
     7
  0
POLYLINE
  5
FA
  8
1
 62
     7
 66
     1
 10
0.0
 20
0.0
 30
0.0
  0
VERTEX
  5
52F
  8
1
 62
     7
 10
-1220.403971145965
 20
-594.92173701339777
 30
0.0
 42
0.0035221208381613
  0
VERTEX
  5
530
  8
1
 62
     7
 10
-1220.408694992497
 20
-594.92474076933775
 30
0.0
 42
0.0036580569103431
  0
VERTEX
  5
531
  8
1
 62
     7
 10
-1220.413377115395
 20
-594.92781329376487
 30
0.0
 42
0.0037966196783703
  0
VERTEX
  5
532
  8
1
 62
     7
 10
-1220.4180142173691
 20
-594.93095616699168
 30
0.0
 42
0.0079443708275955
  0
VERTEX
  5
533
  8
1
 62
     7
 10
-1220.4271401693759
 20
-594.93745928109354
 30
0.0
 42
0.0086584324580033
  0
VERTEX
  5
534
  8
1
 62
     7
 10
-1220.436046470177
 20
-594.94426275414037
 30
0.0
 42
0.0091028659721726
  0
VERTEX
  5
535
  8
1
 62
     7
 10
-1220.444706741433
 20
-594.95137922863023
 30
0.0
 42
0.0092905353468787
  0
VERTEX
  5
536
  8
1
 62
     7
 10
-1220.452632415137
 20
-594.95839593858375
 30
0.0
 42
0.0093233325048049
  0
VERTEX
  5
537
  8
1
 62
     7
 10
-1220.4598388272559
 20
-594.96527095751537
 30
0.0
 42
0.0102187641598854
  0
VERTEX
  5
538
  8
1
 62
     7
 10
-1220.4667697581569
 20
-594.97242090926875
 30
0.0
 42
0.0108477745109186
  0
VERTEX
  5
539
  8
1
 62
     7
 10
-1220.473391706611
 20
-594.97985455137837
 30
0.0
 42
0.0117730243442602
  0
VERTEX
  5
53A
  8
1
 62
     7
 10
-1220.4796711713921
 20
-594.98758064137883
 30
0.0
 42
0.0117392952192576
  0
VERTEX
  5
53B
  8
1
 62
     7
 10
-1220.4852675538721
 20
-594.995168983697
 30
0.0
 42
0.0119720742773571
  0
VERTEX
  5
53C
  8
1
 62
     7
 10
-1220.4902045822801
 20
-595.00257407437766
 30
0.0
 42
0.0126636294757928
  0
VERTEX
  5
53D
  8
1
 62
     7
 10
-1220.494770563073
 20
-595.01021271465936
 30
0.0
 42
0.0136630112673113
  0
VERTEX
  5
53E
  8
1
 62
     7
 10
-1220.498926755572
 20
-595.01807827538812
 30
0.0
 42
0.0144293075054248
  0
VERTEX
  5
53F
  8
1
 62
     7
 10
-1220.5026344191001
 20
-595.02616412740952
 30
0.0
 42
0.0148552800159427
  0
VERTEX
  5
540
  8
1
 62
     7
 10
-1220.505740924247
 20
-595.03414107827575
 30
0.0
 42
0.0218809319833298
  0
VERTEX
  5
541
  8
1
 62
     7
 10
-1220.509362136243
 20
-595.04593504042248
 30
0.0
 42
0.0155500118449849
  0
VERTEX
  5
542
  8
1
 62
     7
 10
-1220.511181660924
 20
-595.05395678035018
 30
0.0
 42
0.0156032681670893
  0
VERTEX
  5
543
  8
1
 62
     7
 10
-1220.512497634352
 20
-595.06207267954278
 30
0.0
 42
0.0167325432936849
  0
VERTEX
  5
544
  8
1
 62
     7
 10
-1220.5132861782949
 20
-595.07025434983007
 30
0.0
 42
0.0243982920296255
  0
VERTEX
  5
545
  8
1
 62
     7
 10
-1220.513454249852
 20
-595.08240300678676
 30
0.0
 42
0.0314842951653275
  0
VERTEX
  5
546
  8
1
 62
     7
 10
-1220.5118702644299
 20
-595.0985307427552
 30
0.0
 42
0.0391269114403727
  0
VERTEX
  5
547
  8
1
 62
     7
 10
-1220.5069659940609
 20
-595.11865301163755
 30
0.0
 42
0.0145716195345907
  0
VERTEX
  5
548
  8
1
 62
     7
 10
-1220.504055455184
 20
-595.12671602020987
 30
0.0
 42
0.0145268459934612
  0
VERTEX
  5
549
  8
1
 62
     7
 10
-1220.500679544306
 20
-595.13459926584164
 30
0.0
 42
0.0129696652562471
  0
VERTEX
  5
54A
  8
1
 62
     7
 10
-1220.496874284129
 20
-595.14228742266937
 30
0.0
 42
0.0130380456050324
  0
VERTEX
  5
54B
  8
1
 62
     7
 10
-1220.4926756973471
 20
-595.14976516482886
 30
0.0
 42
0.0128947405950088
  0
VERTEX
  5
54C
  8
1
 62
     7
 10
-1220.487596733089
 20
-595.15780402556675
 30
0.0
 42
0.0127500343789078
  0
VERTEX
  5
54D
  8
1
 62
     7
 10
-1220.4821145682979
 20
-595.16556879191103
 30
0.0
 42
0.0111890989048489
  0
VERTEX
  5
54E
  8
1
 62
     7
 10
-1220.4762661717739
 20
-595.17306346343241
 30
0.0
 42
0.0110768051217157
  0
VERTEX
  5
54F
  8
1
 62
     7
 10
-1220.4700885123179
 20
-595.18029203970195
 30
0.0
 42
0.0095705392442039
  0
VERTEX
  5
550
  8
1
 62
     7
 10
-1220.4636185587301
 20
-595.18725852029047
 30
0.0
 42
0.0107673769111422
  0
VERTEX
  5
551
  8
1
 62
     7
 10
-1220.456020691782
 20
-595.19479980522215
 30
0.0
 42
0.0094267390176723
  0
VERTEX
  5
552
  8
1
 62
     7
 10
-1220.44812695771
 20
-595.20202595202556
 30
0.0
 42
0.0094487540993827
  0
VERTEX
  5
553
  8
1
 62
     7
 10
-1220.439965616109
 20
-595.20894946669841
 30
0.0
 42
0.008122614558213
  0
VERTEX
  5
554
  8
1
 62
     7
 10
-1220.431564926572
 20
-595.21558285523872
 30
0.0
 42
0.0042543624445698
  0
VERTEX
  5
555
  8
1
 62
     7
 10
-1220.427283657451
 20
-595.21879466033317
 30
0.0
 42
0.0035772726277044
  0
VERTEX
  5
556
  8
1
 62
     7
 10
-1220.422953148694
 20
-595.22193862364395
 30
0.0
 42
0.0085048937382498
  0
VERTEX
  5
557
  8
1
 62
     7
 10
-1220.413088575599
 20
-595.22874253787381
 30
0.0
 42
0.0074151528833631
  0
VERTEX
  5
558
  8
1
 62
     7
 10
-1220.4030142253009
 20
-595.23522780347241
 30
0.0
 42
0.0075757073964162
  0
VERTEX
  5
559
  8
1
 62
     7
 10
-1220.3927496754729
 20
-595.24140835199819
 30
0.0
 42
0.0064936940157297
  0
VERTEX
  5
55A
  8
1
 62
     7
 10
-1220.382314503787
 20
-595.24729811500947
 30
0.0
 42
0.0034891644507807
  0
VERTEX
  5
55B
  8
1
 62
     7
 10
-1220.3770390527691
 20
-595.25013830555929
 30
0.0
 42
0.0062529670771293
  0
VERTEX
  5
55C
  8
1
 62
     7
 10
-1220.365834401422
 20
-595.25589194924862
 30
0.0
 42
0.0066458549479959
  0
VERTEX
  5
55D
  8
1
 62
     7
 10
-1220.353933395776
 20
-595.26162019346043
 30
0.0
 42
0.0059297804063547
  0
VERTEX
  5
55E
  8
1
 62
     7
 10
-1220.3418924740561
 20
-595.26704716687868
 30
0.0
 42
0.0060165207713972
  0
VERTEX
  5
55F
  8
1
 62
     7
 10
-1220.329724909237
 20
-595.27218511439969
 30
0.0
 42
0.0053065399904719
  0
VERTEX
  5
560
  8
1
 62
     7
 10
-1220.3174439742879
 20
-595.27704628092044
 30
0.0
 42
0.0056175536804139
  0
VERTEX
  5
561
  8
1
 62
     7
 10
-1220.304555792208
 20
-595.28182485672755
 30
0.0
 42
0.0052170034017643
  0
VERTEX
  5
562
  8
1
 62
     7
 10
-1220.291059494979
 20
-595.28649885105506
 30
0.0
 42
0.0054088898092988
  0
VERTEX
  5
563
  8
1
 62
     7
 10
-1220.2774670635361
 20
-595.29088494847463
 30
0.0
 42
0.0048020919398617
  0
VERTEX
  5
564
  8
1
 62
     7
 10
-1220.2637872968239
 20
-595.29499275022499
 30
0.0
 42
0.0049973877989951
  0
VERTEX
  5
565
  8
1
 62
     7
 10
-1220.25002899379
 20
-595.29883185754602
 30
0.0
 42
0.0045358806701071
  0
VERTEX
  5
566
  8
1
 62
     7
 10
-1220.235784457939
 20
-595.30251541819928
 30
0.0
 42
0.0072831876181402
  0
VERTEX
  5
567
  8
1
 62
     7
 10
-1220.213667331195
 20
-595.30768031380751
 30
0.0
 42
0.0065310805878735
  0
VERTEX
  5
568
  8
1
 62
     7
 10
-1220.19141761423
 20
-595.31223192504865
 30
0.0
 42
0.0066982580319502
  0
VERTEX
  5
569
  8
1
 62
     7
 10
-1220.169059770225
 20
-595.31619252537382
 30
0.0
  0
SEQEND
  5
56A
  8
1
 62
     7
  0
POLYLINE
  5
137
  8
1
 62
     7
 66
     1
 10
0.0
 20
0.0
 30
0.0
  0
VERTEX
  5
56B
  8
1
 62
     7
 10
-1221.5752743601299
 20
-594.45240302757986
 30
0.0
 42
0.0035230094637836
  0
VERTEX
  5
56C
  8
1
 62
     7
 10
-1221.594174522249
 20
-594.46442113476019
 30
0.0
 42
0.003659022946248
  0
VERTEX
  5
56D
  8
1
 62
     7
 10
-1221.6129077061321
 20
-594.47671445803314
 30
0.0
 42
0.0037976655531544
  0
VERTEX
  5
56E
  8
1
 62
     7
 10
-1221.6314607114341
 20
-594.48928932372905
 30
0.0
 42
0.0079466662406524
  0
VERTEX
  5
56F
  8
1
 62
     7
 10
-1221.6679733849151
 20
-594.51530898771159
 30
0.0
 42
0.0086611459758276
  0
VERTEX
  5
570
  8
1
 62
     7
 10
-1221.7036069399301
 20
-594.54253073735276
 30
0.0
 42
0.0091058429416281
  0
VERTEX
  5
571
  8
1
 62
     7
 10
-1221.7382557737189
 20
-594.57100518329651
 30
0.0
 42
0.0092936114891057
  0
VERTEX
  5
572
  8
1
 62
     7
 10
-1221.769964664197
 20
-594.59908031776115
 30
0.0
 42
0.0093264385859551
  0
VERTEX
  5
573
  8
1
 62
     7
 10
-1221.798795010877
 20
-594.62658829201871
 30
0.0
 42
0.0102224356225553
  0
VERTEX
  5
574
  8
1
 62
     7
 10
-1221.8265227273821
 20
-594.65519654472155
 30
0.0
 42
0.0108518618259929
  0
VERTEX
  5
575
  8
1
 62
     7
 10
-1221.8530136865249
 20
-594.68494012176041
 30
0.0
 42
0.0117777080274141
  0
VERTEX
  5
576
  8
1
 62
     7
 10
-1221.878133761116
 20
-594.71585406902636
 30
0.0
 42
0.0117439967442081
  0
VERTEX
  5
577
  8
1
 62
     7
 10
-1221.900520191356
 20
-594.74621675682124
 30
0.0
 42
0.0119767916344968
  0
VERTEX
  5
578
  8
1
 62
     7
 10
-1221.9202679786761
 20
-594.77584601745127
 30
0.0
 42
0.0126686790013854
  0
VERTEX
  5
579
  8
1
 62
     7
 10
-1221.938530539014
 20
-594.80640980254225
 30
0.0
 42
0.0136685895459631
  0
VERTEX
  5
57A
  8
1
 62
     7
 10
-1221.955152786358
 20
-594.83788151959232
 30
0.0
 42
0.014435320494165
  0
VERTEX
  5
57B
  8
1
 62
     7
 10
-1221.969979634694
 20
-594.87023457610042
 30
0.0
 42
0.0148617321335674
  0
VERTEX
  5
57C
  8
1
 62
     7
 10
-1221.982400786078
 20
-594.90215206788935
 30
0.0
 42
0.0218896564916406
  0
VERTEX
  5
57D
  8
1
 62
     7
 10
-1221.99687634318
 20
-594.94934230150659
 30
0.0
 42
0.0155552505124665
  0
VERTEX
  5
57E
  8
1
 62
     7
 10
-1222.004146654843
 20
-594.98143857874334
 30
0.0
 42
0.0156085138564309
  0
VERTEX
  5
57F
  8
1
 62
     7
 10
-1222.0094015175159
 20
-595.01391108478481
 30
0.0
 42
0.0167373924687308
  0
VERTEX
  5
580
  8
1
 62
     7
 10
-1222.012545444459
 20
-595.04664610386999
 30
0.0
 42
0.0244067488297805
  0
VERTEX
  5
581
  8
1
 62
     7
 10
-1222.013200376588
 20
-595.09525545981876
 30
0.0
 42
0.0314906577711446
  0
VERTEX
  5
582
  8
1
 62
     7
 10
-1222.006837325001
 20
-595.15978321729449
 30
0.0
 42
0.0391315735032228
  0
VERTEX
  5
583
  8
1
 62
     7
 10
-1221.987180334386
 20
-595.24029157611778
 30
0.0
 42
0.0145716432998385
  0
VERTEX
  5
584
  8
1
 62
     7
 10
-1221.975519933053
 20
-595.27255150869382
 30
0.0
 42
0.0145283804801644
  0
VERTEX
  5
585
  8
1
 62
     7
 10
-1221.961997507771
 20
-595.30409127954761
 30
0.0
 42
0.0129679544283069
  0
VERTEX
  5
586
  8
1
 62
     7
 10
-1221.946757339223
 20
-595.33484967249785
 30
0.0
 42
0.0130378460176293
  0
VERTEX
  5
587
  8
1
 62
     7
 10
-1221.929943708094
 20
-595.36476547136328
 30
0.0
 42
0.0128923696692582
  0
VERTEX
  5
588
  8
1
 62
     7
 10
-1221.909604853794
 20
-595.39692768081045
 30
0.0
 42
0.0127500438109885
  0
VERTEX
  5
589
  8
1
 62
     7
 10
-1221.88765304701
 20
-595.42799241190733
 30
0.0
 42
0.0111862803971934
  0
VERTEX
  5
58A
  8
1
 62
     7
 10
-1221.8642362380299
 20
-595.45797577583221
 30
0.0
 42
0.0110763328809279
  0
VERTEX
  5
58B
  8
1
 62
     7
 10
-1221.8395023771391
 20
-595.48689388376374
 30
0.0
 42
0.0095672078999979
  0
VERTEX
  5
58C
  8
1
 62
     7
 10
-1221.813599414618
 20
-595.51476284687988
 30
0.0
 42
0.0107665903117812
  0
VERTEX
  5
58D
  8
1
 62
     7
 10
-1221.783180913769
 20
-595.54493168900876
 30
0.0
 42
0.0094235440014272
  0
VERTEX
  5
58E
  8
1
 62
     7
 10
-1221.751579055312
 20
-595.57383913511819
 30
0.0
 42
0.0094481019135782
  0
VERTEX
  5
58F
  8
1
 62
     7
 10
-1221.718906891515
 20
-595.6015352843126
 30
0.0
 42
0.0081195413089174
  0
VERTEX
  5
590
  8
1
 62
     7
 10
-1221.685277474643
 20
-595.62807023569565
 30
0.0
 42
0.004254707980055
  0
VERTEX
  5
591
  8
1
 62
     7
 10
-1221.6681391251391
 20
-595.64091791817748
 30
0.0
 42
0.0035751389964648
  0
VERTEX
  5
592
  8
1
 62
     7
 10
-1221.650803856965
 20
-595.65349408837017
 30
0.0
 42
0.0085042413126431
  0
VERTEX
  5
593
  8
1
 62
     7
 10
-1221.6113159146851
 20
-595.68071006921321
 30
0.0
 42
0.0074122057242385
  0
VERTEX
  5
594
  8
1
 62
     7
 10
-1221.5709890578571
 20
-595.70665080354524
 30
0.0
 42
0.0075753517815291
  0
VERTEX
  5
595
  8
1
 62
     7
 10
-1221.529901589771
 20
-595.73137205724788
 30
0.0
 42
0.0064910383532748
  0
VERTEX
  5
596
  8
1
 62
     7
 10
-1221.4881318137229
 20
-595.75492959620283
 30
0.0
 42
0.0034897390260593
  0
VERTEX
  5
597
  8
1
 62
     7
 10
-1221.4670155299921
 20
-595.76628939948785
 30
0.0
 42
0.0062503606640701
  0
VERTEX
  5
598
  8
1
 62
     7
 10
-1221.422167036972
 20
-595.78930133549989
 30
0.0
 42
0.0066457895500318
  0
VERTEX
  5
599
  8
1
 62
     7
 10
-1221.374532275931
 20
-595.81221080109583
 30
0.0
 42
0.0059273578247984
  0
VERTEX
  5
59A
  8
1
 62
     7
 10
-1221.3263380569449
 20
-595.83391465182694
 30
0.0
 42
0.0060167622927605
  0
VERTEX
  5
59B
  8
1
 62
     7
 10
-1221.2776374608441
 20
-595.85446188236756
 30
0.0
 42
0.0053044211290492
  0
VERTEX
  5
59C
  8
1
 62
     7
 10
-1221.228483568455
 20
-595.87390148739212
 30
0.0
 42
0.0056179729457343
  0
VERTEX
  5
59D
  8
1
 62
     7
 10
-1221.1769005189831
 20
-595.89300969201383
 30
0.0
 42
0.0052149328637209
  0
VERTEX
  5
59E
  8
1
 62
     7
 10
-1221.122884872844
 20
-595.91169853812482
 30
0.0
 42
0.0054094736069248
  0
VERTEX
  5
59F
  8
1
 62
     7
 10
-1221.068484900256
 20
-595.92923531297993
 30
0.0
 42
0.0048003066776385
  0
VERTEX
  5
5A0
  8
1
 62
     7
 10
-1221.013735787534
 20
-595.94565841998826
 30
0.0
 42
0.004998255623122
  0
VERTEX
  5
5A1
  8
1
 62
     7
 10
-1220.958672720988
 20
-595.96100626255975
 30
0.0
 42
0.0045342627625854
  0
VERTEX
  5
5A2
  8
1
 62
     7
 10
-1220.9016653073229
 20
-595.97573082940357
 30
0.0
 42
0.0072839558954045
  0
VERTEX
  5
5A3
  8
1
 62
     7
 10
-1220.813153898416
 20
-595.99637412357356
 30
0.0
 42
0.0065297017681852
  0
VERTEX
  5
5A4
  8
1
 62
     7
 10
-1220.724112621539
 20
-596.01456321110743
 30
0.0
 42
0.0066996411775253
  0
VERTEX
  5
5A5
  8
1
 62
     7
 10
-1220.6346393194799
 20
-596.03038714194395
 30
0.0
  0
SEQEND
  5
5A6
  8
1
 62
     7
  0
POLYLINE
  5
174
  8
1
 62
     7
 66
     1
 10
0.0
 20
0.0
 30
0.0
  0
VERTEX
  5
5A7
  8
1
 62
     7
 10
-1215.801970834249
 20
-596.54233388286491
 30
0.0
 42
0.0078823124511827
  0
VERTEX
  5
5A8
  8
1
 62
     7
 10
-1215.8066183691501
 20
-596.52967986317651
 30
0.0
 42
0.0076374211124851
  0
VERTEX
  5
5A9
  8
1
 62
     7
 10
-1215.811659947844
 20
-596.51716728612564
 30
0.0
 42
0.0073983130223786
  0
VERTEX
  5
5AA
  8
1
 62
     7
 10
-1215.817079888149
 20
-596.50480183387288
 30
0.0
 42
0.0142213969969049
  0
VERTEX
  5
5AB
  8
1
 62
     7
 10
-1215.828992124874
 20
-596.48053503240624
 30
0.0
 42
0.0131146457777297
  0
VERTEX
  5
5AC
  8
1
 62
     7
 10
-1215.8422296218839
 20
-596.45692491606371
 30
0.0
 42
0.0125632485287145
  0
VERTEX
  5
5AD
  8
1
 62
     7
 10
-1215.856666921738
 20
-596.43401694213253
 30
0.0
 42
0.0123189997099063
  0
VERTEX
  5
5AE
  8
1
 62
     7
 10
-1215.873151163868
 20
-596.41053744014766
 30
0.0
 42
0.0124463205929253
  0
VERTEX
  5
5AF
  8
1
 62
     7
 10
-1215.891759174996
 20
-596.38664237749379
 30
0.0
 42
0.0113322772483484
  0
VERTEX
  5
5B0
  8
1
 62
     7
 10
-1215.9114725649181
 20
-596.36366995055266
 30
0.0
 42
0.0107399926828069
  0
VERTEX
  5
5B1
  8
1
 62
     7
 10
-1215.932180559468
 20
-596.34158974618572
 30
0.0
 42
0.0096514847319935
  0
VERTEX
  5
5B2
  8
1
 62
     7
 10
-1215.9537723844769
 20
-596.32037135125336
 30
0.0
 42
0.0046154815227044
  0
VERTEX
  5
5B3
  8
1
 62
     7
 10
-1215.964865116478
 20
-596.31007582821906
 30
0.0
 42
0.0098737834691229
  0
VERTEX
  5
5B4
  8
1
 62
     7
 10
-1215.990576915194
 20
-596.28756282011273
 30
0.0
 42
0.0091804465992524
  0
VERTEX
  5
5B5
  8
1
 62
     7
 10
-1216.0171233220949
 20
-596.26604931466102
 30
0.0
 42
0.0086511528262003
  0
VERTEX
  5
5B6
  8
1
 62
     7
 10
-1216.044423282468
 20
-596.24549345083653
 30
0.0
 42
0.0079722382787781
  0
VERTEX
  5
5B7
  8
1
 62
     7
 10
-1216.0723957416001
 20
-596.2258533676121
 30
0.0
 42
0.0037525981911598
  0
VERTEX
  5
5B8
  8
1
 62
     7
 10
-1216.0866088286029
 20
-596.21636366215387
 30
0.0
 42
0.0036748132627834
  0
VERTEX
  5
5B9
  8
1
 62
     7
 10
-1216.1009596447791
 20
-596.20708720396055
 30
0.0
 42
0.0077797059125944
  0
VERTEX
  5
5BA
  8
1
 62
     7
 10
-1216.1334925703591
 20
-596.18709917359013
 30
0.0
 42
0.0073231039572499
  0
VERTEX
  5
5BB
  8
1
 62
     7
 10
-1216.166608138398
 20
-596.16810630571547
 30
0.0
 42
0.0069235590505763
  0
VERTEX
  5
5BC
  8
1
 62
     7
 10
-1216.2002514999001
 20
-596.15006449695977
 30
0.0
 42
0.0064734571243653
  0
VERTEX
  5
5BD
  8
1
 62
     7
 10
-1216.234367805863
 20
-596.13292964394623
 30
0.0
 42
0.0030489438676482
  0
VERTEX
  5
5BE
  8
1
 62
     7
 10
-1216.2515861727061
 20
-596.12468854353722
 30
0.0
 42
0.0062462279020085
  0
VERTEX
  5
5BF
  8
1
 62
     7
 10
-1216.2880094135451
 20
-596.10808053699509
 30
0.0
 42
0.0060648779372909
  0
VERTEX
  5
5C0
  8
1
 62
     7
 10
-1216.326533940224
 20
-596.09164766783135
 30
0.0
 42
0.0059625408325661
  0
VERTEX
  5
5C1
  8
1
 62
     7
 10
-1216.3654420175519
 20
-596.07614637303425
 30
0.0
 42
0.0055033037369841
  0
VERTEX
  5
5C2
  8
1
 62
     7
 10
-1216.4046977236501
 20
-596.06154039234002
 30
0.0
 42
0.005405793239882
  0
VERTEX
  5
5C3
  8
1
 62
     7
 10
-1216.4442651366339
 20
-596.04779346548366
 30
0.0
 42
0.005145532528095
  0
VERTEX
  5
5C4
  8
1
 62
     7
 10
-1216.4856057784889
 20
-596.03440118528431
 30
0.0
 42
0.0053234028076758
  0
VERTEX
  5
5C5
  8
1
 62
     7
 10
-1216.5287177226689
 20
-596.02142590949688
 30
0.0
 42
0.0049592339414948
  0
VERTEX
  5
5C6
  8
1
 62
     7
 10
-1216.572085505532
 20
-596.00934043543555
 30
0.0
 42
0.0049561883171758
  0
VERTEX
  5
5C7
  8
1
 62
     7
 10
-1216.6156810895809
 20
-595.99811814842235
 30
0.0
 42
0.0045974640059123
  0
VERTEX
  5
5C8
  8
1
 62
     7
 10
-1216.6594764373231
 20
-595.98773243377889
 30
0.0
 42
0.0023451390962964
  0
VERTEX
  5
5C9
  8
1
 62
     7
 10
-1216.6814402608611
 20
-595.98284497400891
 30
0.0
  0
SEQEND
  5
5CA
  8
1
 62
     7
  0
POLYLINE
  5
199
  8
1
 62
     7
 66
     1
 10
0.0
 20
0.0
 30
0.0
  0
VERTEX
  5
5CB
  8
1
 62
     7
 10
-1216.7272904801
 20
-596.68525433428988
 30
0.0
 42
0.0124980498789185
  0
VERTEX
  5
5CC
  8
1
 62
     7
 10
-1216.733474937188
 20
-596.67718920831737
 30
0.0
 42
0.0115083289769848
  0
VERTEX
  5
5CD
  8
1
 62
     7
 10
-1216.7400456893481
 20
-596.66942266289755
 30
0.0
 42
0.0108337433383988
  0
VERTEX
  5
5CE
  8
1
 62
     7
 10
-1216.746963879564
 20
-596.66194971482594
 30
0.0
 42
0.0099041310881621
  0
VERTEX
  5
5CF
  8
1
 62
     7
 10
-1216.7541906508191
 20
-596.65476538089786
 30
0.0
 42
0.0093035414251501
  0
VERTEX
  5
5D0
  8
1
 62
     7
 10
-1216.7616871460959
 20
-596.64786467790918
 30
0.0
 42
0.0096332980471187
  0
VERTEX
  5
5D1
  8
1
 62
     7
 10
-1216.7704327447309
 20
-596.64040568610233
 30
0.0
 42
0.0092033657171498
  0
VERTEX
  5
5D2
  8
1
 62
     7
 10
-1216.7794472214789
 20
-596.63328599269175
 30
0.0
 42
0.0084136952960354
  0
VERTEX
  5
5D3
  8
1
 62
     7
 10
-1216.788705080503
 20
-596.62648959785929
 30
0.0
 42
0.0040383359636692
  0
VERTEX
  5
5D4
  8
1
 62
     7
 10
-1216.7934173109179
 20
-596.62320763746686
 30
0.0
 42
0.0038601434099773
  0
VERTEX
  5
5D5
  8
1
 62
     7
 10
-1216.7981808259631
 20
-596.62000050178722
 30
0.0
 42
0.0037389697786435
  0
VERTEX
  5
5D6
  8
1
 62
     7
 10
-1216.8029924386581
 20
-596.61686619084298
 30
0.0
 42
0.0035634058999542
  0
VERTEX
  5
5D7
  8
1
 62
     7
 10
-1216.807848962022
 20
-596.61380270465725
 30
0.0
 42
0.0076761034749257
  0
VERTEX
  5
5D8
  8
1
 62
     7
 10
-1216.818840757682
 20
-596.60720972354932
 30
0.0
 42
0.0071491660019921
  0
VERTEX
  5
5D9
  8
1
 62
     7
 10
-1216.8300225742089
 20
-596.60094583591365
 30
0.0
 42
0.0068567280471891
  0
VERTEX
  5
5DA
  8
1
 62
     7
 10
-1216.8413764468439
 20
-596.59499705517635
 30
0.0
 42
0.0063378493058244
  0
VERTEX
  5
5DB
  8
1
 62
     7
 10
-1216.8528844108221
 20
-596.58934939476251
 30
0.0
 42
0.0060570951252442
  0
VERTEX
  5
5DC
  8
1
 62
     7
 10
-1216.8645285013811
 20
-596.58398886809755
 30
0.0
 42
0.006145191243961
  0
VERTEX
  5
5DD
  8
1
 62
     7
 10
-1216.8774252456519
 20
-596.57842893960583
 30
0.0
 42
0.0060206619688481
  0
VERTEX
  5
5DE
  8
1
 62
     7
 10
-1216.890452029482
 20
-596.57318498962707
 30
0.0
 42
0.0055918644898191
  0
VERTEX
  5
5DF
  8
1
 62
     7
 10
-1216.9035970028581
 20
-596.56824499956315
 30
0.0
 42
0.0054713394631065
  0
VERTEX
  5
5E0
  8
1
 62
     7
 10
-1216.91684831577
 20
-596.56359695081585
 30
0.0
 42
0.0050483299546594
  0
VERTEX
  5
5E1
  8
1
 62
     7
 10
-1216.9301941182059
 20
-596.55922882478706
 30
0.0
 42
0.0053303697050469
  0
VERTEX
  5
5E2
  8
1
 62
     7
 10
-1216.9446109102109
 20
-596.55483928209492
 30
0.0
 42
0.0050308112907107
  0
VERTEX
  5
5E3
  8
1
 62
     7
 10
-1216.959114964355
 20
-596.55074957607883
 30
0.0
 42
0.004978570020242
  0
VERTEX
  5
5E4
  8
1
 62
     7
 10
-1216.9736983443349
 20
-596.54695092523991
 30
0.0
 42
0.0046816837565268
  0
VERTEX
  5
5E5
  8
1
 62
     7
 10
-1216.988353113848
 20
-596.54343454807815
 30
0.0
 42
0.0046329743347889
  0
VERTEX
  5
5E6
  8
1
 62
     7
 10
-1217.003071336585
 20
-596.54019166309467
 30
0.0
 42
0.0069018692357331
  0
VERTEX
  5
5E7
  8
1
 62
     7
 10
-1217.02638476179
 20
-596.53561616922946
 30
0.0
 42
0.0067612307671902
  0
VERTEX
  5
5E8
  8
1
 62
     7
 10
-1217.049813280476
 20
-596.5316795660242
 30
0.0
 42
0.0064310515809842
  0
VERTEX
  5
5E9
  8
1
 62
     7
 10
-1217.073334017359
 20
-596.52836289416712
 30
0.0
 42
0.0021260394271815
  0
VERTEX
  5
5EA
  8
1
 62
     7
 10
-1217.081190802166
 20
-596.52739182248501
 30
0.0
  0
SEQEND
  5
5EB
  8
1
 62
     7
  0
POLYLINE
  5
1BB
  8
1
 62
     7
 66
     1
 10
0.0
 20
0.0
 30
0.0
  0
VERTEX
  5
5EC
  8
1
 62
     7
 10
-1214.813536741244
 20
-586.00022423908979
 30
0.0
 42
0.0169524690277262
  0
VERTEX
  5
5ED
  8
1
 62
     7
 10
-1214.814668470437
 20
-585.96696749569207
 30
0.0
 42
0.0162411731383867
  0
VERTEX
  5
5EE
  8
1
 62
     7
 10
-1214.8180113340361
 20
-585.93378336603132
 30
0.0
 42
0.0237373584662607
  0
VERTEX
  5
5EF
  8
1
 62
     7
 10
-1214.8269998183921
 20
-585.8844839446142
 30
0.0
 42
0.0308295232117978
  0
VERTEX
  5
5F0
  8
1
 62
     7
 10
-1214.8464163459821
 20
-585.81928679802968
 30
0.0
 42
0.0153482276065601
  0
VERTEX
  5
5F1
  8
1
 62
     7
 10
-1214.8597668765119
 20
-585.78603357822976
 30
0.0
 42
0.0143415234747209
  0
VERTEX
  5
5F2
  8
1
 62
     7
 10
-1214.875063561977
 20
-585.75363874766367
 30
0.0
 42
0.013506600600646
  0
VERTEX
  5
5F3
  8
1
 62
     7
 10
-1214.89214325752
 20
-585.7221391505808
 30
0.0
 42
0.0125756470154641
  0
VERTEX
  5
5F4
  8
1
 62
     7
 10
-1214.910842818281
 20
-585.69157163122975
 30
0.0
 42
0.0125494003832081
  0
VERTEX
  5
5F5
  8
1
 62
     7
 10
-1214.9322497248861
 20
-585.66023143853715
 30
0.0
 42
0.0123534933505317
  0
VERTEX
  5
5F6
  8
1
 62
     7
 10
-1214.95646898517
 20
-585.62831047244867
 30
0.0
 42
0.011566399024276
  0
VERTEX
  5
5F7
  8
1
 62
     7
 10
-1214.9821869989701
 20
-585.59758414268595
 30
0.0
 42
0.0106771897159368
  0
VERTEX
  5
5F8
  8
1
 62
     7
 10
-1215.009253564557
 20
-585.56802363539805
 30
0.0
 42
0.0099313541901122
  0
VERTEX
  5
5F9
  8
1
 62
     7
 10
-1215.037518480204
 20
-585.53960013673429
 30
0.0
 42
0.0096973348865354
  0
VERTEX
  5
5FA
  8
1
 62
     7
 10
-1215.068766769532
 20
-585.51055117964052
 30
0.0
 42
0.0097161294019345
  0
VERTEX
  5
5FB
  8
1
 62
     7
 10
-1215.1030699354051
 20
-585.48105983808819
 30
0.0
 42
0.009019352562329
  0
VERTEX
  5
5FC
  8
1
 62
     7
 10
-1215.1384500934889
 20
-585.45287718470104
 30
0.0
 42
0.0084565795247866
  0
VERTEX
  5
5FD
  8
1
 62
     7
 10
-1215.1747974114951
 20
-585.42594513042604
 30
0.0
 42
0.0038720416821526
  0
VERTEX
  5
5FE
  8
1
 62
     7
 10
-1215.193299432879
 20
-585.41292992512615
 30
0.0
 42
0.0039379387881943
  0
VERTEX
  5
5FF
  8
1
 62
     7
 10
-1215.2120020571381
 20
-585.40020558620938
 30
0.0
 42
0.0035696045347605
  0
VERTEX
  5
600
  8
1
 62
     7
 10
-1215.2308915552351
 20
-585.38776485254357
 30
0.0
 42
0.0080023001144157
  0
VERTEX
  5
601
  8
1
 62
     7
 10
-1215.273765945785
 20
-585.36092908140745
 30
0.0
 42
0.007255788264609
  0
VERTEX
  5
602
  8
1
 62
     7
 10
-1215.3174322445641
 20
-585.33541797670955
 30
0.0
 42
0.0071359697557111
  0
VERTEX
  5
603
  8
1
 62
     7
 10
-1215.361815954129
 20
-585.31117339634102
 30
0.0
 42
0.0063965147610877
  0
VERTEX
  5
604
  8
1
 62
     7
 10
-1215.4068425770361
 20
-585.28813719819232
 30
0.0
 42
0.0032218085642318
  0
VERTEX
  5
605
  8
1
 62
     7
 10
-1215.42957370054
 20
-585.27705407304154
 30
0.0
 42
0.0061701176060067
  0
VERTEX
  5
606
  8
1
 62
     7
 10
-1215.4776974075389
 20
-585.25469897011067
 30
0.0
 42
0.0062692850987629
  0
VERTEX
  5
607
  8
1
 62
     7
 10
-1215.5286391075531
 20
-585.23255835691725
 30
0.0
 42
0.0058760163860784
  0
VERTEX
  5
608
  8
1
 62
     7
 10
-1215.5801020952231
 20
-585.21166212508638
 30
0.0
 42
0.0056913349798321
  0
VERTEX
  5
609
  8
1
 62
     7
 10
-1215.6320365291569
 20
-585.191961249222
 30
0.0
 42
0.0053034911144635
  0
VERTEX
  5
60A
  8
1
 62
     7
 10
-1215.6843925679591
 20
-585.17340670392821
 30
0.0
 42
0.0053229825401473
  0
VERTEX
  5
60B
  8
1
 62
     7
 10
-1215.7391349049281
 20
-585.15530642280999
 30
0.0
 42
0.0052208481532094
  0
VERTEX
  5
60C
  8
1
 62
     7
 10
-1215.7962627364129
 20
-585.13774471615898
 30
0.0
 42
0.0051364396235961
  0
VERTEX
  5
60D
  8
1
 62
     7
 10
-1215.8537412294991
 20
-585.12137029898872
 30
0.0
 42
0.0048473155080081
  0
VERTEX
  5
60E
  8
1
 62
     7
 10
-1215.911536379504
 20
-585.10614645091925
 30
0.0
 42
0.0047665217653978
  0
VERTEX
  5
60F
  8
1
 62
     7
 10
-1215.9696141817451
 20
-585.09203645157129
 30
0.0
 42
0.0046065070386492
  0
VERTEX
  5
610
  8
1
 62
     7
 10
-1216.029511706975
 20
-585.07866820678612
 30
0.0
 42
0.0070276225941847
  0
VERTEX
  5
611
  8
1
 62
     7
 10
-1216.122156771436
 20
-585.0602429458072
 30
0.0
 42
0.0066239577896586
  0
VERTEX
  5
612
  8
1
 62
     7
 10
-1216.2152706657489
 20
-585.04435363974289
 30
0.0
 42
0.0065262652496346
  0
VERTEX
  5
613
  8
1
 62
     7
 10
-1216.3087709564479
 20
-585.03091833934695
 30
0.0
 42
0.0106565390009269
  0
VERTEX
  5
614
  8
1
 62
     7
 10
-1216.470293787075
 20
-585.01334835281443
 30
0.0
 42
0.0104370094153477
  0
VERTEX
  5
615
  8
1
 62
     7
 10
-1216.6324146323991
 20
-585.00260585469027
 30
0.0
 42
0.0514510882236235
  0
VERTEX
  5
616
  8
1
 62
     7
 10
-1217.441985520348
 20
-585.04922315968065
 30
0.0
 42
0.0087447514026728
  0
VERTEX
  5
617
  8
1
 62
     7
 10
-1217.5353463706531
 20
-585.06600178667509
 30
0.0
 42
0.0049918387224788
  0
VERTEX
  5
618
  8
1
 62
     7
 10
-1217.6267004168569
 20
-585.08502406720868
 30
0.0
 42
0.0066283043639585
  0
VERTEX
  5
619
  8
1
 62
     7
 10
-1217.685285716356
 20
-585.0986507671239
 30
0.0
 42
0.0028753527650522
  0
VERTEX
  5
61A
  8
1
 62
     7
 10
-1217.7436004764729
 20
-585.11338823070787
 30
0.0
 42
0.0069794390898888
  0
VERTEX
  5
61B
  8
1
 62
     7
 10
-1217.801611183459
 20
-585.12927147872472
 30
0.0
 42
0.0032303926167869
  0
VERTEX
  5
61C
  8
1
 62
     7
 10
-1217.859284323572
 20
-585.14633553193755
 30
0.0
 42
0.0071564136882072
  0
VERTEX
  5
61D
  8
1
 62
     7
 10
-1217.914623075565
 20
-585.16396701828182
 30
0.0
 42
0.0033121101210655
  0
VERTEX
  5
61E
  8
1
 62
     7
 10
-1217.9676266181091
 20
-585.18208524728539
 30
0.0
 42
0.0075139565755461
  0
VERTEX
  5
61F
  8
1
 62
     7
 10
-1218.0202257713961
 20
-585.20134687191319
 30
0.0
 42
0.0038632806787241
  0
VERTEX
  5
620
  8
1
 62
     7
 10
-1218.0723751764481
 20
-585.2218010846683
 30
0.0
 42
0.00806847821734
  0
VERTEX
  5
621
  8
1
 62
     7
 10
-1218.124029474282
 20
-585.24349707805402
 30
0.0
 42
0.004143138091507
  0
VERTEX
  5
622
  8
1
 62
     7
 10
-1218.172909802063
 20
-585.26544718613582
 30
0.0
 42
0.0081810132730287
  0
VERTEX
  5
623
  8
1
 62
     7
 10
-1218.2190246239741
 20
-585.28753682975957
 30
0.0
 42
0.0046610885989344
  0
VERTEX
  5
624
  8
1
 62
     7
 10
-1218.264551515455
 20
-585.3108006813867
 30
0.0
 42
0.0090034670300353
  0
VERTEX
  5
625
  8
1
 62
     7
 10
-1218.3094109049421
 20
-585.33529178800563
 30
0.0
 42
0.0055003465857414
  0
VERTEX
  5
626
  8
1
 62
     7
 10
-1218.3535232208669
 20
-585.36106319660553
 30
0.0
 42
0.0059097361790865
  0
VERTEX
  5
627
  8
1
 62
     7
 10
-1218.3752743601301
 20
-585.37444559133223
 30
0.0
  0
SEQEND
  5
628
  8
1
 62
     7
  0
POLYLINE
  5
1F9
  8
1
 62
     7
 66
     1
 10
0.0
 20
0.0
 30
0.0
  0
VERTEX
  5
629
  8
1
 62
     7
 10
-1222.013510048311
 20
-588.00369345245167
 30
0.0
 42
-0.0000880799110709
  0
VERTEX
  5
62A
  8
1
 62
     7
 10
-1222.0134502572671
 20
-588.00053868882765
 30
0.0
 42
-0.0002642433527592
  0
VERTEX
  5
62B
  8
1
 62
     7
 10
-1222.0133882438381
 20
-587.99738399832324
 30
0.0
 42
-0.0004404225273192
  0
VERTEX
  5
62C
  8
1
 62
     7
 10
-1222.013321785641
 20
-587.99422945405877
 30
0.0
 42
-0.0006166195338566
  0
VERTEX
  5
62D
  8
1
 62
     7
 10
-1222.0132486602899
 20
-587.99107512915373
 30
0.0
 42
-0.0007928358108138
  0
VERTEX
  5
62E
  8
1
 62
     7
 10
-1222.0131666454031
 20
-587.98792109672797
 30
0.0
 42
-0.0009690579576401
  0
VERTEX
  5
62F
  8
1
 62
     7
 10
-1222.013073518594
 20
-587.98476742990169
 30
0.0
 42
-0.0011452661899262
  0
VERTEX
  5
630
  8
1
 62
     7
 10
-1222.012967057479
 20
-587.98161420179417
 30
0.0
 42
-0.0013214209188609
  0
VERTEX
  5
631
  8
1
 62
     7
 10
-1222.0128450396751
 20
-587.97846148552537
 30
0.0
 42
-0.001497470760932
  0
VERTEX
  5
632
  8
1
 62
     7
 10
-1222.0127052427961
 20
-587.9753093542156
 30
0.0
 42
-0.0016733398932866
  0
VERTEX
  5
633
  8
1
 62
     7
 10
-1222.012545444459
 20
-587.97215788098424
 30
0.0
 42
-0.0090890660224711
  0
VERTEX
  5
634
  8
1
 62
     7
 10
-1222.011362718692
 20
-587.95580211907725
 30
0.0
 42
-0.0086728182141999
  0
VERTEX
  5
635
  8
1
 62
     7
 10
-1222.009598140671
 20
-587.93948279574442
 30
0.0
 42
-0.0085685065535616
  0
VERTEX
  5
636
  8
1
 62
     7
 10
-1222.0072695144329
 20
-587.92321661995106
 30
0.0
 42
-0.0163084016524714
  0
VERTEX
  5
637
  8
1
 62
     7
 10
-1222.000991333457
 20
-587.89091054684445
 30
0.0
 42
-0.0153264729893652
  0
VERTEX
  5
638
  8
1
 62
     7
 10
-1221.992670608066
 20
-587.85901757148281
 30
0.0
 42
-0.0146690819823971
  0
VERTEX
  5
639
  8
1
 62
     7
 10
-1221.982449770559
 20
-587.82767136558994
 30
0.0
 42
-0.0144989347894529
  0
VERTEX
  5
63A
  8
1
 62
     7
 10
-1221.969937375791
 20
-587.79574579700875
 30
0.0
 42
-0.0143375262072724
  0
VERTEX
  5
63B
  8
1
 62
     7
 10
-1221.9550600606331
 20
-587.76340850208612
 30
0.0
 42
-0.0133101039599931
  0
VERTEX
  5
63C
  8
1
 62
     7
 10
-1221.938427149317
 20
-587.73195932795682
 30
0.0
 42
-0.0063066372939613
  0
VERTEX
  5
63D
  8
1
 62
     7
 10
-1221.9294987100591
 20
-587.7165702023492
 30
0.0
 42
-0.0061810647733834
  0
VERTEX
  5
63E
  8
1
 62
     7
 10
-1221.9201870097099
 20
-587.70140600633079
 30
0.0
 42
-0.0058719195986516
  0
VERTEX
  5
63F
  8
1
 62
     7
 10
-1221.9105105942549
 20
-587.68646770636576
 30
0.0
 42
-0.0057543307021458
  0
VERTEX
  5
640
  8
1
 62
     7
 10
-1221.9004880096761
 20
-587.67175626891776
 30
0.0
 42
-0.0115222097311484
  0
VERTEX
  5
641
  8
1
 62
     7
 10
-1221.878174166894
 20
-587.64131894670811
 30
0.0
 42
-0.0174284953029921
  0
VERTEX
  5
642
  8
1
 62
     7
 10
-1221.8400850462101
 20
-587.59521600818709
 30
0.0
 42
-0.016558532366974
  0
VERTEX
  5
643
  8
1
 62
     7
 10
-1221.79896998859
 20
-587.55182450769109
 30
0.0
 42
-0.0159068934607652
  0
VERTEX
  5
644
  8
1
 62
     7
 10
-1221.7551779192911
 20
-587.51123976032238
 30
0.0
 42
-0.0055374069222771
  0
VERTEX
  5
645
  8
1
 62
     7
 10
-1221.738122449643
 20
-587.49674188545566
 30
0.0
 42
-0.0050015737137587
  0
VERTEX
  5
646
  8
1
 62
     7
 10
-1221.720771752754
 20
-587.4826120251056
 30
0.0
 42
-0.0043694244333653
  0
VERTEX
  5
647
  8
1
 62
     7
 10
-1221.7031586316491
 20
-587.4688092887709
 30
0.0
 42
-0.0038271284765843
  0
VERTEX
  5
648
  8
1
 62
     7
 10
-1221.685315889355
 20
-587.45529278594961
 30
0.0
 42
-0.0031927057376737
  0
VERTEX
  5
649
  8
1
 62
     7
 10
-1221.667276328898
 20
-587.44202162613965
 30
0.0
 42
-0.0026509716159437
  0
VERTEX
  5
64A
  8
1
 62
     7
 10
-1221.649072753306
 20
-587.42895491883917
 30
0.0
 42
-0.0020187803470765
  0
VERTEX
  5
64B
  8
1
 62
     7
 10
-1221.6307379656071
 20
-587.4160517735462
 30
0.0
 42
-0.0014799764820058
  0
VERTEX
  5
64C
  8
1
 62
     7
 10
-1221.612304768825
 20
-587.40327129975901
 30
0.0
 42
-0.0008506463117127
  0
VERTEX
  5
64D
  8
1
 62
     7
 10
-1221.593805965992
 20
-587.39057260697564
 30
0.0
 42
-0.0003140630896754
  0
VERTEX
  5
64E
  8
1
 62
     7
 10
-1221.5752743601299
 20
-587.37791480469411
 30
0.0
  0
SEQEND
  5
64F
  8
1
 62
     7
  0
POINT
  5
221
  8
1
  6
DOT
 62
     7
 10
-940.57849776391629
 20
-649.80403280641212
 30
0.0
  0
POINT
  5
222
  8
1
  6
DOT
 62
     7
 10
-883.17665537739151
 20
-609.74122598221982
 30
0.0
  0
LINE
  5
223
  8
1
 62
     7
 10
-933.14279215260422
 20
-558.13717101888415
 30
0.0
 11
-932.04882704084025
 21
-562.21990439769536
 31
0.0
  0
LINE
  5
224
  8
1
 62
     7
 10
-931.21094050002625
 20
-557.61953292867906
 30
0.0
 11
-930.12431925038163
 21
-561.67485864093635
 31
0.0
  0
LINE
  5
225
  8
1
 62
     7
 10
-929.27908884744795
 20
-557.10189483847398
 30
0.0
 11
-928.1851237356841
 21
-561.18462821728542
 31
0.0
  0
LINE
  5
226
  8
1
 62
     7
 10
-1212.813536741244
 20
-553.48471734032364
 30
0.0
 11
-1212.813536741244
 21
-543.77262939431591
 31
0.0
  0
LINE
  5
227
  8
1
 62
     7
 10
-1214.6859947898911
 20
-553.82601783028451
 30
0.0
 11
-1214.6859947898911
 21
-543.77262939431591
 31
0.0
  0
LINE
  5
228
  8
1
 62
     7
 10
-1202.9897363311491
 20
-560.99643210402269
 30
0.0
 11
-1202.9897363311491
 21
-563.27262939431591
 31
0.0
  0
LINE
  5
229
  8
1
 62
     7
 10
-1204.9815820367189
 20
-561.17685018848601
 30
0.0
 11
-1204.9815820367189
 21
-563.27262939431591
 31
0.0
  0
LINE
  5
22A
  8
1
 62
     7
 10
-1220.813536741244
 20
-564.47128333375804
 30
0.0
 11
-1220.813536741244
 21
-573.05802177857322
 31
0.0
  0
LINE
  5
22B
  8
1
 62
     7
 10
-1222.813536741244
 20
-564.47128333375804
 30
0.0
 11
-1222.813536741244
 21
-573.05802177857322
 31
0.0
  0
LINE
  5
22C
  8
1
 62
     7
 10
-1214.813536741244
 20
-586.00022423908979
 30
0.0
 11
-1214.813536741244
 21
-604.09379313546583
 31
0.0
  0
LINE
  5
22D
  8
1
 62
     7
 10
-1216.4135367412439
 20
-604.09379313546583
 30
0.0
 11
-1216.4135367412439
 21
-597.11644719972503
 31
0.0
  0
LINE
  5
22E
  8
1
 62
     7
 10
-1217.7135367412441
 20
-601.49571745973469
 30
0.0
 11
-1216.4135367412439
 21
-601.49571745973469
 31
0.0
  0
LINE
  5
22F
  8
1
 62
     7
 10
-1216.4135367412439
 20
-604.09379313546583
 30
0.0
 11
-1214.813536741244
 21
-604.09379313546583
 31
0.0
  0
LINE
  5
230
  8
1
 62
     7
 10
-1215.6135367412439
 20
-597.0816508886993
 30
0.0
 11
-1214.813536741244
 21
-597.0816508886993
 31
0.0
  0
LINE
  5
231
  8
1
 62
     7
 10
-1215.6135367412439
 20
-597.0816508886993
 30
0.0
 11
-1215.6135367412439
 21
-604.09379313546583
 31
0.0
  0
LINE
  5
232
  8
1
 62
     7
 10
-1216.4135367412439
 20
-597.11644719972503
 30
0.0
 11
-1215.6135367412439
 21
-597.0816508886993
 31
0.0
  0
LINE
  5
233
  8
1
 62
     7
 10
-1216.4135367412439
 20
-597.11644719972503
 30
0.0
 11
-1216.7272904801
 21
-596.68525433428988
 31
0.0
  0
LINE
  5
234
  8
1
 62
     7
 10
-1216.313536741244
 20
-595.07818167533708
 30
0.0
 11
-1216.313536741244
 21
-593.07471246197542
 31
0.0
  0
LINE
  5
235
  8
1
 62
     7
 10
-1220.403971145965
 20
-594.92173701339777
 30
0.0
 11
-1217.2039711459649
 21
-592.91826780003612
 31
0.0
  0
LINE
  5
236
  8
1
 62
     7
 10
-1221.5752743601299
 20
-594.45240302757986
 30
0.0
 11
-1218.3752743601301
 21
-592.44893381421787
 31
0.0
  0
LINE
  5
237
  8
1
 62
     7
 10
-1217.081190802166
 20
-596.52739182248501
 30
0.0
 11
-1217.413533378558
 21
-596.48773582344768
 31
0.0
  0
LINE
  5
238
  8
1
 62
     7
 10
-1220.169059770225
 20
-595.31619252537382
 30
0.0
 11
-1219.413533378558
 21
-595.44004165356125
 31
0.0
  0
LINE
  5
239
  8
1
 62
     7
 10
-1220.6346393194799
 20
-596.03038714194395
 30
0.0
 11
-1219.413533378558
 21
-596.23020365201114
 31
0.0
  0
LINE
  5
23A
  8
1
 62
     7
 10
-1216.313536741244
 20
-595.07818167533708
 30
0.0
 11
-1215.6135367412439
 21
-597.0816508886993
 31
0.0
  0
LINE
  5
23B
  8
1
 62
     7
 10
-1221.5752743601299
 20
-587.37791480469411
 30
0.0
 11
-1218.3752743601301
 21
-585.37444559133223
 31
0.0
  0
LINE
  5
23C
  8
1
 62
     7
 10
-1222.013510048311
 20
-588.00369345245167
 30
0.0
 11
-1222.013510048311
 21
-595.07818167533708
 31
0.0
  0
LINE
  5
23D
  8
1
 62
     7
 10
-1238.813536741244
 20
-554.55618121856025
 30
0.0
 11
-1235.313536741244
 21
-554.55618121856025
 31
0.0
  0
LINE
  5
23E
  8
1
 62
     7
 10
-1238.813536741244
 20
-555.69863099335134
 30
0.0
 11
-1238.813536741244
 21
-557.17874449156477
 31
0.0
  0
LINE
  5
23F
  8
1
 62
     7
 10
-1239.313536741244
 20
-557.17874449156477
 30
0.0
 11
-1234.813536741244
 21
-557.17874449156477
 31
0.0
  0
LINE
  5
240
  8
1
 62
     7
 10
-1239.313536741244
 20
-564.17224655291102
 30
0.0
 11
-1234.813536741244
 21
-564.17224655291102
 31
0.0
  0
LINE
  5
241
  8
1
 62
     7
 10
-1238.813536741244
 20
-555.69863099335134
 30
0.0
 11
-1235.313536741244
 21
-555.69863099335134
 31
0.0
  0
LINE
  5
242
  8
1
 62
     7
 10
-1235.313536741244
 20
-557.17874449156477
 30
0.0
 11
-1235.313536741244
 21
-555.69863099335134
 31
0.0
  0
LINE
  5
243
  8
1
 62
     7
 10
-1238.313536741244
 20
-555.69863099335134
 30
0.0
 11
-1238.313536741244
 21
-554.55618121856025
 31
0.0
  0
LINE
  5
244
  8
1
 62
     7
 10
-1235.813536741244
 20
-555.69863099335134
 30
0.0
 11
-1235.813536741244
 21
-554.55618121856025
 31
0.0
  0
LINE
  5
245
  8
1
 62
     7
 10
-1235.313536741244
 20
-553.69863099335134
 30
0.0
 11
-1235.313536741244
 21
-554.55618121856025
 31
0.0
  0
LINE
  5
246
  8
1
 62
     7
 10
-1235.313536741244
 20
-553.69863099335134
 30
0.0
 11
-1235.813536741244
 21
-551.39325670714641
 31
0.0
  0
LINE
  5
247
  8
1
 62
     7
 10
-1238.813536741244
 20
-553.69863099335134
 30
0.0
 11
-1238.313536741244
 21
-551.39325670714641
 31
0.0
  0
LINE
  5
248
  8
1
 62
     7
 10
-1238.313536741244
 20
-551.39325670714641
 30
0.0
 11
-1235.813536741244
 21
-551.39325670714641
 31
0.0
  0
LINE
  5
249
  8
1
 62
     7
 10
-1238.813536741244
 20
-554.55618121856025
 30
0.0
 11
-1238.813536741244
 21
-553.69863099335134
 31
0.0
  0
LINE
  5
24A
  8
1
 62
     7
 10
-1239.313536741244
 20
-564.17224655291102
 30
0.0
 11
-1239.313536741244
 21
-557.17874449156477
 31
0.0
  0
LINE
  5
24B
  8
1
 62
     7
 10
-1234.813536741244
 20
-564.17224655291102
 30
0.0
 11
-1234.813536741244
 21
-557.17874449156477
 31
0.0
  0
LINE
  5
24C
  8
1
 62
     7
 10
-1247.7738927369321
 20
-558.47738614967295
 30
0.0
 11
-1245.9143174140161
 21
-565.21912559142322
 31
0.0
  0
LINE
  5
24D
  8
1
 62
     7
 10
-1243.4358905140459
 20
-557.28083413900413
 30
0.0
 11
-1241.5763151911301
 21
-564.02257358075462
 31
0.0
  0
LINE
  5
24E
  8
1
 62
     7
 10
-1244.843254495175
 20
-554.05895323104585
 30
0.0
 11
-1244.615231507127
 21
-554.88563207175525
 31
0.0
  0
LINE
  5
24F
  8
1
 62
     7
 10
-1248.348256029878
 20
-552.63427262079369
 30
0.0
 11
-1245.938254794941
 21
-551.96952150375523
 31
0.0
  0
LINE
  5
250
  8
1
 62
     7
 10
-1245.938254794941
 20
-551.96952150375523
 30
0.0
 11
-1244.843254495175
 21
-554.05895323104585
 31
0.0
  0
LINE
  5
251
  8
1
 62
     7
 10
-1248.348256029878
 20
-552.63427262079369
 30
0.0
 11
-1248.2172562240869
 21
-554.98960479489949
 31
0.0
  0
LINE
  5
252
  8
1
 62
     7
 10
-1247.989233236038
 20
-555.81628363560912
 30
0.0
 11
-1248.2172562240869
 21
-554.98960479489949
 31
0.0
  0
LINE
  5
253
  8
1
 62
     7
 10
-1247.507232989049
 20
-555.68333341220125
 30
0.0
 11
-1247.203455083469
 21
-556.78465555944115
 31
0.0
  0
LINE
  5
254
  8
1
 62
     7
 10
-1245.097231754113
 20
-555.01858229516301
 30
0.0
 11
-1244.7934538485331
 21
-556.11990444240291
 31
0.0
  0
LINE
  5
255
  8
1
 62
     7
 10
-1247.685455330457
 20
-556.91760578284902
 30
0.0
 11
-1247.2918924899441
 21
-558.34443592626531
 31
0.0
  0
LINE
  5
256
  8
1
 62
     7
 10
-1247.685455330457
 20
-556.91760578284902
 30
0.0
 11
-1244.3114536015451
 21
-555.98695421899538
 31
0.0
  0
LINE
  5
257
  8
1
 62
     7
 10
-1241.5763151911301
 20
-564.02257358075462
 30
0.0
 11
-1245.9143174140161
 21
-565.21912559142322
 31
0.0
  0
LINE
  5
258
  8
1
 62
     7
 10
-1243.4358905140459
 20
-557.28083413900413
 30
0.0
 11
-1247.7738927369321
 21
-558.47738614967295
 31
0.0
  0
LINE
  5
259
  8
1
 62
     7
 10
-1243.917890761033
 20
-557.41378436241155
 30
0.0
 11
-1244.3114536015451
 21
-555.98695421899538
 31
0.0
  0
LINE
  5
25A
  8
1
 62
     7
 10
-1244.615231507127
 20
-554.88563207175525
 30
0.0
 11
-1247.989233236038
 21
-555.81628363560912
 31
0.0
  0
LINE
  5
25B
  8
1
 62
     7
 10
-1217.413533378558
 20
-593.04947138793773
 30
0.0
 11
-1217.413533378558
 21
-599.20957243012936
 31
0.0
  0
LINE
  5
25C
  8
1
 62
     7
 10
-1219.413533378558
 20
-594.30163964628866
 30
0.0
 11
-1219.413533378558
 21
-599.20957243012936
 31
0.0
  0
LINE
  5
25D
  8
1
 62
     7
 10
-1217.7135367412441
 20
-601.48126195575264
 30
0.0
 11
-1217.7135367412441
 21
-601.49571745973469
 31
0.0
  0
LINE
  5
25E
  8
1
 62
     7
 10
-1217.413533378558
 20
-598.24571409704947
 30
0.0
 11
-1216.4135367412439
 21
-597.24571745973458
 31
0.0
  0
LINE
  5
25F
  8
1
 62
     7
 10
-1217.413533378558
 20
-596.94571409704963
 30
0.0
 11
-1217.0071596289829
 21
-596.53934034747385
 31
0.0
  0
LINE
  5
260
  8
1
 62
     7
 10
-1217.413533378558
 20
-595.82342231882581
 30
0.0
 11
-1216.6814402608611
 21
-595.98284497400891
 31
0.0
  0
LINE
  5
261
  8
1
 62
     7
 10
-1236.063536741244
 20
-564.17224655291102
 30
0.0
 11
-1236.063536741244
 21
-581.94035410598815
 31
0.0
  0
LINE
  5
262
  8
1
 62
     7
 10
-1232.672227277593
 20
-601.00462932688481
 30
0.0
 11
-1242.781315808598
 21
-564.3549491392738
 31
0.0
  0
LINE
  5
263
  8
1
 62
     7
 10
-1234.6002282655429
 20
-601.53643022051551
 30
0.0
 11
-1244.709316796547
 21
-564.88675003290427
 31
0.0
  0
LINE
  5
264
  8
1
 62
     7
 10
-1238.063536741244
 20
-581.45887433332496
 30
0.0
 11
-1238.063536741244
 21
-564.17224655291102
 31
0.0
  0
LINE
  5
265
  8
1
 62
     7
 10
-1376.6854056454979
 20
-561.39512824993631
 30
0.0
 11
-1377.8064605610041
 21
-565.53624723565974
 31
0.0
  0
LINE
  5
266
  8
1
 62
     7
 10
-1379.737457064344
 20
-565.04998082879604
 30
0.0
 11
-1378.619295241394
 21
-560.87694409446499
 31
0.0
  0
LINE
  5
267
  8
1
 62
     7
 10
-1297.0420521834151
 20
-564.39368936455298
 30
0.0
 11
-1302.95829966726
 21
-585.30064998534556
 31
0.0
  0
LINE
  5
268
  8
1
 62
     7
 10
-1295.2545007387189
 20
-564.88675003290439
 30
0.0
 11
-1301.0326969424741
 21
-585.83513150956878
 31
0.0
  0
LINE
  5
269
  8
1
 62
     7
 10
-1301.900280794023
 20
-564.17224655291102
 30
0.0
 11
-1301.900280794023
 21
-577.48266414268028
 31
0.0
  0
LINE
  5
26A
  8
1
 62
     7
 10
-1303.900280794023
 20
-577.48266414268335
 30
0.0
 11
-1303.900280794023
 21
-564.17224655291102
 31
0.0
  0
LINE
  5
26B
  8
1
 62
     7
 10
-1304.650280794023
 20
-554.55618121856025
 30
0.0
 11
-1301.150280794023
 21
-554.55618121856025
 31
0.0
  0
LINE
  5
26C
  8
1
 62
     7
 10
-1301.150280794023
 20
-557.17874449156477
 30
0.0
 11
-1301.150280794023
 21
-555.69863099335134
 31
0.0
  0
LINE
  5
26D
  8
1
 62
     7
 10
-1305.150280794023
 20
-557.17874449156477
 30
0.0
 11
-1300.650280794023
 21
-557.17874449156477
 31
0.0
  0
LINE
  5
26E
  8
1
 62
     7
 10
-1305.150280794023
 20
-564.17224655291102
 30
0.0
 11
-1300.650280794023
 21
-564.17224655291102
 31
0.0
  0
LINE
  5
26F
  8
1
 62
     7
 10
-1304.650280794023
 20
-555.69863099335134
 30
0.0
 11
-1301.150280794023
 21
-555.69863099335134
 31
0.0
  0
LINE
  5
270
  8
1
 62
     7
 10
-1304.650280794023
 20
-555.69863099335134
 30
0.0
 11
-1304.650280794023
 21
-557.17874449156477
 31
0.0
  0
LINE
  5
271
  8
1
 62
     7
 10
-1301.650280794023
 20
-554.55618121856025
 30
0.0
 11
-1301.650280794023
 21
-555.69863099335134
 31
0.0
  0
LINE
  5
272
  8
1
 62
     7
 10
-1304.150280794023
 20
-554.55618121856025
 30
0.0
 11
-1304.150280794023
 21
-555.69863099335134
 31
0.0
  0
LINE
  5
273
  8
1
 62
     7
 10
-1304.650280794023
 20
-554.55618121856025
 30
0.0
 11
-1304.650280794023
 21
-553.69863099335134
 31
0.0
  0
LINE
  5
274
  8
1
 62
     7
 10
-1304.150280794023
 20
-551.39325670714641
 30
0.0
 11
-1304.650280794023
 21
-553.69863099335134
 31
0.0
  0
LINE
  5
275
  8
1
 62
     7
 10
-1301.650280794023
 20
-551.39325670714641
 30
0.0
 11
-1301.150280794023
 21
-553.69863099335134
 31
0.0
  0
LINE
  5
276
  8
1
 62
     7
 10
-1304.150280794023
 20
-551.39325670714641
 30
0.0
 11
-1301.650280794023
 21
-551.39325670714641
 31
0.0
  0
LINE
  5
277
  8
1
 62
     7
 10
-1301.150280794023
 20
-553.69863099335134
 30
0.0
 11
-1301.150280794023
 21
-554.55618121856025
 31
0.0
  0
LINE
  5
278
  8
1
 62
     7
 10
-1300.650280794023
 20
-557.17874449156477
 30
0.0
 11
-1300.650280794023
 21
-564.17224655291102
 31
0.0
  0
LINE
  5
279
  8
1
 62
     7
 10
-1305.150280794023
 20
-557.17874449156477
 30
0.0
 11
-1305.150280794023
 21
-564.17224655291102
 31
0.0
  0
LINE
  5
27A
  8
1
 62
     7
 10
-1294.049500121251
 20
-565.21912559142322
 30
0.0
 11
-1292.1899247983349
 21
-558.47738614967295
 31
0.0
  0
LINE
  5
27B
  8
1
 62
     7
 10
-1294.049500121251
 20
-565.21912559142322
 30
0.0
 11
-1298.387502344136
 21
-564.02257358075462
 31
0.0
  0
LINE
  5
27C
  8
1
 62
     7
 10
-1292.1899247983349
 20
-558.47738614967295
 30
0.0
 11
-1296.5279270212211
 21
-557.28083413900413
 31
0.0
  0
LINE
  5
27D
  8
1
 62
     7
 10
-1298.387502344136
 20
-564.02257358075462
 30
0.0
 11
-1296.5279270212211
 21
-557.28083413900413
 31
0.0
  0
LINE
  5
27E
  8
1
 62
     7
 10
-1295.3485860281401
 20
-554.88563207175525
 30
0.0
 11
-1295.1205630400909
 21
-554.05895323104585
 31
0.0
  0
LINE
  5
27F
  8
1
 62
     7
 10
-1294.0255627403251
 20
-551.96952150375523
 30
0.0
 11
-1291.615561505389
 21
-552.63427262079369
 31
0.0
  0
LINE
  5
280
  8
1
 62
     7
 10
-1295.1205630400909
 20
-554.05895323104585
 30
0.0
 11
-1294.0255627403251
 21
-551.96952150375523
 31
0.0
  0
LINE
  5
281
  8
1
 62
     7
 10
-1291.746561311179
 20
-554.98960479489949
 30
0.0
 11
-1291.615561505389
 21
-552.63427262079369
 31
0.0
  0
LINE
  5
282
  8
1
 62
     7
 10
-1291.746561311179
 20
-554.98960479489949
 30
0.0
 11
-1291.974584299229
 21
-555.81628363560912
 31
0.0
  0
LINE
  5
283
  8
1
 62
     7
 10
-1291.974584299229
 20
-555.81628363560912
 30
0.0
 11
-1292.1462597933089
 21
-555.76893035014007
 31
0.0
  0
LINE
  5
284
  8
1
 62
     7
 10
-1292.760362451796
 20
-556.78465555944115
 30
0.0
 11
-1292.4565845462159
 21
-555.68333341220125
 31
0.0
  0
LINE
  5
285
  8
1
 62
     7
 10
-1295.170363686733
 20
-556.11990444240291
 30
0.0
 11
-1294.8665857811529
 21
-555.01858229516301
 31
0.0
  0
LINE
  5
286
  8
1
 62
     7
 10
-1292.671925045322
 20
-558.34443592626531
 30
0.0
 11
-1292.27836220481
 21
-556.91760578284902
 31
0.0
  0
LINE
  5
287
  8
1
 62
     7
 10
-1295.6523639337211
 20
-555.98695421899538
 30
0.0
 11
-1292.27836220481
 21
-556.91760578284902
 31
0.0
  0
LINE
  5
288
  8
1
 62
     7
 10
-1295.6523639337211
 20
-555.98695421899538
 30
0.0
 11
-1296.045926774234
 21
-557.41378436241155
 31
0.0
  0
LINE
  5
289
  8
1
 62
     7
 10
-1295.3485860281401
 20
-554.88563207175525
 30
0.0
 11
-1292.1462597933089
 21
-555.76893035014007
 31
0.0
  0
LINE
  5
28A
  8
1
 62
     7
 10
-1369.3304498598079
 20
-597.02272532360018
 30
0.0
 11
-1357.3096345796371
 21
-585.00191004342889
 31
0.0
  0
LINE
  5
28B
  8
1
 62
     7
 10
-1357.3096345796371
 20
-585.00191004342889
 30
0.0
 11
-1350.2385667677711
 21
-592.07297785529454
 31
0.0
  0
LINE
  5
28C
  8
1
 62
     7
 10
-1362.2593820479431
 20
-604.09379313546583
 30
0.0
 11
-1350.2385667677711
 21
-592.07297785529454
 31
0.0
  0
LINE
  5
28D
  8
1
 62
     7
 10
-1369.3304498598079
 20
-597.02272532360018
 30
0.0
 11
-1362.2593820479431
 21
-604.09379313546583
 31
0.0
  0
LINE
  5
28E
  8
1
 62
     7
 10
-1361.0398763504561
 20
-599.19733217580949
 30
0.0
 11
-1360.5307594680021
 21
-598.68821529335526
 31
0.0
  0
LINE
  5
28F
  8
1
 62
     7
 10
-1364.433988900151
 20
-598.68821529335526
 30
0.0
 11
-1363.9248720176979
 21
-599.19733217580949
 31
0.0
  0
LINE
  5
290
  8
1
 62
     7
 10
-1363.9248720176979
 20
-595.29410274365966
 30
0.0
 11
-1364.433988900151
 21
-595.80321962611401
 31
0.0
  0
LINE
  5
291
  8
1
 62
     7
 10
-1360.5307594680021
 20
-595.80321962611401
 30
0.0
 11
-1361.0398763504561
 21
-595.29410274366001
 31
0.0
  0
LINE
  5
292
  8
1
 62
     7
 10
-1374.755591936238
 20
-561.91222027487584
 30
0.0
 11
-1375.8737537591869
 21
-566.08525700920586
 31
0.0
  0
LINE
  5
293
  8
1
 62
     7
 10
-1214.813536741244
 20
-579.77262939431591
 30
0.0
 11
-1214.813536741244
 21
-679.77262939431557
 31
0.0
  0
LINE
  5
294
  8
1
  6
DASHDOT
 62
     3
 10
-911.87757657065413
 20
-545.78071456209284
 30
0.0
 11
-911.87757657065413
 21
-553.76454422653899
 31
0.0
  0
LINE
  5
295
  8
1
  6
DASHDOT
 62
     3
 10
-907.88566173843094
 20
-549.7726293943158
 30
0.0
 11
-915.86949140287709
 21
-549.7726293943158
 31
0.0
  0
LINE
  5
296
  8
1
  6
DASHDOT
 62
     3
 10
-1395.0092861186581
 20
-545.41295781039378
 30
0.0
 11
-1395.0092861186581
 21
-554.13230097823805
 31
0.0
  0
LINE
  5
297
  8
1
  6
DASHDOT
 62
     3
 10
-1390.649614534736
 20
-549.7726293943158
 30
0.0
 11
-1399.36895770258
 21
-549.7726293943158
 31
0.0
  0
LINE
  5
298
  8
1
 62
     3
 10
-1092.4587264854979
 20
-629.77262939431591
 30
0.0
 11
-1097.4587264854979
 21
-629.77262939431591
 31
0.0
  0
LINE
  5
299
  8
1
 62
     3
 10
-1216.813536741244
 20
-629.77262939431591
 30
0.0
 11
-1221.813536741244
 21
-629.77262939431591
 31
0.0
  0
LINE
  5
29A
  8
1
  6
DASHDOT
 62
     3
 10
-1169.323284004819
 20
-664.77262939431591
 30
0.0
 11
-1154.6567340195641
 21
-664.77262939431591
 31
0.0
  0
LINE
  5
29B
  8
1
 62
     7
 10
-1167.513536741244
 20
-580.77262939431591
 30
0.0
 11
-1167.513536741244
 21
-699.34712932046023
 31
0.0
  0
LINE
  5
29C
  8
1
 62
     7
 10
-1166.313536741244
 20
-667.77262939431591
 30
0.0
 11
-1157.7135367412441
 21
-667.77262939431591
 31
0.0
  0
LINE
  5
29D
  8
1
 62
     7
 10
-1167.9135367412439
 20
-700.34712932046023
 30
0.0
 11
-1167.9135367412439
 21
-559.27262939431591
 31
0.0
  0
LINE
  5
29E
  8
1
 62
     7
 10
-1212.813536741244
 20
-694.2726293943158
 30
0.0
 11
-1212.813536741244
 21
-565.27262939431591
 31
0.0
  0
LINE
  5
29F
  8
1
 62
     7
 10
-1191.313536741244
 20
-559.77262939431591
 30
0.0
 11
-1191.313536741244
 21
-699.77262939431569
 31
0.0
  0
LINE
  5
2A0
  8
1
 62
     3
 10
-1161.53914999008
 20
-629.77262939431591
 30
0.0
 11
-1166.313536741244
 21
-629.77262939431591
 31
0.0
  0
LINE
  5
2A1
  8
1
 62
     3
 10
-1157.1135367412439
 20
-662.37262939431582
 30
0.0
 11
-1166.313536741244
 21
-662.37262939431582
 31
0.0
  0
LINE
  5
2A2
  8
1
 62
     3
 10
-1157.1135367412439
 20
-667.17262939431589
 30
0.0
 11
-1166.313536741244
 21
-667.17262939431589
 31
0.0
  0
LINE
  5
2A3
  8
1
 62
     7
 10
-1157.7135367412441
 20
-667.77262939431591
 30
0.0
 11
-1157.7135367412441
 21
-661.7726293943158
 31
0.0
  0
LINE
  5
2A4
  8
1
 62
     7
 10
-1157.7135367412441
 20
-661.7726293943158
 30
0.0
 11
-1166.313536741244
 21
-661.7726293943158
 31
0.0
  0
LINE
  5
2A5
  8
1
 62
     7
 10
-1157.1135367412439
 20
-662.37262939431582
 30
0.0
 11
-1157.7135367412441
 21
-661.7726293943158
 31
0.0
  0
LINE
  5
2A6
  8
1
 62
     7
 10
-1157.1135367412439
 20
-667.17262939431589
 30
0.0
 11
-1157.1135367412439
 21
-662.37262939431582
 31
0.0
  0
LINE
  5
2A7
  8
1
 62
     7
 10
-1157.7135367412441
 20
-667.77262939431591
 30
0.0
 11
-1157.1135367412439
 21
-667.17262939431589
 31
0.0
  0
LINE
  5
2A8
  8
1
 62
     7
 10
-1214.813536741244
 20
-607.2726293943158
 30
0.0
 11
-1215.813536741244
 21
-607.2726293943158
 31
0.0
  0
LINE
  5
2A9
  8
1
 62
     7
 10
-1210.813536741244
 20
-563.27262939431591
 30
0.0
 11
-1212.813536741244
 21
-565.27262939431591
 31
0.0
  0
LINE
  5
2AA
  8
1
 62
     7
 10
-1191.313536741244
 20
-563.27262939431591
 30
0.0
 11
-1210.813536741244
 21
-563.27262939431591
 31
0.0
  0
LINE
  5
2AB
  8
1
 62
     7
 10
-1214.813536741244
 20
-579.77262939431591
 30
0.0
 11
-1212.813536741244
 21
-579.77262939431591
 31
0.0
  0
LINE
  5
2AC
  8
1
 62
     7
 10
-1191.313536741244
 20
-559.77262939431591
 30
0.0
 11
-1175.8135367412431
 21
-559.77262939431591
 31
0.0
  0
LINE
  5
2AD
  8
1
 62
     7
 10
-1175.8135367412431
 20
-559.77262939431591
 30
0.0
 11
-1175.8135367412431
 21
-699.77262939431569
 31
0.0
  0
LINE
  5
2AE
  8
1
 62
     7
 10
-1215.813536741244
 20
-607.2726293943158
 30
0.0
 11
-1216.813536741244
 21
-608.27262939431591
 31
0.0
  0
LINE
  5
2AF
  8
1
 62
     7
 10
-1216.813536741244
 20
-651.27262939431557
 30
0.0
 11
-1215.813536741244
 21
-652.27262939431569
 31
0.0
  0
LINE
  5
2B0
  8
1
 62
     7
 10
-1175.8135367412431
 20
-699.77262939431569
 30
0.0
 11
-1191.313536741244
 21
-699.77262939431569
 31
0.0
  0
LINE
  5
2B1
  8
1
 62
     7
 10
-1212.813536741244
 20
-679.77262939431557
 30
0.0
 11
-1214.813536741244
 21
-679.77262939431557
 31
0.0
  0
LINE
  5
2B2
  8
1
 62
     7
 10
-1210.813536741244
 20
-696.27262939431569
 30
0.0
 11
-1191.313536741244
 21
-696.27262939431614
 31
0.0
  0
LINE
  5
2B3
  8
1
 62
     7
 10
-1212.813536741244
 20
-694.2726293943158
 30
0.0
 11
-1210.813536741244
 21
-696.27262939431569
 31
0.0
  0
LINE
  5
2B4
  8
1
 62
     7
 10
-1215.813536741244
 20
-652.27262939431569
 30
0.0
 11
-1214.813536741244
 21
-652.27262939431569
 31
0.0
  0
LINE
  5
2B5
  8
1
 62
     7
 10
-1216.813536741244
 20
-651.27262939431557
 30
0.0
 11
-1216.813536741244
 21
-608.27262939431591
 31
0.0
  0
LINE
  5
2B6
  8
1
 62
     7
 10
-1175.4135367412439
 20
-559.27262939431591
 30
0.0
 11
-1167.9135367412439
 21
-559.27262939431591
 31
0.0
  0
LINE
  5
2B7
  8
1
 62
     7
 10
-1166.313536741244
 20
-699.34712932046023
 30
0.0
 11
-1166.313536741244
 21
-580.61464639721123
 31
0.0
  0
LINE
  5
2B8
  8
1
 62
     7
 10
-1166.7135367412441
 20
-561.52262939431591
 30
0.0
 11
-1165.7135367412441
 21
-561.52262939431591
 31
0.0
  0
LINE
  5
2B9
  8
1
 62
     7
 10
-1165.7135367412441
 20
-561.52262939431591
 30
0.0
 11
-1165.7135367412441
 21
-571.52262939431591
 31
0.0
  0
LINE
  5
2BA
  8
1
 62
     7
 10
-1165.7135367412441
 20
-571.52262939431591
 30
0.0
 11
-1166.7135367412441
 21
-571.52262939431591
 31
0.0
  0
LINE
  5
2BB
  8
1
 62
     7
 10
-1166.7135367412441
 20
-576.27073846420967
 30
0.0
 11
-1166.7135367412441
 21
-560.27262939431591
 31
0.0
  0
LINE
  5
2BC
  8
1
 62
     7
 10
-1165.7135367412441
 20
-562.2726293943158
 30
0.0
 11
-1165.7135367412441
 21
-570.77262939431591
 31
0.0
  0
LINE
  5
2BD
  8
1
 62
     7
 10
-1165.7135367412441
 20
-562.2726293943158
 30
0.0
 11
-1161.0135367412429
 21
-562.2726293943158
 31
0.0
  0
LINE
  5
2BE
  8
1
 62
     7
 10
-1161.0135367412429
 20
-562.2726293943158
 30
0.0
 11
-1160.7135367412441
 21
-562.79224463658647
 31
0.0
  0
LINE
  5
2BF
  8
1
 62
     7
 10
-1160.7135367412441
 20
-562.79224463658647
 30
0.0
 11
-1160.7135367412441
 21
-570.25301415204524
 31
0.0
  0
LINE
  5
2C0
  8
1
 62
     7
 10
-1160.7135367412441
 20
-570.25301415204524
 30
0.0
 11
-1161.0135367412429
 21
-570.77262939431591
 31
0.0
  0
LINE
  5
2C1
  8
1
 62
     7
 10
-1161.0135367412429
 20
-570.77262939431591
 30
0.0
 11
-1165.7135367412441
 21
-570.77262939431591
 31
0.0
  0
LINE
  5
2C2
  8
1
 62
     7
 10
-1165.7135367412441
 20
-570.77262939431591
 30
0.0
 11
-1165.7135367412441
 21
-562.2726293943158
 31
0.0
  0
LINE
  5
2C3
  8
1
 62
     7
 10
-1161.0135367412429
 20
-562.2726293943158
 30
0.0
 11
-1161.0135367412429
 21
-570.77262939431591
 31
0.0
  0
LINE
  5
2C4
  8
1
 62
     7
 10
-1167.9135367412439
 20
-560.27262939431591
 30
0.0
 11
-1166.7135367412441
 21
-560.27262939431591
 31
0.0
  0
LINE
  5
2C5
  8
1
 62
     7
 10
-1167.513536741244
 20
-580.77262939431591
 30
0.0
 11
-1167.886824851719
 21
-576.50592676759129
 31
0.0
  0
LINE
  5
2C6
  8
1
 62
     7
 10
-1166.313536741244
 20
-580.61464639721123
 30
0.0
 11
-1166.7135367412441
 21
-576.14821534172381
 31
0.0
  0
LINE
  5
2C7
  8
1
 62
     7
 10
-1175.4135367412439
 20
-700.27262939431591
 30
0.0
 11
-1175.4135367412439
 21
-559.27262939431591
 31
0.0
  0
LINE
  5
2C8
  8
1
 62
     7
 10
-1167.9135367412439
 20
-700.34712932046023
 30
0.0
 11
-1175.4135367412439
 21
-700.27262939431591
 31
0.0
  0
LINE
  5
2C9
  8
1
 62
     7
 10
-1167.513536741244
 20
-699.34712932046023
 30
0.0
 11
-1166.313536741244
 21
-699.34712932046023
 31
0.0
  0
LINE
  5
2CA
  8
1
 62
     7
 10
-1214.6859947898911
 20
-578.7726293943158
 30
0.0
 11
-1214.6859947898911
 21
-555.91670846566399
 31
0.0
  0
LINE
  5
2CB
  8
1
 62
     7
 10
-1212.813536741244
 20
-566.54305274515707
 30
0.0
 11
-1212.813536741244
 21
-555.49555462448495
 31
0.0
  0
LINE
  5
2CC
  8
1
 62
     7
 10
-1214.6859947898911
 20
-543.77262939431591
 30
0.0
 11
-1212.813536741244
 21
-543.77262939431591
 31
0.0
  0
LINE
  5
2CD
  8
1
 62
     3
 10
-1215.9283774424539
 20
-549.7726293943158
 30
0.0
 11
-1211.491296540444
 21
-549.7726293943158
 31
0.0
  0
LINE
  5
2CE
  8
1
 62
     7
 10
-1214.6859947898911
 20
-578.7726293943158
 30
0.0
 11
-1212.813536741244
 21
-578.7726293943158
 31
0.0
  0
LINE
  5
2CF
  8
1
 62
     7
 10
-1078.1267717809731
 20
-543.43037021337443
 30
0.0
 11
-1078.1267717809731
 21
-563.27262939431591
 31
0.0
  0
LINE
  5
2D0
  8
1
 62
     7
 10
-1080.6267717809719
 20
-543.43037021337443
 30
0.0
 11
-1080.6267717809719
 21
-563.27262939431591
 31
0.0
  0
LINE
  5
2D1
  8
1
  6
DASHDOT
 62
     3
 10
-911.87757657065413
 20
-624.77455580766605
 30
0.0
 11
-911.87757657065413
 21
-634.77070298096567
 31
0.0
  0
LINE
  5
2D2
  8
1
  6
DASHDOT
 62
     3
 10
-906.87950298400426
 20
-629.77262939431591
 30
0.0
 11
-916.87565015730388
 21
-629.77262939431591
 31
0.0
  0
LINE
  5
2D3
  8
1
 62
     7
 10
-965.11366997989001
 20
-668.01405575420722
 30
0.0
 11
-963.11366997988989
 21
-669.16875629258664
 31
0.0
  0
LINE
  5
2D4
  8
1
 62
     7
 10
-963.11366997988989
 20
-669.16875629258664
 30
0.0
 11
-961.11366997988989
 21
-668.01405575420745
 31
0.0
  0
LINE
  5
2D5
  8
1
 62
     7
 10
-961.11366997988989
 20
-668.01405575420745
 30
0.0
 11
-961.11366997988989
 21
-665.70465467744896
 31
0.0
  0
LINE
  5
2D6
  8
1
 62
     7
 10
-961.11366997988989
 20
-665.70465467744896
 30
0.0
 11
-963.11366997988989
 21
-664.54995413906965
 31
0.0
  0
LINE
  5
2D7
  8
1
 62
     7
 10
-963.11366997988989
 20
-664.54995413906965
 30
0.0
 11
-965.11366997989001
 21
-665.70465467744896
 31
0.0
  0
LINE
  5
2D8
  8
1
 62
     7
 10
-965.11366997989001
 20
-665.70465467744896
 30
0.0
 11
-965.11366997989001
 21
-668.01405575420722
 31
0.0
  0
LINE
  5
2D9
  8
1
 62
     7
 10
-971.61366997989001
 20
-656.75572550500965
 30
0.0
 11
-969.61366997989001
 21
-657.91042604338895
 31
0.0
  0
LINE
  5
2DA
  8
1
 62
     7
 10
-969.61366997989001
 20
-657.91042604338895
 30
0.0
 11
-967.61366997989012
 21
-656.75572550500965
 31
0.0
  0
LINE
  5
2DB
  8
1
 62
     7
 10
-967.61366997989012
 20
-656.75572550500965
 30
0.0
 11
-967.61366997989012
 21
-654.44632442825116
 31
0.0
  0
LINE
  5
2DC
  8
1
 62
     7
 10
-967.61366997989012
 20
-654.44632442825116
 30
0.0
 11
-969.61366997989001
 21
-653.29162388987174
 31
0.0
  0
LINE
  5
2DD
  8
1
 62
     7
 10
-969.61366997989001
 20
-653.29162388987174
 30
0.0
 11
-971.61366997989001
 21
-654.44632442825116
 31
0.0
  0
LINE
  5
2DE
  8
1
 62
     7
 10
-971.61366997989001
 20
-654.44632442825116
 30
0.0
 11
-971.61366997989001
 21
-656.75572550500965
 31
0.0
  0
LINE
  5
2DF
  8
1
 62
     7
 10
-918.37757657065401
 20
-569.1669090772474
 30
0.0
 11
-916.37757657065413
 21
-568.01220853886798
 31
0.0
  0
LINE
  5
2E0
  8
1
 62
     7
 10
-916.37757657065413
 20
-568.01220853886798
 30
0.0
 11
-916.37757657065413
 21
-565.7028074621096
 31
0.0
  0
LINE
  5
2E1
  8
1
 62
     7
 10
-918.37757657065401
 20
-564.54810692373019
 30
0.0
 11
-920.37757657065401
 21
-565.7028074621096
 31
0.0
  0
LINE
  5
2E2
  8
1
 62
     7
 10
-920.37757657065401
 20
-565.7028074621096
 30
0.0
 11
-920.37757657065401
 21
-568.01220853886798
 31
0.0
  0
LINE
  5
2E3
  8
1
 62
     7
 10
-916.37757657065413
 20
-568.01220853886798
 30
0.0
 11
-916.37757657065413
 21
-565.7028074621096
 31
0.0
  0
LINE
  5
2E4
  8
1
 62
     7
 10
-916.37757657065413
 20
-565.7028074621096
 30
0.0
 11
-918.37757657065401
 21
-564.54810692373019
 31
0.0
  0
LINE
  5
2E5
  8
1
 62
     7
 10
-920.37757657065401
 20
-565.7028074621096
 30
0.0
 11
-920.37757657065401
 21
-568.01220853886798
 31
0.0
  0
LINE
  5
2E6
  8
1
 62
     7
 10
-920.37757657065401
 20
-568.01220853886798
 30
0.0
 11
-918.37757657065401
 21
-569.1669090772474
 31
0.0
  0
LINE
  5
2E7
  8
1
 62
     7
 10
-919.37757657065401
 20
-543.77262939431591
 30
0.0
 11
-919.87757657065413
 21
-544.27262939431591
 31
0.0
  0
LINE
  5
2E8
  8
1
 62
     7
 10
-919.87757657065413
 20
-559.72800076370629
 30
0.0
 11
-919.87757657065413
 21
-544.27262939431591
 31
0.0
  0
LINE
  5
2E9
  8
1
  6
DASHDOT
 62
     3
 10
-937.14064041456732
 20
-644.35826610515369
 30
0.0
 11
-947.95341594204604
 21
-650.60102496663058
 31
0.0
  0
LINE
  5
2EA
  8
1
  6
DASHDOT
 62
     3
 10
-937.14064041456732
 20
-615.18699268347791
 30
0.0
 11
-947.95341594204558
 21
-608.94423382200114
 31
0.0
  0
LINE
  5
2EB
  8
1
 62
     7
 10
-919.37757657065401
 20
-543.77262939431591
 30
0.0
 11
-904.37757657065413
 21
-543.77262939431591
 31
0.0
  0
LINE
  5
2EC
  8
1
 62
     7
 10
-915.3775765706539
 20
-617.77262939431591
 30
0.0
 11
-915.3775765706539
 21
-614.27262939431591
 31
0.0
  0
LINE
  5
2ED
  8
1
 62
     7
 10
-915.3775765706539
 20
-614.27262939431591
 30
0.0
 11
-908.37757657065424
 21
-614.27262939431591
 31
0.0
  0
LINE
  5
2EE
  8
1
  6
DASHDOT
 62
     3
 10
-1395.0092861186581
 20
-624.77263683631361
 30
0.0
 11
-1395.0092861186581
 21
-634.77262195231822
 31
0.0
  0
LINE
  5
2EF
  8
1
  6
DASHDOT
 62
     3
 10
-1390.009293560656
 20
-629.77262939431591
 30
0.0
 11
-1400.00927867666
 21
-629.77262939431591
 31
0.0
  0
LINE
  5
2F0
  8
1
 62
     7
 10
-1402.0092861186581
 20
-656.86803707936451
 30
0.0
 11
-1399.5092861186581
 21
-656.86803707936451
 31
0.0
  0
LINE
  5
2F1
  8
1
 62
     7
 10
-1399.5092861186581
 20
-656.86803707936451
 30
0.0
 11
-1399.5092861186581
 21
-651.81803707936456
 31
0.0
  0
LINE
  5
2F2
  8
1
 62
     7
 10
-1404.5092861186581
 20
-654.3680370793644
 30
0.0
 11
-1404.5092861186581
 21
-651.28512597265797
 31
0.0
  0
LINE
  5
2F3
  8
1
 62
     7
 10
-1401.2829746360101
 20
-543.77262939431591
 30
0.0
 11
-1388.7355976013059
 21
-543.77262939431591
 31
0.0
  0
LINE
  5
2F4
  8
1
 62
     7
 10
-1403.0092861186581
 20
-566.77262939431591
 30
0.0
 11
-1403.0092861186581
 21
-545.77262939431591
 31
0.0
  0
LINE
  5
2F5
  8
1
 62
     7
 10
-1406.0092861186581
 20
-568.77262939431591
 30
0.0
 11
-1405.0092861186581
 21
-568.77262939431591
 31
0.0
  0
LINE
  5
2F6
  8
1
 62
     7
 10
-1408.0092861186581
 20
-578.7726293943158
 30
0.0
 11
-1408.0092861186581
 21
-570.77262939431591
 31
0.0
  0
LINE
  5
2F7
  8
1
 62
     7
 10
-1408.0092861186581
 20
-578.7726293943158
 30
0.0
 11
-1382.0092861186581
 21
-578.7726293943158
 31
0.0
  0
LINE
  5
2F8
  8
1
 62
     7
 10
-1398.5092861186581
 20
-614.27262939431591
 30
0.0
 11
-1391.5092861186581
 21
-614.27262939431591
 31
0.0
  0
LINE
  5
2F9
  8
1
 62
     7
 10
-1398.5092861186581
 20
-617.77262939431591
 30
0.0
 11
-1398.5092861186581
 21
-614.27262939431591
 31
0.0
  0
LINE
  5
2FA
  8
1
 62
     7
 10
-860.64148316141825
 20
-669.16875629258664
 30
0.0
 11
-858.64148316141814
 21
-668.01405575420722
 31
0.0
  0
LINE
  5
2FB
  8
1
 62
     7
 10
-862.64148316141825
 20
-668.01405575420745
 30
0.0
 11
-860.64148316141825
 21
-669.16875629258664
 31
0.0
  0
LINE
  5
2FC
  8
1
 62
     7
 10
-862.64148316141825
 20
-665.70465467744896
 30
0.0
 11
-862.64148316141825
 21
-668.01405575420745
 31
0.0
  0
LINE
  5
2FD
  8
1
 62
     7
 10
-860.64148316141814
 20
-664.54995413906965
 30
0.0
 11
-862.64148316141825
 21
-665.70465467744896
 31
0.0
  0
LINE
  5
2FE
  8
1
 62
     7
 10
-858.64148316141814
 20
-665.70465467744896
 30
0.0
 11
-860.64148316141814
 21
-664.54995413906965
 31
0.0
  0
LINE
  5
2FF
  8
1
 62
     7
 10
-858.64148316141814
 20
-668.01405575420722
 30
0.0
 11
-858.64148316141814
 21
-665.70465467744896
 31
0.0
  0
LINE
  5
300
  8
1
 62
     7
 10
-854.14148316141825
 20
-657.91042604338895
 30
0.0
 11
-852.14148316141825
 21
-656.75572550500965
 31
0.0
  0
LINE
  5
301
  8
1
 62
     7
 10
-856.14148316141814
 20
-656.75572550500965
 30
0.0
 11
-854.14148316141825
 21
-657.91042604338895
 31
0.0
  0
LINE
  5
302
  8
1
 62
     7
 10
-856.14148316141825
 20
-654.44632442825116
 30
0.0
 11
-856.14148316141814
 21
-656.75572550500965
 31
0.0
  0
LINE
  5
303
  8
1
 62
     7
 10
-854.14148316141814
 20
-653.29162388987174
 30
0.0
 11
-856.14148316141825
 21
-654.44632442825116
 31
0.0
  0
LINE
  5
304
  8
1
 62
     7
 10
-852.14148316141825
 20
-654.44632442825116
 30
0.0
 11
-854.14148316141814
 21
-653.29162388987174
 31
0.0
  0
LINE
  5
305
  8
1
 62
     7
 10
-852.14148316141825
 20
-656.75572550500965
 30
0.0
 11
-852.14148316141825
 21
-654.44632442825116
 31
0.0
  0
LINE
  5
306
  8
1
 62
     7
 10
-907.37757657065436
 20
-568.01220853886798
 30
0.0
 11
-905.37757657065447
 21
-569.1669090772474
 31
0.0
  0
LINE
  5
307
  8
1
 62
     7
 10
-907.37757657065436
 20
-565.7028074621096
 30
0.0
 11
-907.37757657065436
 21
-568.01220853886798
 31
0.0
  0
LINE
  5
308
  8
1
 62
     7
 10
-903.37757657065447
 20
-565.7028074621096
 30
0.0
 11
-905.37757657065447
 21
-564.54810692373019
 31
0.0
  0
LINE
  5
309
  8
1
 62
     7
 10
-903.37757657065447
 20
-568.01220853886798
 30
0.0
 11
-903.37757657065447
 21
-565.7028074621096
 31
0.0
  0
LINE
  5
30A
  8
1
 62
     7
 10
-907.37757657065436
 20
-565.7028074621096
 30
0.0
 11
-907.37757657065436
 21
-568.01220853886798
 31
0.0
  0
LINE
  5
30B
  8
1
 62
     7
 10
-905.37757657065447
 20
-564.54810692373019
 30
0.0
 11
-907.37757657065436
 21
-565.7028074621096
 31
0.0
  0
LINE
  5
30C
  8
1
 62
     7
 10
-903.37757657065447
 20
-568.01220853886798
 30
0.0
 11
-903.37757657065447
 21
-565.7028074621096
 31
0.0
  0
LINE
  5
30D
  8
1
 62
     7
 10
-905.37757657065447
 20
-569.1669090772474
 30
0.0
 11
-903.37757657065447
 21
-568.01220853886798
 31
0.0
  0
LINE
  5
30E
  8
1
 62
     3
 10
-1037.184339734333
 20
-629.77262939431591
 30
0.0
 11
-1041.9587264854979
 21
-629.77262939431591
 31
0.0
  0
LINE
  5
30F
  8
1
 62
     7
 10
-1390.5092861186581
 20
-656.86803707936451
 30
0.0
 11
-1388.0092861186581
 21
-656.86803707936451
 31
0.0
  0
LINE
  5
310
  8
1
 62
     7
 10
-1390.5092861186581
 20
-651.81803707936456
 30
0.0
 11
-1390.5092861186581
 21
-656.86803707936451
 31
0.0
  0
LINE
  5
311
  8
1
 62
     7
 10
-1385.5092861186581
 20
-651.28512597265797
 30
0.0
 11
-1385.5092861186581
 21
-654.3680370793644
 31
0.0
  0
LINE
  5
312
  8
1
 62
     3
 10
-1043.219496000957
 20
-667.77262939431591
 30
0.0
 11
-1043.219496000957
 21
-661.7726293943158
 31
0.0
  0
LINE
  5
313
  8
1
 62
     3
 10
-1043.219496000957
 20
-662.37262939431582
 30
0.0
 11
-1044.2587264854981
 21
-661.7726293943158
 31
0.0
  0
LINE
  5
314
  8
1
 62
     3
 10
-1032.7587264854981
 20
-662.37262939431582
 30
0.0
 11
-1043.219496000957
 21
-662.37262939431582
 31
0.0
  0
LINE
  5
315
  8
1
 62
     3
 10
-1043.219496000957
 20
-667.17262939431589
 30
0.0
 11
-1044.2587264854981
 21
-667.77262939431591
 31
0.0
  0
LINE
  5
316
  8
1
 62
     3
 10
-1032.7587264854981
 20
-667.17262939431589
 30
0.0
 11
-1043.219496000957
 21
-667.17262939431589
 31
0.0
  0
LINE
  5
317
  8
1
 62
     7
 10
-1033.3587264854971
 20
-667.77262939431591
 30
0.0
 11
-1033.3587264854971
 21
-661.7726293943158
 31
0.0
  0
LINE
  5
318
  8
1
 62
     7
 10
-1033.3587264854971
 20
-661.7726293943158
 30
0.0
 11
-1044.7587264854981
 21
-661.7726293943158
 31
0.0
  0
LINE
  5
319
  8
1
 62
     7
 10
-1032.7587264854981
 20
-662.37262939431582
 30
0.0
 11
-1033.3587264854971
 21
-661.7726293943158
 31
0.0
  0
LINE
  5
31A
  8
1
 62
     7
 10
-1032.7587264854981
 20
-667.17262939431589
 30
0.0
 11
-1032.7587264854981
 21
-662.37262939431582
 31
0.0
  0
LINE
  5
31B
  8
1
 62
     7
 10
-1033.3587264854971
 20
-667.77262939431591
 30
0.0
 11
-1032.7587264854981
 21
-667.17262939431589
 31
0.0
  0
LINE
  5
31C
  8
1
 62
     7
 10
-1044.7587264854981
 20
-667.77262939431591
 30
0.0
 11
-1033.3587264854971
 21
-667.77262939431591
 31
0.0
  0
LINE
  5
31D
  8
1
 62
     7
 10
-1050.358726485498
 20
-669.7726293943158
 30
0.0
 11
-1050.358726485498
 21
-659.77262939431591
 31
0.0
  0
LINE
  5
31E
  8
1
 62
     7
 10
-1050.358726485498
 20
-659.77262939431591
 30
0.0
 11
-1044.7587264854981
 21
-659.77262939431591
 31
0.0
  0
LINE
  5
31F
  8
1
 62
     7
 10
-1050.7587264854981
 20
-660.4654497173434
 30
0.0
 11
-1050.358726485498
 21
-659.77262939431591
 31
0.0
  0
LINE
  5
320
  8
1
 62
     7
 10
-1050.7587264854981
 20
-669.07980907128808
 30
0.0
 11
-1050.7587264854981
 21
-660.4654497173434
 31
0.0
  0
LINE
  5
321
  8
1
 62
     7
 10
-1050.358726485498
 20
-669.7726293943158
 30
0.0
 11
-1050.7587264854981
 21
-669.07980907128808
 31
0.0
  0
LINE
  5
322
  8
1
 62
     7
 10
-1044.7587264854981
 20
-669.7726293943158
 30
0.0
 11
-1050.358726485498
 21
-669.7726293943158
 31
0.0
  0
LINE
  5
323
  8
1
 62
     7
 10
-1092.4587264854979
 20
-642.27262939431591
 30
0.0
 11
-1057.4587264854979
 21
-642.27262939431591
 31
0.0
  0
LINE
  5
324
  8
1
 62
     7
 10
-1066.9587264854979
 20
-696.77262939431614
 30
0.0
 11
-1066.9587264854979
 21
-699.77262939431569
 31
0.0
  0
LINE
  5
325
  8
1
 62
     7
 10
-1060.4587264854979
 20
-667.27262939431557
 30
0.0
 11
-1060.4587264854979
 21
-695.92262939431566
 31
0.0
  0
LINE
  5
326
  8
1
 62
     7
 10
-1068.4587264854979
 20
-695.92262939431566
 30
0.0
 11
-1068.4587264854979
 21
-696.27262939431569
 31
0.0
  0
LINE
  5
327
  8
1
 62
     7
 10
-1060.4587264854979
 20
-695.92262939431566
 30
0.0
 11
-1068.4587264854979
 21
-695.92262939431566
 31
0.0
  0
LINE
  5
328
  8
1
 62
     7
 10
-1057.8587264854971
 20
-696.77262939431614
 30
0.0
 11
-1066.9587264854979
 21
-696.77262939431614
 31
0.0
  0
LINE
  5
329
  8
1
 62
     7
 10
-1057.8587264854971
 20
-666.92262939431612
 30
0.0
 11
-1057.8587264854971
 21
-696.77262939431614
 31
0.0
  0
LINE
  5
32A
  8
1
 62
     7
 10
-1068.4587264854979
 20
-666.92262939431612
 30
0.0
 11
-1057.8587264854971
 21
-666.92262939431612
 31
0.0
  0
LINE
  5
32B
  8
1
 62
     7
 10
-1090.4587264854979
 20
-608.52262939431591
 30
0.0
 11
-1088.4587264854979
 21
-608.52262939431591
 31
0.0
  0
LINE
  5
32C
  8
1
 62
     7
 10
-1068.4587264854979
 20
-593.12262939431582
 30
0.0
 11
-1068.4587264854979
 21
-600.77262939431591
 31
0.0
  0
LINE
  5
32D
  8
1
 62
     7
 10
-1057.8587264854971
 20
-593.12262939431582
 30
0.0
 11
-1068.4587264854979
 21
-593.12262939431582
 31
0.0
  0
LINE
  5
32E
  8
1
 62
     7
 10
-1057.8587264854971
 20
-562.77262939431591
 30
0.0
 11
-1057.8587264854971
 21
-593.12262939431582
 31
0.0
  0
LINE
  5
32F
  8
1
 62
     7
 10
-1066.9587264854979
 20
-562.77262939431591
 30
0.0
 11
-1057.8587264854971
 21
-562.77262939431591
 31
0.0
  0
LINE
  5
330
  8
1
 62
     7
 10
-1057.4587264854979
 20
-614.27262939431591
 30
0.0
 11
-1092.4587264854979
 21
-614.27262939431591
 31
0.0
  0
LINE
  5
331
  8
1
 62
     7
 10
-1092.4587264854979
 20
-617.27262939431591
 30
0.0
 11
-1057.4587264854979
 21
-617.27262939431591
 31
0.0
  0
LINE
  5
332
  8
1
 62
     7
 10
-1072.4587264854979
 20
-600.77262939431591
 30
0.0
 11
-1068.4587264854979
 21
-600.77262939431591
 31
0.0
  0
LINE
  5
333
  8
1
 62
     7
 10
-1072.4587264854979
 20
-596.76046394844616
 30
0.0
 11
-1069.9587264854979
 21
-596.76046394844616
 31
0.0
  0
LINE
  5
334
  8
1
 62
     7
 10
-1088.4587264854979
 20
-607.2726293943158
 30
0.0
 11
-1072.4587264854979
 21
-607.2726293943158
 31
0.0
  0
LINE
  5
335
  8
1
 62
     7
 10
-1090.4587264854979
 20
-608.52262939431591
 30
0.0
 11
-1090.4587264854979
 21
-579.77262939431591
 31
0.0
  0
LINE
  5
336
  8
1
 62
     7
 10
-1090.4587264854979
 20
-607.2726293943158
 30
0.0
 11
-1091.4587264854979
 21
-607.2726293943158
 31
0.0
  0
LINE
  5
337
  8
1
 62
     3
 10
-1074.408884634689
 20
-594.84591252003622
 30
0.0
 11
-1074.408884634689
 21
-605.09439369564291
 31
0.0
  0
LINE
  5
338
  8
1
 62
     3
 10
-1086.571917238706
 20
-594.84591252003622
 30
0.0
 11
-1086.571917238706
 21
-605.20701436790227
 31
0.0
  0
LINE
  5
339
  8
1
 62
     7
 10
-1078.2087264854979
 20
-603.66974371134575
 30
0.0
 11
-1072.4587264854979
 21
-603.66974371134575
 31
0.0
  0
LINE
  5
33A
  8
1
 62
     7
 10
-1088.4587264854979
 20
-592.27262939431591
 30
0.0
 11
-1088.4587264854979
 21
-608.52262939431591
 31
0.0
  0
LINE
  5
33B
  8
1
 62
     7
 10
-1082.7087264854979
 20
-603.66974371134575
 30
0.0
 11
-1088.4587264854979
 21
-603.66974371134575
 31
0.0
  0
LINE
  5
33C
  8
1
 62
     7
 10
-1082.7087264854979
 20
-595.87551507728585
 30
0.0
 11
-1088.4587264854979
 21
-595.87551507728585
 31
0.0
  0
LINE
  5
33D
  8
1
 62
     7
 10
-1078.2087264854979
 20
-595.87551507728585
 30
0.0
 11
-1072.4587264854979
 21
-595.87551507728585
 31
0.0
  0
LINE
  5
33E
  8
1
 62
     7
 10
-1072.4587264854979
 20
-592.27262939431591
 30
0.0
 11
-1088.4587264854979
 21
-592.27262939431591
 31
0.0
  0
LINE
  5
33F
  8
1
 62
     7
 10
-1072.4587264854979
 20
-590.7726293943158
 30
0.0
 11
-1069.9587264854979
 21
-590.7726293943158
 31
0.0
  0
LINE
  5
340
  8
1
 62
     7
 10
-1086.4587264854979
 20
-563.27262939431591
 30
0.0
 11
-1088.4587264854979
 21
-565.27262939431591
 31
0.0
  0
LINE
  5
341
  8
1
 62
     7
 10
-1090.4587264854979
 20
-597.27262939431591
 30
0.0
 11
-1088.4587264854979
 21
-597.27262939431591
 31
0.0
  0
LINE
  5
342
  8
1
 62
     7
 10
-1068.4587264854979
 20
-563.62262939431582
 30
0.0
 11
-1060.4587264854979
 21
-563.62262939431582
 31
0.0
  0
LINE
  5
343
  8
1
 62
     7
 10
-1068.4587264854979
 20
-563.27262939431591
 30
0.0
 11
-1068.4587264854979
 21
-563.62262939431582
 31
0.0
  0
LINE
  5
344
  8
1
 62
     7
 10
-1068.4587264854979
 20
-563.27262939431591
 30
0.0
 11
-1086.4587264854979
 21
-563.27262939431591
 31
0.0
  0
LINE
  5
345
  8
1
 62
     7
 10
-1088.4587264854979
 20
-579.77262939431591
 30
0.0
 11
-1088.4587264854979
 21
-565.27262939431591
 31
0.0
  0
LINE
  5
346
  8
1
 62
     7
 10
-1090.4587264854979
 20
-579.77262939431591
 30
0.0
 11
-1088.4587264854979
 21
-579.77262939431591
 31
0.0
  0
LINE
  5
347
  8
1
 62
     7
 10
-1060.4587264854979
 20
-592.27262939431591
 30
0.0
 11
-1069.9587264854979
 21
-592.27262939431591
 31
0.0
  0
LINE
  5
348
  8
1
 62
     7
 10
-1060.4587264854979
 20
-563.62262939431582
 30
0.0
 11
-1060.4587264854979
 21
-592.27262939431591
 31
0.0
  0
LINE
  5
349
  8
1
 62
     7
 10
-903.87757657065424
 20
-544.27262939431591
 30
0.0
 11
-904.37757657065413
 21
-543.77262939431591
 31
0.0
  0
LINE
  5
34A
  8
1
 62
     7
 10
-903.87757657065424
 20
-544.27262939431591
 30
0.0
 11
-903.87757657065424
 21
-559.72800076370629
 31
0.0
  0
LINE
  5
34B
  8
1
  6
DASHDOT
 62
     3
 10
-911.87757657065413
 20
-671.42942053894535
 30
0.0
 11
-911.87757657065413
 21
-658.94390281599192
 31
0.0
  0
LINE
  5
34C
  8
1
  6
DASHDOT
 62
     3
 10
-875.80173719926222
 20
-650.60102496663058
 30
0.0
 11
-886.61451272674083
 21
-644.35826610515369
 31
0.0
  0
LINE
  5
34D
  8
1
  6
DASHDOT
 62
     3
 10
-875.80173719926267
 20
-608.94423382200114
 30
0.0
 11
-886.61451272674117
 21
-615.18699268347791
 31
0.0
  0
LINE
  5
34E
  8
1
 62
     3
 10
-911.87757657065413
 20
-588.11583824968625
 30
0.0
 11
-911.87757657065413
 21
-600.60135597263968
 31
0.0
  0
LINE
  5
34F
  8
1
 62
     7
 10
-1066.9587264854979
 20
-559.77262939431591
 30
0.0
 11
-1066.9587264854979
 21
-562.77262939431591
 31
0.0
  0
LINE
  5
350
  8
1
 62
     7
 10
-1066.9587264854979
 20
-559.77262939431591
 30
0.0
 11
-1051.4587264854979
 21
-559.77262939431591
 31
0.0
  0
LINE
  5
351
  8
1
 62
     7
 10
-1051.4587264854979
 20
-584.77262939431591
 30
0.0
 11
-1053.4587264854979
 21
-584.77262939431591
 31
0.0
  0
LINE
  5
352
  8
1
 62
     7
 10
-1053.4587264854979
 20
-584.77262939431591
 30
0.0
 11
-1053.4587264854979
 21
-674.77262939431569
 31
0.0
  0
LINE
  5
353
  8
1
 62
     7
 10
-1053.4587264854979
 20
-598.77262939431591
 30
0.0
 11
-1057.4587264854979
 21
-598.77262939431591
 31
0.0
  0
LINE
  5
354
  8
1
 62
     7
 10
-1088.4587264854979
 20
-603.45575212433175
 30
0.0
 11
-1090.4587264854979
 21
-603.45575212433175
 31
0.0
  0
LINE
  5
355
  8
1
 62
     7
 10
-1091.4587264854979
 20
-607.2726293943158
 30
0.0
 11
-1092.4587264854979
 21
-608.27262939431591
 31
0.0
  0
LINE
  5
356
  8
1
 62
     7
 10
-1092.4587264854979
 20
-651.27262939431557
 30
0.0
 11
-1091.4587264854979
 21
-652.27262939431569
 31
0.0
  0
LINE
  5
357
  8
1
 62
     7
 10
-1090.4587264854979
 20
-656.08950666429985
 30
0.0
 11
-1088.4587264854979
 21
-656.08950666429985
 31
0.0
  0
LINE
  5
358
  8
1
 62
     7
 10
-1057.4587264854979
 20
-660.77262939431569
 30
0.0
 11
-1057.4587264854979
 21
-598.77262939431591
 31
0.0
  0
LINE
  5
359
  8
1
 62
     7
 10
-1057.4587264854979
 20
-660.77262939431569
 30
0.0
 11
-1053.4587264854979
 21
-660.77262939431569
 31
0.0
  0
LINE
  5
35A
  8
1
 62
     7
 10
-1053.4587264854979
 20
-674.77262939431569
 30
0.0
 11
-1051.4587264854979
 21
-674.77262939431569
 31
0.0
  0
LINE
  5
35B
  8
1
 62
     7
 10
-1051.4587264854979
 20
-699.77262939431569
 30
0.0
 11
-1051.4587264854979
 21
-559.77262939431591
 31
0.0
  0
LINE
  5
35C
  8
1
 62
     7
 10
-1051.4587264854979
 20
-699.77262939431569
 30
0.0
 11
-1066.9587264854979
 21
-699.77262939431569
 31
0.0
  0
LINE
  5
35D
  8
1
 62
     7
 10
-1060.4587264854979
 20
-667.27262939431557
 30
0.0
 11
-1060.4587264854979
 21
-695.92262939431566
 31
0.0
  0
LINE
  5
35E
  8
1
 62
     7
 10
-1069.9587264854979
 20
-667.27262939431557
 30
0.0
 11
-1060.4587264854979
 21
-667.27262939431557
 31
0.0
  0
LINE
  5
35F
  8
1
 62
     7
 10
-1088.4587264854979
 20
-651.27262939431557
 30
0.0
 11
-1088.4587264854979
 21
-667.27262939431557
 31
0.0
  0
LINE
  5
360
  8
1
 62
     7
 10
-1088.4587264854979
 20
-679.77262939431557
 30
0.0
 11
-1090.4587264854979
 21
-679.77262939431557
 31
0.0
  0
LINE
  5
361
  8
1
 62
     7
 10
-1088.4587264854979
 20
-694.2726293943158
 30
0.0
 11
-1088.4587264854979
 21
-679.77262939431557
 31
0.0
  0
LINE
  5
362
  8
1
 62
     7
 10
-1086.4587264854979
 20
-696.27262939431569
 30
0.0
 11
-1068.4587264854979
 21
-696.27262939431569
 31
0.0
  0
LINE
  5
363
  8
1
 62
     7
 10
-1068.4587264854979
 20
-695.92262939431566
 30
0.0
 11
-1068.4587264854979
 21
-696.27262939431569
 31
0.0
  0
LINE
  5
364
  8
1
 62
     7
 10
-1060.4587264854979
 20
-695.92262939431566
 30
0.0
 11
-1068.4587264854979
 21
-695.92262939431566
 31
0.0
  0
LINE
  5
365
  8
1
 62
     7
 10
-1088.4587264854979
 20
-662.27262939431569
 30
0.0
 11
-1090.4587264854979
 21
-662.27262939431569
 31
0.0
  0
LINE
  5
366
  8
1
 62
     7
 10
-1088.4587264854979
 20
-694.2726293943158
 30
0.0
 11
-1086.4587264854979
 21
-696.27262939431569
 31
0.0
  0
LINE
  5
367
  8
1
 62
     7
 10
-1069.904057744312
 20
-668.77262939431569
 30
0.0
 11
-1072.4587264854979
 21
-668.77262939431569
 31
0.0
  0
LINE
  5
368
  8
1
 62
     7
 10
-1088.4587264854979
 20
-667.27262939431557
 30
0.0
 11
-1072.4587264854979
 21
-667.27262939431557
 31
0.0
  0
LINE
  5
369
  8
1
 62
     7
 10
-1088.4587264854979
 20
-665.47262939431585
 30
0.0
 11
-1088.4587264854979
 21
-654.07262939431575
 31
0.0
  0
LINE
  5
36A
  8
1
 62
     7
 10
-1072.4587264854979
 20
-663.66974371134575
 30
0.0
 11
-1078.2087264854979
 21
-663.66974371134575
 31
0.0
  0
LINE
  5
36B
  8
1
 62
     7
 10
-1088.4587264854979
 20
-663.66974371134575
 30
0.0
 11
-1082.7087264854979
 21
-663.66974371134575
 31
0.0
  0
LINE
  5
36C
  8
1
 62
     7
 10
-1088.4587264854979
 20
-655.87551507728585
 30
0.0
 11
-1082.7087264854979
 21
-655.87551507728585
 31
0.0
  0
LINE
  5
36D
  8
1
 62
     7
 10
-1072.4587264854979
 20
-655.87551507728585
 30
0.0
 11
-1078.2087264854979
 21
-655.87551507728585
 31
0.0
  0
LINE
  5
36E
  8
1
 62
     3
 10
-1086.571917238706
 20
-654.33824442072921
 30
0.0
 11
-1086.571917238706
 21
-664.69934626859549
 31
0.0
  0
LINE
  5
36F
  8
1
 62
     3
 10
-1074.408884634689
 20
-654.45086509298869
 30
0.0
 11
-1074.408884634689
 21
-664.69934626859549
 31
0.0
  0
LINE
  5
370
  8
1
 62
     7
 10
-1090.4587264854979
 20
-679.77262939431557
 30
0.0
 11
-1090.4587264854979
 21
-651.27262939431557
 31
0.0
  0
LINE
  5
371
  8
1
 62
     7
 10
-1088.4587264854979
 20
-651.27262939431557
 30
0.0
 11
-1090.4587264854979
 21
-651.27262939431557
 31
0.0
  0
LINE
  5
372
  8
1
 62
     7
 10
-1091.4587264854979
 20
-652.27262939431569
 30
0.0
 11
-1090.4587264854979
 21
-652.27262939431569
 31
0.0
  0
LINE
  5
373
  8
1
 62
     7
 10
-1072.4587264854979
 20
-652.27262939431569
 30
0.0
 11
-1088.4587264854979
 21
-652.27262939431569
 31
0.0
  0
LINE
  5
374
  8
1
 62
     7
 10
-1069.904057744312
 20
-662.78479484018544
 30
0.0
 11
-1072.4587264854979
 21
-662.78479484018544
 31
0.0
  0
LINE
  5
375
  8
1
 62
     7
 10
-1068.4587264854979
 20
-658.77262939431557
 30
0.0
 11
-1072.4587264854979
 21
-658.77262939431557
 31
0.0
  0
LINE
  5
376
  8
1
 62
     7
 10
-1068.4587264854979
 20
-658.77262939431557
 30
0.0
 11
-1068.4587264854979
 21
-666.92262939431612
 31
0.0
  0
LINE
  5
377
  8
1
 62
     7
 10
-1092.4587264854979
 20
-651.27262939431557
 30
0.0
 11
-1092.4587264854979
 21
-608.27262939431591
 31
0.0
  0
LINE
  5
378
  8
1
 62
     7
 10
-1051.058726485498
 20
-559.27262939431591
 30
0.0
 11
-1043.558726485498
 21
-559.27262939431591
 31
0.0
  0
LINE
  5
379
  8
1
 62
     7
 10
-1043.558726485498
 20
-579.77262939431591
 30
0.0
 11
-1044.7587264854981
 21
-579.77262939431591
 31
0.0
  0
LINE
  5
37A
  8
1
 62
     7
 10
-1044.7587264854981
 20
-579.77262939431591
 30
0.0
 11
-1044.7587264854981
 21
-679.77262939431591
 31
0.0
  0
LINE
  5
37B
  8
1
 62
     7
 10
-1051.058726485498
 20
-584.77262939431591
 30
0.0
 11
-1044.7587264854981
 21
-584.77262939431591
 31
0.0
  0
LINE
  5
37C
  8
1
 62
     7
 10
-1051.058726485498
 20
-559.27262939431591
 30
0.0
 11
-1051.058726485498
 21
-700.27262939431591
 31
0.0
  0
LINE
  5
37D
  8
1
 62
     7
 10
-1044.7587264854981
 20
-580.77262939431591
 30
0.0
 11
-1043.1587264854979
 21
-580.77262939431591
 31
0.0
  0
LINE
  5
37E
  8
1
 62
     7
 10
-1044.7587264854981
 20
-603.2726293943158
 30
0.0
 11
-1043.1587264854979
 21
-603.2726293943158
 31
0.0
  0
LINE
  5
37F
  8
1
 62
     7
 10
-1043.1587264854979
 20
-603.7726293943158
 30
0.0
 11
-1041.9587264854979
 21
-603.7726293943158
 31
0.0
  0
LINE
  5
380
  8
1
 62
     7
 10
-1042.358726485498
 20
-561.52262939431591
 30
0.0
 11
-1041.3587264854971
 21
-561.52262939431591
 31
0.0
  0
LINE
  5
381
  8
1
 62
     7
 10
-1041.3587264854971
 20
-561.52262939431591
 30
0.0
 11
-1041.3587264854971
 21
-571.52262939431591
 31
0.0
  0
LINE
  5
382
  8
1
 62
     7
 10
-1041.3587264854971
 20
-571.52262939431591
 30
0.0
 11
-1042.358726485498
 21
-571.52262939431591
 31
0.0
  0
LINE
  5
383
  8
1
 62
     7
 10
-1041.3587264854971
 20
-562.2726293943158
 30
0.0
 11
-1036.6587264854979
 21
-562.2726293943158
 31
0.0
  0
LINE
  5
384
  8
1
 62
     7
 10
-1036.6587264854979
 20
-562.2726293943158
 30
0.0
 11
-1036.358726485498
 21
-562.79224463658647
 31
0.0
  0
LINE
  5
385
  8
1
 62
     7
 10
-1036.358726485498
 20
-562.79224463658647
 30
0.0
 11
-1036.358726485498
 21
-570.25301415204524
 31
0.0
  0
LINE
  5
386
  8
1
 62
     7
 10
-1036.358726485498
 20
-570.25301415204524
 30
0.0
 11
-1036.6587264854979
 21
-570.77262939431591
 31
0.0
  0
LINE
  5
387
  8
1
 62
     7
 10
-1036.6587264854979
 20
-570.77262939431591
 30
0.0
 11
-1041.3587264854971
 21
-570.77262939431591
 31
0.0
  0
LINE
  5
388
  8
1
 62
     7
 10
-1036.6587264854979
 20
-562.2726293943158
 30
0.0
 11
-1036.6587264854979
 21
-570.77262939431591
 31
0.0
  0
LINE
  5
389
  8
1
 62
     7
 10
-1043.558726485498
 20
-560.27262939431591
 30
0.0
 11
-1042.358726485498
 21
-560.27262939431591
 31
0.0
  0
LINE
  5
38A
  8
1
 62
     7
 10
-1043.1587264854979
 20
-580.77262939431591
 30
0.0
 11
-1043.5320145959729
 21
-576.50592676759129
 31
0.0
  0
LINE
  5
38B
  8
1
 62
     7
 10
-1041.9587264854979
 20
-580.61464639721123
 30
0.0
 11
-1042.358726485498
 21
-576.14821534172381
 31
0.0
  0
LINE
  5
38C
  8
1
 62
     7
 10
-1043.558726485498
 20
-579.77262939431591
 30
0.0
 11
-1043.558726485498
 21
-559.27262939431591
 31
0.0
  0
LINE
  5
38D
  8
1
 62
     7
 10
-1041.9587264854979
 20
-580.61464639721123
 30
0.0
 11
-1041.9587264854979
 21
-661.7726293943158
 31
0.0
  0
LINE
  5
38E
  8
1
 62
     7
 10
-1043.558726485498
 20
-679.77262939431591
 30
0.0
 11
-1043.558726485498
 21
-700.27262939431591
 31
0.0
  0
LINE
  5
38F
  8
1
 62
     7
 10
-1041.9587264854979
 20
-678.93061239142048
 30
0.0
 11
-1041.9587264854979
 21
-667.77262939431591
 31
0.0
  0
LINE
  5
390
  8
1
 62
     7
 10
-1041.9587264854979
 20
-655.77262939431591
 30
0.0
 11
-1043.1587264854979
 21
-655.77262939431591
 31
0.0
  0
LINE
  5
391
  8
1
 62
     7
 10
-1043.1587264854979
 20
-656.27262939431591
 30
0.0
 11
-1044.7587264854981
 21
-656.27262939431591
 31
0.0
  0
LINE
  5
392
  8
1
 62
     7
 10
-1043.1587264854979
 20
-661.7726293943158
 30
0.0
 11
-1043.1587264854979
 21
-580.77262939431591
 31
0.0
  0
LINE
  5
393
  8
1
 62
     7
 10
-1043.1587264854979
 20
-678.7726293943158
 30
0.0
 11
-1044.7587264854981
 21
-678.7726293943158
 31
0.0
  0
LINE
  5
394
  8
1
 62
     7
 10
-1044.7587264854981
 20
-674.77262939431591
 30
0.0
 11
-1051.058726485498
 21
-674.77262939431591
 31
0.0
  0
LINE
  5
395
  8
1
 62
     7
 10
-1044.7587264854981
 20
-679.77262939431591
 30
0.0
 11
-1043.558726485498
 21
-679.77262939431591
 31
0.0
  0
LINE
  5
396
  8
1
 62
     7
 10
-1043.558726485498
 20
-700.27262939431591
 30
0.0
 11
-1051.058726485498
 21
-700.27262939431591
 31
0.0
  0
LINE
  5
397
  8
1
 62
     7
 10
-1041.9587264854979
 20
-678.08783699390335
 30
0.0
 11
-1041.9587264854979
 21
-699.2726293943158
 31
0.0
  0
LINE
  5
398
  8
1
 62
     7
 10
-1043.1587264854979
 20
-678.08783699390335
 30
0.0
 11
-1043.1587264854979
 21
-699.2726293943158
 31
0.0
  0
LINE
  5
399
  8
1
 62
     7
 10
-1043.1587264854979
 20
-699.2726293943158
 30
0.0
 11
-1041.9587264854979
 21
-699.2726293943158
 31
0.0
  0
LINE
  5
39A
  8
1
 62
     7
 10
-1043.1587264854979
 20
-583.14287976029459
 30
0.0
 11
-1041.9587264854979
 21
-583.14287976029459
 31
0.0
  0
LINE
  5
39B
  8
1
  6
DASHDOT
 62
     3
 10
-1051.0194222296441
 20
-664.77262939431591
 30
0.0
 11
-1030.301923763818
 21
-664.77262939431591
 31
0.0
  0
LINE
  5
39C
  8
1
 62
     7
 10
-1043.1587264854979
 20
-668.00542900229152
 30
0.0
 11
-1043.1587264854979
 21
-678.7726293943158
 31
0.0
  0
LINE
  5
39D
  8
1
 62
     7
 10
-1090.4587264854979
 20
-578.7726293943158
 30
0.0
 11
-1090.4587264854979
 21
-543.77262939431591
 31
0.0
  0
LINE
  5
39E
  8
1
 62
     7
 10
-1088.4587264854979
 20
-566.54305274515707
 30
0.0
 11
-1088.4587264854979
 21
-543.77262939431591
 31
0.0
  0
LINE
  5
39F
  8
1
 62
     7
 10
-1090.4587264854979
 20
-543.77262939431591
 30
0.0
 11
-1088.4587264854979
 21
-543.77262939431591
 31
0.0
  0
LINE
  5
3A0
  8
1
 62
     7
 10
-1090.4587264854979
 20
-547.0226293943158
 30
0.0
 11
-1088.4587264854979
 21
-547.0226293943158
 31
0.0
  0
LINE
  5
3A1
  8
1
 62
     3
 10
-1091.7011091380609
 20
-549.7726293943158
 30
0.0
 11
-1087.136486284699
 21
-549.7726293943158
 31
0.0
  0
LINE
  5
3A2
  8
1
 62
     7
 10
-1090.4587264854979
 20
-552.52262939431591
 30
0.0
 11
-1088.4587264854979
 21
-552.52262939431591
 31
0.0
  0
LINE
  5
3A3
  8
1
 62
     7
 10
-1090.4587264854979
 20
-578.7726293943158
 30
0.0
 11
-1088.4587264854979
 21
-578.7726293943158
 31
0.0
  0
LINE
  5
3A4
  8
1
 62
     7
 10
-1387.0092861186581
 20
-545.77262939431591
 30
0.0
 11
-1387.0092861186581
 21
-566.77262939431591
 31
0.0
  0
LINE
  5
3A5
  8
1
 62
     7
 10
-1385.0092861186581
 20
-568.77262939431591
 30
0.0
 11
-1384.0092861186581
 21
-568.77262939431591
 31
0.0
  0
LINE
  5
3A6
  8
1
 62
     7
 10
-1382.0092861186581
 20
-570.77262939431591
 30
0.0
 11
-1382.0092861186581
 21
-578.7726293943158
 31
0.0
  0
LINE
  5
3A7
  8
1
 62
     7
 10
-908.37757657065424
 20
-614.27262939431591
 30
0.0
 11
-908.37757657065424
 21
-617.77262939431591
 31
0.0
  0
LINE
  5
3A8
  8
1
 62
     7
 10
-1391.5092861186581
 20
-614.27262939431591
 30
0.0
 11
-1391.5092861186581
 21
-617.77262939431591
 31
0.0
  0
LINE
  5
3A9
  8
1
 62
     7
 10
-1042.358726485498
 20
-576.14821534172381
 30
0.0
 11
-1042.358726485498
 21
-560.27262939431591
 31
0.0
  0
LINE
  5
3AA
  8
1
 62
     7
 10
-1069.9587264854979
 20
-590.7726293943158
 30
0.0
 11
-1069.9587264854979
 21
-596.76046394844616
 31
0.0
  0
LINE
  5
3AB
  8
1
 62
     7
 10
-1072.4587264854979
 20
-590.7726293943158
 30
0.0
 11
-1072.4587264854979
 21
-607.2726293943158
 31
0.0
  0
LINE
  5
3AC
  8
1
 62
     7
 10
-1069.904057744312
 20
-662.78479484018544
 30
0.0
 11
-1069.904057744312
 21
-668.77262939431569
 31
0.0
  0
LINE
  5
3AD
  8
1
 62
     7
 10
-1072.4587264854979
 20
-652.27262939431569
 30
0.0
 11
-1072.4587264854979
 21
-668.77262939431569
 31
0.0
  0
ARC
  5
3AE
  8
1
 62
     7
 10
-1211.199467528116
 20
-561.74005595619815
 30
0.0
 40
8.24334050976762
 50
5.1756332471015476
 51
78.03417965537956
  0
ARC
  5
3AF
  8
1
 62
     7
 10
-1211.77830512484
 20
-564.47128333375804
 30
0.0
 40
11.03523161640374
 50
78.034179655375027
 51
180.0
  0
ARC
  5
3B0
  8
1
 62
     7
 10
-1211.199467528116
 20
-561.74005595619815
 30
0.0
 40
6.2433405097680046
 50
5.1756332471016906
 51
78.034179655382871
  0
ARC
  5
3B1
  8
1
 62
     7
 10
-1211.77830512484
 20
-564.47128333375804
 30
0.0
 40
9.0352316164041167
 50
78.034179655376306
 51
180.0
  0
ARC
  5
3B2
  8
1
 62
     7
 10
-1209.013536741244
 20
-597.24571745973606
 30
0.0
 40
11.999999999999879
 50
173.87169304444529
 51
196.19135163860989
  0
ARC
  5
3B3
  8
1
 62
     7
 10
-1204.303460940906
 20
-573.05802177857322
 30
0.0
 40
18.510075800338232
 50
197.5236950854983
 51
212.45689583909819
  0
ARC
  5
3B4
  8
1
 62
     7
 10
-1204.303460940906
 20
-573.05802177857322
 30
0.0
 40
16.510075800338392
 50
206.16430090532771
 51
212.45689583909819
  0
ARC
  5
3B5
  8
1
 62
     7
 10
-1207.853754622673
 20
-575.31605516312925
 30
0.0
 40
12.302546835188959
 50
212.45689583909819
 51
233.24709128647041
  0
ARC
  5
3B6
  8
1
 62
     7
 10
-1215.813536741244
 20
-585.97436745576158
 30
0.0
 40
1.0
 50
0.0
 51
53.247091286457611
  0
ARC
  5
3B7
  8
1
 62
     7
 10
-1194.518800078609
 20
-573.05802177857322
 30
0.0
 40
28.294736662634829
 50
192.9624009495576
 51
203.6552085448362
  0
ARC
  5
3B8
  8
1
 62
     7
 10
-1230.0264363365741
 20
-586.80801042340158
 30
0.0
 40
12.679548361564891
 50
25.59935769473309
 51
41.090517617748169
  0
ARC
  5
3B9
  8
1
 62
     7
 10
-1221.12187135253
 20
-579.04265809550236
 30
0.0
 40
0.864643608183632
 50
41.090517617760888
 51
92.49783559349936
  0
ARC
  5
3BA
  8
1
 62
     7
 10
-1221.1158774695029
 20
-579.18005969514252
 30
0.0
 40
1.002175881550232
 50
92.497835593496646
 51
192.96240094954911
  0
ARC
  5
3BB
  8
1
 62
     7
 10
-1220.0649042581549
 20
-583.4258430622591
 30
0.0
 40
3.8678507098930299
 50
347.39074312852603
 51
352.89831554270881
  0
ARC
  5
3BC
  8
1
 62
     7
 10
-1222.360499712697
 20
-583.139842997095
 30
0.0
 40
6.1811934273017952
 50
352.89831554267818
 51
25.571216651865939
  0
ARC
  5
3BD
  8
1
 62
     7
 10
-1230.026436336572
 20
-586.80801042340283
 30
0.0
 40
14.67954836156418
 50
25.571216651870621
 51
41.09051761775347
  0
ARC
  5
3BE
  8
1
 62
     7
 10
-1221.12187135253
 20
-579.04265809550236
 30
0.0
 40
2.8646436081830382
 50
41.090517617747167
 51
92.497835593482066
  0
ARC
  5
3BF
  8
1
 62
     7
 10
-1221.1158774695029
 20
-579.18005969514252
 30
0.0
 40
3.0021758815505981
 50
92.497835593481966
 51
192.9624009495563
  0
ARC
  5
3C0
  8
1
 62
     7
 10
-1213.5520605284621
 20
-577.4390423109204
 30
0.0
 40
10.763778051834681
 50
192.96240094955701
 51
214.1417752558724
  0
ARC
  5
3C1
  8
1
 62
     7
 10
-1222.360499712697
 20
-581.139842997095
 30
0.0
 40
6.181193427301781
 50
352.89831554267931
 51
25.571216651865939
  0
ARC
  5
3C2
  8
1
 62
     7
 10
-1220.064904258154
 20
-581.42584306225319
 30
0.0
 40
3.8678507098928292
 50
349.48207125219159
 51
352.89831554262361
  0
ARC
  5
3C3
  8
1
 62
     7
 10
-1230.026436336572
 20
-584.80801042340283
 30
0.0
 40
14.67954836156418
 50
25.571216651870621
 51
41.09051761775347
  0
ARC
  5
3C4
  8
1
 62
     7
 10
-1221.12187135253
 20
-577.04265809550179
 30
0.0
 40
2.8646436081833491
 50
41.09051761772664
 51
92.497835593464416
  0
ARC
  5
3C5
  8
1
 62
     7
 10
-1221.1158774695029
 20
-577.1800596951424
 30
0.0
 40
3.0021758815505981
 50
92.497835593481966
 51
192.9624009495563
  0
ARC
  5
3C6
  8
1
 62
     7
 10
-1204.303460940906
 20
-573.05802177857322
 30
0.0
 40
16.510075800337962
 50
180.0
 51
183.9634817935808
  0
ARC
  5
3C7
  8
1
 62
     7
 10
-1204.303460940906
 20
-573.05802177857822
 30
0.0
 40
18.510075800337969
 50
179.99999999998451
 51
184.95835269915949
  0
ARC
  5
3C8
  8
1
 62
     7
 10
-1194.518800078609
 20
-573.05802177858175
 30
0.0
 40
28.294736662634929
 50
179.99999999998261
 51
183.27198938714949
  0
ARC
  5
3C9
  8
1
 62
     7
 10
-1213.5520605284651
 20
-575.43904231090801
 30
0.0
 40
10.76377805183458
 50
192.96240094962491
 51
194.88204367511261
  0
ARC
  5
3CA
  8
1
 62
     7
 10
-1207.197389392071
 20
-573.12984598041533
 30
0.0
 40
18.44173469839901
 50
214.14177525587129
 51
222.04458255356229
  0
ARC
  5
3CB
  8
1
 62
     7
 10
-1216.580956979135
 20
-587.43146104972072
 30
0.0
 40
4.7325797621088821
 50
142.97965491511809
 51
177.32784207876469
  0
ARC
  5
3CC
  8
1
 62
     7
 10
-1216.5809569791561
 20
-589.43149773304265
 30
0.0
 40
4.7325797620871164
 50
130.96625686798211
 51
143.95621575619231
  0
ARC
  5
3CD
  8
1
 62
     7
 10
-1209.2100175419259
 20
-579.49332199567493
 30
0.0
 40
12.25587886543798
 50
203.65520854482941
 51
212.61627641761081
  0
ARC
  5
3CE
  8
1
 62
     7
 10
-1207.853754622673
 20
-575.31605516312925
 30
0.0
 40
14.302546835188741
 50
212.45689583909819
 51
224.0001033188268
  0
ARC
  5
3CF
  8
1
 62
     7
 10
-1226.164394154669
 20
-599.20957243012936
 30
0.0
 40
8.7508607761101764
 50
195.4204643525178
 51
0.0
  0
ARC
  5
3D0
  8
1
 62
     7
 10
-1226.164394154669
 20
-599.20957243012936
 30
0.0
 40
6.7508607761096817
 50
195.42046435251859
 51
0.0
  0
ARC
  5
3D1
  8
1
 62
     7
 10
-1395.0092861186581
 20
-629.77262939431591
 30
0.0
 40
70.000000000000256
 50
68.047395549056887
 51
73.362754922221612
  0
ARC
  5
3D2
  8
1
 62
     7
 10
-1395.0092861186581
 20
-629.77262939431591
 30
0.0
 40
70.000000000000881
 50
21.649293638223462
 51
64.241835165981229
  0
ARC
  5
3D3
  8
1
 62
     7
 10
-1395.0092861186581
 20
-629.77262939431591
 30
0.0
 40
66.499999999999829
 50
70.347997729216218
 51
83.090539863912781
  0
ARC
  5
3D4
  8
1
 62
     7
 10
-1395.0092861186581
 20
-629.77262939431591
 30
0.0
 40
66.500000000000099
 50
23.180267562122499
 51
66.074618817933299
  0
ARC
  5
3D5
  8
1
 62
     7
 10
-1395.0092861186581
 20
-629.77262939431591
 30
0.0
 40
66.499999999999943
 50
96.909460136087233
 51
19.278678991649691
  0
ARC
  5
3D6
  8
1
 62
     7
 10
-1395.0092861186581
 20
-629.77262939431591
 30
0.0
 40
70.000000000000028
 50
96.562427868634146
 51
18.158618307230391
  0
ARC
  5
3D7
  8
1
 62
     7
 10
-1331.313889636883
 20
-577.48266414272757
 30
0.0
 40
29.413608842860921
 50
339.12521725214731
 51
0.0000000000921251
  0
ARC
  5
3D8
  8
1
 62
     7
 10
-1331.313889636883
 20
-577.48266414272632
 30
0.0
 40
31.412009520407121
 50
339.12521725214452
 51
344.57953564748141
  0
ARC
  5
3D9
  8
1
 62
     7
 10
-1330.9307019628679
 20
-577.62879607668572
 30
0.0
 40
31.00190302735977
 50
305.2250107059711
 51
339.12521725233688
  0
ARC
  5
3DA
  8
1
 62
     7
 10
-1328.814726833881
 20
-580.62560393060767
 30
0.0
 40
27.333359984158442
 50
271.00112090907709
 51
305.22501070597002
  0
ARC
  5
3DB
  8
1
 62
     7
 10
-1328.9829024412479
 20
-571.00161964337929
 30
0.0
 40
36.958813562859177
 50
230.38995133382289
 51
271.00112090907828
  0
ARC
  5
3DC
  8
1
 62
     7
 10
-1319.755973717904
 20
-559.85216071909178
 30
0.0
 40
51.43108525634468
 50
226.3693960083003
 51
230.3899513338267
  0
ARC
  5
3DD
  8
1
 62
     7
 10
-1319.755973717901
 20
-559.85216071909463
 30
0.0
 40
49.432684578798359
 50
226.42476737189659
 51
230.38995133382161
  0
ARC
  5
3DE
  8
1
 62
     7
 10
-1328.9829024412479
 20
-571.00161964337929
 30
0.0
 40
34.960412885313168
 50
230.3899513338219
 51
271.0011209090776
  0
ARC
  5
3DF
  8
1
 62
     7
 10
-1328.814726833881
 20
-580.62560393060767
 30
0.0
 40
25.33495930661207
 50
271.00112090907601
 51
305.22501070596951
  0
ARC
  5
3E0
  8
1
 62
     7
 10
-1330.9307019628679
 20
-577.62879607668572
 30
0.0
 40
29.00350234981385
 50
305.22501070597082
 51
339.12521725233711
  0
ARC
  5
3E1
  8
1
 62
     7
 10
-1331.313889636883
 20
-577.48266414272632
 30
0.0
 40
27.413608842860761
 50
339.1252172521443
 51
0.0000000000893417
  0
ARC
  5
3E2
  8
1
 62
     7
 10
-1330.9307019628679
 20
-577.62879607668572
 30
0.0
 40
27.003502349813989
 50
305.22501070597218
 51
339.12521725233671
  0
ARC
  5
3E3
  8
1
 62
     7
 10
-1328.814726833881
 20
-580.62560393060767
 30
0.0
 40
23.334959306612209
 50
271.00112090907493
 51
305.22501070597087
  0
ARC
  5
3E4
  8
1
 62
     7
 10
-1328.9829024412479
 20
-571.00161964337929
 30
0.0
 40
32.960412885313147
 50
230.38995133382249
 51
271.00112090907692
  0
ARC
  5
3E5
  8
1
 62
     7
 10
-1319.755973717901
 20
-559.85216071909463
 30
0.0
 40
47.43268457879838
 50
226.4848558943356
 51
230.3899513338219
  0
ARC
  5
3E6
  8
1
 62
     7
 10
-1362.4823741840769
 20
-600.63983000943017
 30
0.0
 40
2.0400000000001701
 50
44.999999999995481
 51
135.00000000000901
  0
ARC
  5
3E7
  8
1
 62
     7
 10
-1365.876486733772
 20
-597.24571745973458
 30
0.0
 40
2.039999999999849
 50
314.99999999998641
 51
45.000000000009031
  0
ARC
  5
3E8
  8
1
 62
     7
 10
-1359.088261634382
 20
-597.24571745973458
 30
0.0
 40
2.0399999999996878
 50
134.99999999999091
 51
225.00000000001131
  0
ARC
  5
3E9
  8
1
 62
     7
 10
-1368.836488098741
 20
-560.41312590606594
 30
0.0
 40
5.8518385643657602
 50
40.126355828188267
 51
112.3175285067004
  0
ARC
  5
3EA
  8
1
 62
     7
 10
-1368.861871702115
 20
-560.3794844225007
 30
0.0
 40
3.8026131890000858
 50
39.770261642333381
 51
112.1561975385369
  0
ARC
  5
3EB
  8
1
 62
     7
 10
-1367.439486176587
 20
-563.87256490491643
 30
0.0
 40
7.5741900263277913
 50
112.15619753853559
 51
164.99999999998951
  0
ARC
  5
3EC
  8
1
 62
     7
 10
-1368.985015018452
 20
-560.46758615280305
 30
0.0
 40
6.0007479523311629
 50
331.48923551751858
 51
39.609984557449572
  0
ARC
  5
3ED
  8
1
 62
     7
 10
-1369.8320975142819
 20
-559.68200025646888
 30
0.0
 40
7.1258225331476499
 50
302.6390364751071
 51
329.1891456027011
  0
ARC
  5
3EE
  8
1
 62
     7
 10
-1369.8320975142819
 20
-559.68200025646888
 30
0.0
 40
5.0976991716528612
 50
302.63903647510313
 51
329.18914560270503
  0
ARC
  5
3EF
  8
1
 62
     7
 10
-1371.969548105204
 20
-556.34477348487735
 30
0.0
 40
13.10246058353726
 50
287.78764815936631
 51
302.6390364751058
  0
ARC
  5
3F0
  8
1
 62
     7
 10
-1371.969548105204
 20
-556.34477348487735
 30
0.0
 40
11.08887407882024
 50
287.78764815936751
 51
302.63903647510813
  0
ARC
  5
3F1
  8
1
 62
     7
 10
-1366.713347630631
 20
-572.72805486326388
 30
0.0
 40
8.1450492394410841
 50
107.78764815936511
 51
238.83783742813961
  0
ARC
  5
3F2
  8
1
 62
     7
 10
-1366.713347630631
 20
-572.72805486326388
 30
0.0
 40
6.1169258779465174
 50
107.7876481593624
 51
238.83783742813611
  0
ARC
  5
3F3
  8
1
 62
     7
 10
-1371.969548105204
 20
-556.34477348487735
 30
0.0
 40
9.0607507173256732
 50
287.78764815936609
 51
302.63903647510608
  0
ARC
  5
3F4
  8
1
 62
     7
 10
-1369.0123495501309
 20
-560.49020726855861
 30
0.0
 40
3.9891190329069728
 50
333.13144930629409
 51
39.609984557447149
  0
ARC
  5
3F5
  8
1
 62
     7
 10
-1367.4135831775179
 20
-563.87950559259559
 30
0.0
 40
9.5988969500900083
 50
112.317528506702
 51
165.00000000000401
  0
ARC
  5
3F6
  8
1
 62
     7
 10
-1369.0123495501309
 20
-560.49020726855861
 30
0.0
 40
7.9997599309507299
 50
333.13144930628812
 51
39.60998455744857
  0
ARC
  5
3F7
  8
1
 62
     7
 10
-1368.857462952051
 20
-560.36202846142442
 30
0.0
 40
7.798713506304205
 50
39.609984557450709
 51
112.31752850670399
  0
ARC
  5
3F8
  8
1
 62
     7
 10
-1367.4135831775179
 20
-563.87950559259559
 30
0.0
 40
11.60100678426392
 50
112.3175285067034
 51
165.0000000000031
  0
ARC
  5
3F9
  8
1
 62
     7
 10
-1369.672769229184
 20
-559.93076138374806
 30
0.0
 40
8.8439981361064284
 50
302.63903647510568
 51
331.83189568902179
  0
ARC
  5
3FA
  8
1
 62
     7
 10
-1369.2241914424269
 20
-579.64935284386729
 30
0.0
 40
3.4319937152159921
 50
359.7894587486129
 51
83.516654565864215
  0
ARC
  5
3FB
  8
1
 62
     7
 10
-1350.504112467604
 20
-581.15059310999573
 30
0.0
 40
14.986209871404061
 50
204.242318552092
 51
216.9874088836745
  0
ARC
  5
3FC
  8
1
 62
     7
 10
-1350.504112467604
 20
-581.15059310999573
 30
0.0
 40
12.9862098714041
 50
208.95243186979931
 51
215.7432865239663
  0
ARC
  5
3FD
  8
1
 62
     7
 10
-1350.504112467604
 20
-581.15059310999573
 30
0.0
 40
10.98620987140424
 50
212.07954818798049
 51
214.0389361806258
  0
ARC
  5
3FE
  8
1
 62
     7
 10
-1370.25839034726
 20
-578.39749979607143
 30
0.0
 40
1.808200801068641
 50
206.295723170146
 51
235.9601489836854
  0
ARC
  5
3FF
  8
1
 62
     7
 10
-1370.25839034726
 20
-578.39749979607143
 30
0.0
 40
3.8082008010687831
 50
173.38184914874449
 51
235.96014898370109
  0
ARC
  5
400
  8
1
 62
     7
 10
-1326.117748524046
 20
-484.09538196524068
 30
0.0
 40
105.5831169981589
 50
244.88678257249259
 51
248.01005004517901
  0
ARC
  5
401
  8
1
 62
     7
 10
-1361.3593416818551
 20
-584.449229135206
 30
0.0
 40
2.9704231391481741
 50
269.32342982938712
 51
46.749629230472273
  0
ARC
  5
402
  8
1
 62
     7
 10
-1362.1744439639631
 20
-572.78548883921997
 30
0.0
 40
14.654730318652611
 50
246.5281444366332
 51
273.0511238806036
  0
ARC
  5
403
  8
1
 62
     7
 10
-1325.132125678849
 20
-483.22500598212542
 30
0.0
 40
104.7731490698623
 50
244.71761888223671
 51
247.16505315023699
  0
ARC
  5
404
  8
1
 62
     7
 10
-1365.2147918674921
 20
-585.83980303228441
 30
0.0
 40
7.4339355283650121
 50
49.039668794680217
 51
62.731373118365383
  0
ARC
  5
405
  8
1
 62
     7
 10
-1362.288797257504
 20
-582.46912084747237
 30
0.0
 40
2.970423139148413
 50
269.32342982936962
 51
49.03966879467589
  0
ARC
  5
406
  8
1
 62
     7
 10
-1362.1744439639631
 20
-572.78548883921997
 30
0.0
 40
12.654730318652421
 50
246.528144436632
 51
269.3234298293649
  0
ARC
  5
407
  8
1
 62
     7
 10
-1354.448942887135
 20
-554.99415880242452
 30
0.0
 40
32.050987467036649
 50
235.96014898370581
 51
246.5281444366334
  0
ARC
  5
408
  8
1
 62
     7
 10
-1362.288797257504
 20
-582.46912084747237
 30
0.0
 40
0.9704231391483752
 50
269.32342982937541
 51
49.039668794698763
  0
ARC
  5
409
  8
1
 62
     7
 10
-1362.1744439639631
 20
-572.78548883921997
 30
0.0
 40
10.65473031865209
 50
246.5281444366353
 51
269.32342982936461
  0
ARC
  5
40A
  8
1
 62
     7
 10
-1354.448942887135
 20
-554.99415880242452
 30
0.0
 40
30.050987467036659
 50
235.9601489837053
 51
246.52814443663459
  0
ARC
  5
40B
  8
1
 62
     7
 10
-1347.3135558586371
 20
-579.72986686143111
 30
0.0
 40
18.478789798676459
 50
179.78945874861381
 51
189.88452518440911
  0
ARC
  5
40C
  8
1
 62
     7
 10
-1347.3135558586371
 20
-579.7298668614327
 30
0.0
 40
16.478789798675919
 50
179.78945874861
 51
192.76616223275681
  0
ARC
  5
40D
  8
1
 62
     7
 10
-1367.224204945375
 20
-579.65670210342375
 30
0.0
 40
5.4319937152156141
 50
359.78945874861409
 51
100.397801317576
  0
ARC
  5
40E
  8
1
 62
     7
 10
-1347.3135558586371
 20
-579.72986686143031
 30
0.0
 40
14.47878979867629
 50
179.7894587486185
 51
192.766255172965
  0
ARC
  5
40F
  8
1
 62
     7
 10
-1362.4823741840769
 20
-593.85160491003921
 30
0.0
 40
2.04000000000033
 50
224.99999999999099
 51
315.0
  0
ARC
  5
410
  8
1
 62
     7
 10
-1365.376222775933
 20
-580.15897865976035
 30
0.0
 40
6.6160899053487068
 50
209.77733519915861
 51
246.52814443663689
  0
ARC
  5
411
  8
1
 62
     7
 10
-1366.898080157541
 20
-581.02975531791219
 30
0.0
 40
4.8627211824795911
 50
191.9263822927135
 51
209.77733519914321
  0
ARC
  5
412
  8
1
 62
     7
 10
-1395.0092861186581
 20
-629.77262939431591
 30
0.0
 40
69.999999999999829
 50
76.63724507777772
 51
83.437572131365826
  0
ARC
  5
413
  8
1
 62
     7
 10
-911.87757657065413
 20
-629.77262939431591
 30
0.0
 40
12.5
 50
106.260204708312
 51
73.739795291689049
  0
ARC
  5
414
  8
1
  6
DASHDOT
 62
     3
 10
-911.87757657065413
 20
-629.77262939431591
 30
0.0
 40
35.000000000000121
 50
19.999999999999851
 51
40.000000000000213
  0
ARC
  5
415
  8
1
  6
DASHDOT
 62
     3
 10
-911.87757657065413
 20
-629.77262939431591
 30
0.0
 40
35.000000000000028
 50
319.99999999999977
 51
340.00000000000011
  0
ARC
  5
416
  8
1
  6
DASHDOT
 62
     3
 10
-911.87757657065413
 20
-629.77262939431591
 30
0.0
 40
35.000000000000028
 50
259.99999999999977
 51
280.00000000000011
  0
ARC
  5
417
  8
1
  6
DASHDOT
 62
     3
 10
-911.87757657065413
 20
-629.77262939431591
 30
0.0
 40
35.000000000000021
 50
199.99999999999989
 51
220.00000000000011
  0
ARC
  5
418
  8
1
  6
DASHDOT
 62
     3
 10
-911.87757657065413
 20
-629.77262939431591
 30
0.0
 40
35.000000000000028
 50
139.99999999999989
 51
160.0
  0
ARC
  5
419
  8
1
 62
     7
 10
-911.87757657065413
 20
-629.77262939431591
 30
0.0
 40
49.0
 50
161.07702662492241
 51
258.9229733750775
  0
ARC
  5
41A
  8
1
 62
     7
 10
-911.87757657065413
 20
-629.77262939431591
 30
0.0
 40
49.0
 50
161.07702662492241
 51
180.0
  0
ARC
  5
41B
  8
1
 62
     7
 10
-911.87757657065413
 20
-629.77262939431591
 30
0.0
 40
49.0
 50
161.07702662492241
 51
180.0
  0
ARC
  5
41C
  8
1
 62
     7
 10
-925.8775765706539
 20
-679.85256549651172
 30
0.0
 40
4.9999999999999876
 50
254.38150172435181
 51
74.38150172435185
  0
ARC
  5
41D
  8
1
 62
     7
 10
-962.24807345505667
 20
-616.85701699620017
 30
0.0
 40
4.999999999999952
 50
345.61849827564811
 51
165.61849827564811
  0
ARC
  5
41E
  8
1
 62
     7
 10
-911.87757657065413
 20
-629.77262939431591
 30
0.0
 40
46.999999999999922
 50
165.61849827564859
 51
254.38150172435149
  0
ARC
  5
41F
  8
1
 62
     7
 10
-911.87757657065413
 20
-629.77262939431591
 30
0.0
 40
56.999999999999829
 50
165.61849827564851
 51
254.38150172435149
  0
ARC
  5
420
  8
1
 62
     7
 10
-948.24807345505678
 20
-592.60830569023631
 30
0.0
 40
4.9999999999999618
 50
134.38150172435149
 51
314.38150172435149
  0
ARC
  5
421
  8
1
 62
     7
 10
-911.87757657065413
 20
-629.77262939431591
 30
0.0
 40
56.99999999999946
 50
45.618498275648342
 51
134.38150172435169
  0
ARC
  5
422
  8
1
 62
     7
 10
-911.87757657065413
 20
-629.77262939431591
 30
0.0
 40
48.999999999999673
 50
41.077026624922212
 51
138.9229733750779
  0
ARC
  5
423
  8
1
 62
     7
 10
-1395.0092861186581
 20
-628.45262939431586
 30
0.0
 40
24.730000000000071
 50
292.59090733090011
 51
247.40909266909989
  0
ARC
  5
424
  8
1
 62
     7
 10
-1401.0092861186581
 20
-545.77262939431591
 30
0.0
 40
2.0
 50
90.0
 51
180.0
  0
ARC
  5
425
  8
1
 62
     7
 10
-1405.0092861186581
 20
-566.77262939431591
 30
0.0
 40
2.0
 50
270.0
 51
0.0
  0
ARC
  5
426
  8
1
 62
     7
 10
-1406.0092861186581
 20
-570.77262939431591
 30
0.0
 40
2.0
 50
90.0
 51
180.0
  0
ARC
  5
427
  8
1
 62
     7
 10
-1395.0092861186581
 20
-629.77262939431591
 30
0.0
 40
12.5
 50
106.260204708312
 51
73.739795291688054
  0
ARC
  5
428
  8
1
 62
     7
 10
-897.87757657065436
 20
-679.85256549651172
 30
0.0
 40
4.9999999999999876
 50
105.61849827564809
 51
285.61849827564822
  0
ARC
  5
429
  8
1
 62
     7
 10
-861.50707968625136
 20
-616.85701699620017
 30
0.0
 40
5.0000000000000613
 50
14.38150172435161
 51
194.38150172435149
  0
ARC
  5
42A
  8
1
 62
     7
 10
-911.87757657065413
 20
-629.77262939431591
 30
0.0
 40
47.000000000000057
 50
285.61849827564822
 51
14.38150172435147
  0
ARC
  5
42B
  8
1
 62
     7
 10
-911.87757657065413
 20
-629.77262939431591
 30
0.0
 40
57.000000000000028
 50
285.61849827564822
 51
14.381501724351491
  0
ARC
  5
42C
  8
1
 62
     7
 10
-875.50707968625125
 20
-592.60830569023631
 30
0.0
 40
4.9999999999999618
 50
225.61849827564851
 51
45.618498275648477
  0
ARC
  5
42D
  8
1
 62
     7
 10
-911.87757657065413
 20
-629.77262939431591
 30
0.0
 40
46.999999999999538
 50
45.618498275648342
 51
134.38150172435189
  0
ARC
  5
42E
  8
1
 62
     7
 10
-1389.0092861186581
 20
-545.77262939431591
 30
0.0
 40
2.0
 50
0.0
 51
90.0
  0
ARC
  5
42F
  8
1
 62
     7
 10
-1385.0092861186581
 20
-566.77262939431591
 30
0.0
 40
2.0
 50
180.0
 51
270.0
  0
ARC
  5
430
  8
1
 62
     7
 10
-1384.0092861186581
 20
-570.77262939431591
 30
0.0
 40
2.0
 50
0.0
 51
90.0
  0
ARC
  5
431
  8
1
  6
DASHDOT
 62
     3
 10
-911.87757657065413
 20
-629.77262939431591
 30
0.0
 40
35.000000000000028
 50
79.999999999999957
 51
100.0
  0
ARC
  5
432
  8
1
 62
     7
 10
-1395.0092861186581
 20
-629.77262939431591
 30
0.0
 40
50.000000000000099
 50
50.739170477266732
 51
39.260829522732557
  0
ARC
  5
433
  8
1
 62
     7
 10
-1369.2241914424269
 20
-579.64935284386729
 30
0.0
 40
5.4319937152165254
 50
359.78945874861159
 51
103.3300795276502
  0
ARC
  5
434
  8
1
 62
     7
 10
-1372.5371054401339
 20
-578.13311189429749
 30
0.0
 40
1.5141991800802881
 50
135.05152965009671
 51
173.38184914874751
  0
ARC
  5
435
  8
1
 62
     7
 10
-1219.0010289189629
 20
-600.14571745973456
 30
0.0
 40
1.600000000000485
 50
196.19135163861111
 51
239.1682407410986
  0
ARC
  5
436
  8
1
 62
     7
 10
-1218.013536741244
 20
-601.44571745973576
 30
0.0
 40
0.299999999999335
 50
339.50824758275883
 51
349.80906739505463
  0
ARC
  5
437
  8
1
 62
     7
 10
-1186.0635367412431
 20
-581.94035410598815
 30
0.0
 40
50.0
 50
180.0
 51
195.42046435251731
  0
ARC
  5
438
  8
1
 62
     7
 10
-1402.0092861186581
 20
-654.3680370793644
 30
0.0
 40
2.5
 50
180.0
 51
270.0
  0
ARC
  5
439
  8
1
 62
     7
 10
-1388.0092861186581
 20
-654.3680370793644
 30
0.0
 40
2.5
 50
270.0
 51
0.0
  0
ARC
  5
43A
  8
1
 62
     7
 10
-911.87757657065413
 20
-629.77262939431591
 30
0.0
 40
48.999999999999581
 50
281.07702662492221
 51
18.922973375077621
  0
ARC
  5
43B
  8
1
 62
     7
 10
-1368.7176105191811
 20
-579.57131375666279
 30
0.0
 40
5.4966520727228882
 50
108.66354159423901
 51
129.8444344166725
  0
ARC
  5
43C
  8
1
 62
     7
 10
-1368.9537313490589
 20
-579.23702292587666
 30
0.0
 40
2.9999999999771751
 50
87.763723836872899
 51
133.6662229112232
  0
CIRCLE
  5
43D
  8
1
 62
     7
 10
-1395.0092861186581
 20
-629.77262939431591
 30
0.0
 40
32.499999999999091
  0
CIRCLE
  5
43E
  8
1
 62
     7
 10
-1362.4823741840769
 20
-597.24571745973458
 30
0.0
 40
4.5000000000009104
  0
CIRCLE
  5
43F
  8
1
 62
     7
 10
-911.87757657065413
 20
-629.77262939431591
 30
0.0
 40
25.999999999999659
  0
CIRCLE
  5
440
  8
1
 62
     7
 10
-911.87757657065413
 20
-629.77262939431591
 30
0.0
 40
69.499999999999773
  0
CIRCLE
  5
441
  8
1
 62
     7
 10
-911.87757657065413
 20
-629.77262939431591
 30
0.0
 40
70.500000000000099
  0
CIRCLE
  5
442
  8
1
 62
     7
 10
-911.87757657065413
 20
-629.77262939431591
 30
0.0
 40
70.500000000000099
  0
CIRCLE
  5
443
  8
1
 62
     7
 10
-1395.0092861186581
 20
-629.77262939431591
 30
0.0
 40
22.5
  0
CIRCLE
  5
444
  8
1
 62
     7
 10
-963.11366997988989
 20
-666.85935521582826
 30
0.0
 40
4.25
  0
CIRCLE
  5
445
  8
1
 62
     7
 10
-969.61366997989001
 20
-655.60102496663046
 30
0.0
 40
4.25
  0
CIRCLE
  5
446
  8
1
 62
     7
 10
-969.61366997989001
 20
-655.60102496663046
 30
0.0
 40
5.0
  0
CIRCLE
  5
447
  8
1
 62
     7
 10
-963.11366997988989
 20
-666.85935521582826
 30
0.0
 40
5.0
  0
CIRCLE
  5
448
  8
1
 62
     7
 10
-918.37757657065401
 20
-566.85750800048891
 30
0.0
 40
4.25
  0
CIRCLE
  5
449
  8
1
 62
     7
 10
-918.37757657065401
 20
-566.85750800048891
 30
0.0
 40
5.0
  0
CIRCLE
  5
44A
  8
1
 62
     7
 10
-942.18846570310939
 20
-647.27262939431557
 30
0.0
 40
3.0
  0
CIRCLE
  5
44B
  8
1
 62
     7
 10
-942.18846570310939
 20
-647.27262939431557
 30
0.0
 40
2.5
  0
CIRCLE
  5
44C
  8
1
 62
     7
 10
-942.18846570310927
 20
-612.27262939431591
 30
0.0
 40
3.0
  0
CIRCLE
  5
44D
  8
1
 62
     7
 10
-942.18846570310927
 20
-612.27262939431591
 30
0.0
 40
2.5
  0
CIRCLE
  5
44E
  8
1
 62
     7
 10
-1402.0092861186581
 20
-654.34303707936442
 30
0.0
 40
1.25
  0
CIRCLE
  5
44F
  8
1
 62
     7
 10
-860.64148316141814
 20
-666.85935521582826
 30
0.0
 40
4.25
  0
CIRCLE
  5
450
  8
1
 62
     7
 10
-854.14148316141814
 20
-655.60102496663046
 30
0.0
 40
4.25
  0
CIRCLE
  5
451
  8
1
 62
     7
 10
-854.14148316141814
 20
-655.60102496663046
 30
0.0
 40
5.0
  0
CIRCLE
  5
452
  8
1
 62
     7
 10
-860.64148316141814
 20
-666.85935521582826
 30
0.0
 40
5.0
  0
CIRCLE
  5
453
  8
1
 62
     7
 10
-905.37757657065447
 20
-566.85750800048891
 30
0.0
 40
4.25
  0
CIRCLE
  5
454
  8
1
 62
     7
 10
-905.37757657065447
 20
-566.85750800048891
 30
0.0
 40
5.0
  0
CIRCLE
  5
455
  8
1
 62
     7
 10
-1388.0092861186581
 20
-654.34303707936442
 30
0.0
 40
1.25
  0
CIRCLE
  5
456
  8
1
 62
     7
 10
-881.56668743819887
 20
-647.27262939431557
 30
0.0
 40
3.0
  0
CIRCLE
  5
457
  8
1
 62
     7
 10
-881.56668743819887
 20
-647.27262939431557
 30
0.0
 40
2.5
  0
CIRCLE
  5
458
  8
1
 62
     7
 10
-881.56668743819887
 20
-612.27262939431591
 30
0.0
 40
3.0
  0
CIRCLE
  5
459
  8
1
 62
     7
 10
-881.56668743819887
 20
-612.27262939431591
 30
0.0
 40
2.5
  0
CIRCLE
  5
45A
  8
1
 62
     7
 10
-911.87757657065413
 20
-549.7726293943158
 30
0.0
 40
2.75
  0
CIRCLE
  5
45B
  8
1
 62
     7
 10
-911.87757657065413
 20
-664.77262939431591
 30
0.0
 40
2.5
  0
CIRCLE
  5
45C
  8
1
 62
     7
 10
-911.87757657065413
 20
-664.77262939431591
 30
0.0
 40
3.0
  0
CIRCLE
  5
45D
  8
1
 62
     7
 10
-911.87757657065413
 20
-594.7726293943158
 30
0.0
 40
3.0
  0
CIRCLE
  5
45E
  8
1
 62
     7
 10
-911.87757657065413
 20
-594.7726293943158
 30
0.0
 40
2.5
  0
CIRCLE
  5
45F
  8
1
 62
     7
 10
-1395.0092861186581
 20
-629.77262939431591
 30
0.0
 40
22.5
  0
CIRCLE
  5
460
  8
1
 62
     7
 10
-1395.0092861186581
 20
-549.7726293943158
 30
0.0
 40
2.75
  0
CIRCLE
  5
461
  8
1
 62
     7
 10
-1080.4587264854979
 20
-599.77262939431591
 30
0.0
 40
4.4999999999999742
  0
CIRCLE
  5
462
  8
1
 62
     7
 10
-1080.4587264854979
 20
-659.77262939431557
 30
0.0
 40
4.4999999999999742
  0
TEXT
  5
463
  8
1
 62
     7
 10
-1408.5092861186581
 20
-485.05109966452591
 30
0.0
 40
8.0
  1
MMC 5
 41
0.9
  7
SIMPLEX
  0
ENDSEC
  0
EOF
