  0
SECTION
  2
HEADER
  9
$ACADVER
  1
AC1009
  9
$INSBASE
 10
0.0
 20
0.0
 30
0.0
  9
$EXTMIN
 10
-157.48149301279091
 20
-158.0000000000004
 30
0.0
  9
$EXTMAX
 10
1131.5695011317
 20
297.22164595158853
 30
0.0
  9
$LIMMIN
 10
-157.48149301279091
 20
-158.0000000000004
  9
$LIMMAX
 10
1131.5695011317
 20
297.22164595158853
  9
$ORTHOMODE
 70
     0
  9
$REGENMODE
 70
     1
  9
$FILLMODE
 70
     1
  9
$QTEXTMODE
 70
     0
  9
$MIRRTEXT
 70
     1
  9
$DRAGMODE
 70
     2
  9
$LTSCALE
 40
1.0
  9
$OSMODE
 70
    37
  9
$ATTMODE
 70
     1
  9
$TEXTSIZE
 40
3.5
  9
$TRACEWID
 40
0.5
  9
$TEXTSTYLE
  7
STANDARD
  9
$CLAYER
  8
0
  9
$CELTYPE
  6
BYLAYER
  9
$CECOLOR
 62
   256
  9
$DIMSCALE
 40
1.0
  9
$DIMASZ
 40
0.18
  9
$DIMEXO
 40
0.0625
  9
$DIMDLI
 40
0.38
  9
$DIMRND
 40
0.0
  9
$DIMDLE
 40
0.0
  9
$DIMEXE
 40
0.18
  9
$DIMTP
 40
0.0
  9
$DIMTM
 40
0.0
  9
$DIMTXT
 40
0.18
  9
$DIMCEN
 40
0.09
  9
$DIMTSZ
 40
0.0
  9
$DIMTOL
 70
     0
  9
$DIMLIM
 70
     0
  9
$DIMTIH
 70
     1
  9
$DIMTOH
 70
     1
  9
$DIMSE1
 70
     0
  9
$DIMSE2
 70
     0
  9
$DIMTAD
 70
     0
  9
$DIMZIN
 70
     0
  9
$DIMBLK
  1

  9
$DIMASO
 70
     1
  9
$DIMSHO
 70
     1
  9
$DIMPOST
  1

  9
$DIMAPOST
  1

  9
$DIMALT
 70
     0
  9
$DIMALTD
 70
     2
  9
$DIMALTF
 40
25.399999999999999
  9
$DIMLFAC
 40
1.0
  9
$DIMTOFL
 70
     0
  9
$DIMTVP
 40
0.0
  9
$DIMTIX
 70
     0
  9
$DIMSOXD
 70
     0
  9
$DIMSAH
 70
     0
  9
$DIMBLK1
  1

  9
$DIMBLK2
  1

  9
$DIMSTYLE
  2
STANDARD
  9
$DIMCLRD
 70
     0
  9
$DIMCLRE
 70
     0
  9
$DIMCLRT
 70
     0
  9
$DIMTFAC
 40
1.0
  9
$DIMGAP
 40
0.09
  9
$LUNITS
 70
     2
  9
$LUPREC
 70
     4
  9
$SKETCHINC
 40
0.1
  9
$FILLETRAD
 40
2.0
  9
$AUNITS
 70
     0
  9
$AUPREC
 70
     0
  9
$MENU
  1
ACAD
  9
$ELEVATION
 40
0.0
  9
$PELEVATION
 40
0.0
  9
$THICKNESS
 40
0.0
  9
$LIMCHECK
 70
     0
  9
$BLIPMODE
 70
     0
  9
$CHAMFERA
 40
0.0
  9
$CHAMFERB
 40
0.0
  9
$SKPOLY
 70
     0
  9
$TDCREATE
 40
2452094.8975855322
  9
$TDUPDATE
 40
2452094.8998460639
  9
$TDINDWG
 40
0.0022783565
  9
$TDUSRTIMER
 40
0.0022783565
  9
$USRTIMER
 70
     1
  9
$ANGBASE
 50
0.0
  9
$ANGDIR
 70
     0
  9
$PDMODE
 70
     0
  9
$PDSIZE
 40
0.0
  9
$PLINEWID
 40
0.0
  9
$COORDS
 70
     1
  9
$SPLFRAME
 70
     0
  9
$SPLINETYPE
 70
     6
  9
$SPLINESEGS
 70
     8
  9
$ATTDIA
 70
     0
  9
$ATTREQ
 70
     1
  9
$HANDLING
 70
 10241
  9
$HANDSEED
  5
41A
  9
$SURFTAB1
 70
     6
  9
$SURFTAB2
 70
     6
  9
$SURFTYPE
 70
     6
  9
$SURFU
 70
     6
  9
$SURFV
 70
     6
  9
$UCSNAME
  2

  9
$UCSORG
 10
0.0
 20
0.0
 30
0.0
  9
$UCSXDIR
 10
1.0
 20
0.0
 30
0.0
  9
$UCSYDIR
 10
0.0
 20
1.0
 30
0.0
  9
$PUCSNAME
  2

  9
$PUCSORG
 10
0.0
 20
0.0
 30
0.0
  9
$PUCSXDIR
 10
1.0
 20
0.0
 30
0.0
  9
$PUCSYDIR
 10
0.0
 20
1.0
 30
0.0
  9
$USERI1
 70
     0
  9
$USERI2
 70
     0
  9
$USERI3
 70
     0
  9
$USERI4
 70
     0
  9
$USERI5
 70
     0
  9
$USERR1
 40
0.0
  9
$USERR2
 40
0.0
  9
$USERR3
 40
0.0
  9
$USERR4
 40
0.0
  9
$USERR5
 40
0.0
  9
$WORLDVIEW
 70
     1
  9
$SHADEDGE
 70
     3
  9
$SHADEDIF
 70
    70
  9
$TILEMODE
 70
     1
  9
$MAXACTVP
 70
    64
  9
$PLIMCHECK
 70
     0
  9
$PEXTMIN
 10
1.0000000000000000E+020
 20
1.0000000000000000E+020
 30
1.0000000000000000E+020
  9
$PEXTMAX
 10
-1.0000000000000000E+020
 20
-1.0000000000000000E+020
 30
-1.0000000000000000E+020
  9
$PLIMMIN
 10
0.0
 20
0.0
  9
$PLIMMAX
 10
12.0
 20
9.0
  9
$UNITMODE
 70
     0
  9
$VISRETAIN
 70
     1
  9
$PLINEGEN
 70
     0
  9
$PSLTSCALE
 70
     1
  0
ENDSEC
  0
SECTION
  2
TABLES
  0
TABLE
  2
VPORT
 70
     2
  0
VPORT
  2
*ACTIVE
 70
     0
 10
0.0
 20
0.0
 11
1.0
 21
1.0
 12
-5.5270553559538911
 22
266.64303514795341
 13
0.0
 23
0.0
 14
1.0
 24
1.0
 15
0.0
 25
0.0
 16
0.0
 26
0.0
 36
1.0
 17
0.0
 27
0.0
 37
0.0
 40
8.9999999469409886
 41
2.4144144144144142
 42
50.0
 43
0.0
 44
0.0
 50
0.0
 51
0.0
 71
     0
 72
   100
 73
     1
 74
     1
 75
     0
 76
     0
 77
     0
 78
     0
  0
ENDTAB
  0
TABLE
  2
LTYPE
 70
     9
  0
LTYPE
  2
CONTINUOUS
 70
     0
  3
Solid line
 72
    65
 73
     0
 40
0.0
  0
LTYPE
  2
BORDER
 70
     0
  3
__ __ . __ __ .
 72
    65
 73
     6
 40
59.36419051981207
 49
16.96119729137488
 49
-8.48059864568744
 49
16.96119729137488
 49
-8.48059864568744
 49
0.0
 49
-8.48059864568744
  0
LTYPE
  2
CENTER
 70
     0
  3
____ _ ____ _
 72
    65
 73
     4
 40
67.84478916549952
 49
42.402993228437197
 49
-8.48059864568744
 49
8.48059864568744
 49
-8.48059864568744
  0
LTYPE
  2
DASHDOT
 70
     0
  3
__ . __ . __ .
 72
    65
 73
     4
 40
33.92239458274976
 49
16.96119729137488
 49
-8.48059864568744
 49
0.0
 49
-8.48059864568744
  0
LTYPE
  2
DASHED
 70
     0
  3
__ __ __ __ __
 72
    65
 73
     2
 40
25.44179593706232
 49
16.96119729137488
 49
-8.48059864568744
  0
LTYPE
  2
DIVIDE
 70
     0
  3
__ . . __ . . 
 72
    65
 73
     6
 40
42.402993228437197
 49
16.96119729137488
 49
-8.48059864568744
 49
0.0
 49
-8.48059864568744
 49
0.0
 49
-8.48059864568744
  0
LTYPE
  2
DOT
 70
     0
  3
..............
 72
    65
 73
     4
 40
16.96119729137488
 49
0.0
 49
-8.48059864568744
 49
0.0
 49
-8.48059864568744
  0
LTYPE
  2
HIDDEN
 70
     0
  3
_ _ _ _ _ _ _
 72
    65
 73
     2
 40
12.72089796853116
 49
8.48059864568744
 49
-4.24029932284372
  0
LTYPE
  2
PHANTOM
 70
     0
  3
_____ _ _ _____ _ _ 
 72
    65
 73
     6
 40
84.805986456874393
 49
42.402993228437197
 49
-8.48059864568744
 49
8.48059864568744
 49
-8.48059864568744
 49
8.48059864568744
 49
-8.48059864568744
  0
ENDTAB
  0
TABLE
  2
LAYER
 70
     2
  0
LAYER
  2
0
 70
     0
 62
     7
  6
CONTINUOUS
  0
LAYER
  2
1
 70
     0
 62
     7
  6
CONTINUOUS
  0
ENDTAB
  0
TABLE
  2
STYLE
 70
     4
  0
STYLE
  2
STANDARD
 70
     0
 40
0.0
 41
1.0
 50
0.0
 71
     0
 42
3.5
  3
txt
  4

  0
STYLE
  2
SIMPLEX
 70
     0
 40
0.0
 41
1.0
 50
0.0
 71
     0
 42
3.5
  3
simplex
  4

  0
STYLE
  2
COMPLEX
 70
     0
 40
0.0
 41
1.0
 50
0.0
 71
     0
 42
3.5
  3
complex
  4

  0
STYLE
  2
ITALIC
 70
     0
 40
0.0
 41
1.0
 50
0.0
 71
     0
 42
3.5
  3
italic
  4

  0
ENDTAB
  0
TABLE
  2
VIEW
 70
     0
  0
ENDTAB
  0
TABLE
  2
UCS
 70
     0
  0
ENDTAB
  0
TABLE
  2
APPID
 70
     1
  0
APPID
  2
ACAD
 70
     0
  0
ENDTAB
  0
TABLE
  2
DIMSTYLE
 70
     1
  0
DIMSTYLE
  2
STANDARD
 70
     0
  3

  4

  5

  6

  7

 40
1.0
 41
0.18
 42
0.0625
 43
0.38
 44
0.18
 45
0.0
 46
0.0
 47
0.0
 48
0.0
140
0.18
141
0.09
142
0.0
143
25.399999999999999
144
1.0
145
0.0
146
1.0
147
0.09
 71
     0
 72
     0
 73
     1
 74
     1
 75
     0
 76
     0
 77
     0
 78
     0
170
     0
171
     2
172
     0
173
     0
174
     0
175
     0
176
     0
177
     0
178
     0
  0
ENDTAB
  0
ENDSEC
  0
SECTION
  2
BLOCKS
  0
BLOCK
  8
0
  2
$MODEL_SPACE
 70
     0
 10
0.0
 20
0.0
 30
0.0
  3
$MODEL_SPACE
  1

  0
ENDBLK
  5
20
  8
0
  0
BLOCK
 67
     1
  8
0
  2
$PAPER_SPACE
 70
     0
 10
0.0
 20
0.0
 30
0.0
  3
$PAPER_SPACE
  1

  0
ENDBLK
  5
1C
 67
     1
  8
0
  0
ENDSEC
  0
SECTION
  2
ENTITIES
  0
LINE
  5
33
  8
1
 62
     7
 10
659.74099405162121
 20
80.0
 30
0.0
 11
659.74099405162121
 21
44.999999999999993
 31
0.0
  0
LINE
  5
34
  8
1
 62
     7
 10
629.74099405162121
 20
80.0
 30
0.0
 11
659.74099405162121
 21
80.0
 31
0.0
  0
LINE
  5
35
  8
1
 62
     7
 10
337.78342834550921
 20
82.249999999999986
 30
0.0
 11
337.78342834550921
 21
84.205032220042511
 31
0.0
  0
LINE
  5
36
  8
1
 62
     7
 10
376.58342834550911
 20
146.5
 30
0.0
 11
345.58342834550911
 21
146.5
 31
0.0
  0
LINE
  5
37
  8
1
 62
     7
 10
376.58342834550911
 20
155.49999999999989
 30
0.0
 11
376.58342834550911
 21
-155.49999999999989
 31
0.0
  0
LINE
  5
38
  8
1
 62
     7
 10
406.58342834550922
 20
157.5
 30
0.0
 11
406.58342834550922
 21
-157.5
 31
0.0
  0
LINE
  5
39
  8
1
 62
     7
 10
407.28342834550921
 20
158.0
 30
0.0
 11
407.28342834550921
 21
-158.0
 31
0.0
  0
LINE
  5
3A
  8
1
  6
DASHDOT
 62
     3
 10
420.86652909569892
 20
-90.0
 30
0.0
 11
442.19251882701133
 21
-90.0
 31
0.0
  0
LINE
  5
3B
  8
1
 62
     7
 10
425.58342834550911
 20
-95.0
 30
0.0
 11
439.38342834550912
 21
-95.0
 31
0.0
  0
LINE
  5
3C
  8
1
 62
     7
 10
422.68342834550913
 20
-158.0
 30
0.0
 11
422.68342834550913
 21
158.0
 31
0.0
  0
LINE
  5
3D
  8
1
 62
     3
 10
712.74099405162121
 20
-0.0000000000000071
 30
0.0
 11
721.16304521718155
 21
-0.0000000000000071
 31
0.0
  0
LINE
  5
3E
  8
1
 62
     3
 10
425.58342834550911
 20
-0.0000000000000142
 30
0.0
 11
434.00547951106961
 21
-0.0000000000000071
 31
0.0
  0
LINE
  5
3F
  8
1
 62
     7
 10
337.78342834550921
 20
-82.249999999999986
 30
0.0
 11
337.78342834550921
 21
-97.75
 31
0.0
  0
LINE
  5
40
  8
1
 62
     7
 10
406.58342834550922
 20
157.5
 30
0.0
 11
378.58342834550911
 21
157.5
 31
0.0
  0
LINE
  5
41
  8
1
 62
     7
 10
339.58342834550911
 20
44.999999999999993
 30
0.0
 11
337.58342834550911
 21
44.999999999999993
 31
0.0
  0
LINE
  5
42
  8
1
 62
     7
 10
337.58342834550911
 20
44.999999999999993
 30
0.0
 11
336.58342834550911
 21
43.999999999999993
 31
0.0
  0
LINE
  5
43
  8
1
 62
     7
 10
376.58342834550911
 20
155.49999999999989
 30
0.0
 11
378.58342834550911
 21
157.5
 31
0.0
  0
LINE
  5
44
  8
1
 62
     7
 10
342.58342834550911
 20
143.5
 30
0.0
 11
345.58342834550911
 21
146.5
 31
0.0
  0
LINE
  5
45
  8
1
 62
     3
 10
326.45492020988792
 20
-0.0000000000000071
 30
0.0
 11
336.58342834550911
 21
0.0
 31
0.0
  0
LINE
  5
46
  8
1
 62
     7
 10
339.38342834550912
 20
82.249999999999986
 30
0.0
 11
337.78342834550921
 21
82.249999999999986
 31
0.0
  0
LINE
  5
47
  8
1
 62
     7
 10
339.38342834550912
 20
183.0
 30
0.0
 11
339.38342834550912
 21
149.46129641882311
 31
0.0
  0
LINE
  5
48
  8
1
 62
     7
 10
339.38342834550912
 20
183.0
 30
0.0
 11
342.58342834550911
 21
183.0
 31
0.0
  0
LINE
  5
49
  8
1
 62
     3
 10
337.82533241602641
 20
170.0
 30
0.0
 11
345.13092503377442
 21
170.0
 31
0.0
  0
LINE
  5
4A
  8
1
 62
     7
 10
337.48342834550931
 20
-83.0
 30
0.0
 11
335.82537969401062
 21
-83.0
 31
0.0
  0
LINE
  5
4B
  8
1
 62
     7
 10
337.48342834550931
 20
-97.0
 30
0.0
 11
335.82537969401062
 21
-97.0
 31
0.0
  0
LINE
  5
4C
  8
1
 62
     7
 10
339.38342834550912
 20
-82.249999999999986
 30
0.0
 11
339.38342834550912
 21
-97.75
 31
0.0
  0
LINE
  5
4D
  8
1
 62
     7
 10
339.38342834550912
 20
-97.75
 30
0.0
 11
337.78342834550921
 21
-97.75
 31
0.0
  0
LINE
  5
4E
  8
1
 62
     7
 10
337.78342834550921
 20
-82.249999999999986
 30
0.0
 11
339.38342834550912
 21
-82.249999999999986
 31
0.0
  0
LINE
  5
4F
  8
1
 62
     7
 10
339.38342834550912
 20
-97.75
 30
0.0
 11
339.38342834550912
 21
-82.249999999999986
 31
0.0
  0
LINE
  5
50
  8
1
 62
     7
 10
339.38342834550912
 20
-98.500000000000014
 30
0.0
 11
342.58342834550911
 21
-98.500000000000014
 31
0.0
  0
LINE
  5
51
  8
1
 62
     7
 10
345.58342834550911
 20
-146.5
 30
0.0
 11
342.58342834550911
 21
-143.5
 31
0.0
  0
LINE
  5
52
  8
1
 62
     7
 10
378.58342834550911
 20
-157.5
 30
0.0
 11
376.58342834550911
 21
-155.49999999999989
 31
0.0
  0
LINE
  5
53
  8
1
 62
     7
 10
336.58342834550911
 20
-44.000000000000007
 30
0.0
 11
337.58342834550911
 21
-45.0
 31
0.0
  0
LINE
  5
54
  8
1
 62
     7
 10
337.58342834550911
 20
-45.0
 30
0.0
 11
339.58342834550911
 21
-45.0
 31
0.0
  0
LINE
  5
55
  8
1
 62
     7
 10
345.58342834550911
 20
-146.5
 30
0.0
 11
376.58342834550911
 21
-146.5
 31
0.0
  0
LINE
  5
56
  8
1
 62
     7
 10
336.58342834550911
 20
-44.000000000000007
 30
0.0
 11
336.58342834550911
 21
43.999999999999993
 31
0.0
  0
LINE
  5
57
  8
1
 62
     7
 10
378.58342834550911
 20
-157.5
 30
0.0
 11
406.58342834550922
 21
-157.5
 31
0.0
  0
LINE
  5
58
  8
1
 62
     7
 10
407.28342834550921
 20
158.0
 30
0.0
 11
422.68342834550913
 21
158.0
 31
0.0
  0
LINE
  5
59
  8
1
 62
     7
 10
423.28342834550909
 20
111.0
 30
0.0
 11
422.66780710561341
 21
118.0365829706992
 31
0.0
  0
LINE
  5
5A
  8
1
 62
     7
 10
424.98342834550931
 20
117.4937315799269
 30
0.0
 11
425.58342834550911
 21
110.81718171509419
 31
0.0
  0
LINE
  5
5B
  8
1
 62
     7
 10
422.68342834550913
 20
156.0
 30
0.0
 11
424.98342834550931
 21
156.0
 31
0.0
  0
LINE
  5
5C
  8
1
 62
     7
 10
424.98342834550931
 20
156.0
 30
0.0
 11
424.98342834550931
 21
117.0384336335261
 31
0.0
  0
LINE
  5
5D
  8
1
 62
     7
 10
424.98342834550931
 20
152.5
 30
0.0
 11
426.98342834550931
 21
152.5
 31
0.0
  0
LINE
  5
5E
  8
1
 62
     7
 10
426.98342834550931
 20
152.5
 30
0.0
 11
426.98342834550931
 21
134.49999999999989
 31
0.0
  0
LINE
  5
5F
  8
1
 62
     7
 10
426.98342834550931
 20
134.49999999999989
 30
0.0
 11
424.98342834550931
 21
134.49999999999989
 31
0.0
  0
LINE
  5
60
  8
1
 62
     7
 10
426.98342834550931
 20
151.5
 30
0.0
 11
436.38342834550917
 21
151.5
 31
0.0
  0
LINE
  5
61
  8
1
 62
     7
 10
436.38342834550917
 20
151.5
 30
0.0
 11
436.98342834550931
 21
150.46076951545859
 31
0.0
  0
LINE
  5
62
  8
1
 62
     7
 10
436.98342834550931
 20
150.46076951545859
 30
0.0
 11
436.98342834550931
 21
136.53923048454121
 31
0.0
  0
LINE
  5
63
  8
1
 62
     7
 10
436.98342834550931
 20
136.53923048454121
 30
0.0
 11
436.38342834550917
 21
135.49999999999989
 31
0.0
  0
LINE
  5
64
  8
1
 62
     7
 10
436.38342834550917
 20
135.49999999999989
 30
0.0
 11
426.98342834550931
 21
135.49999999999989
 31
0.0
  0
LINE
  5
65
  8
1
 62
     7
 10
436.38342834550917
 20
151.5
 30
0.0
 11
436.38342834550917
 21
135.49999999999989
 31
0.0
  0
LINE
  5
66
  8
1
 62
     7
 10
422.68342834550913
 20
-158.0
 30
0.0
 11
407.28342834550921
 21
-158.0
 31
0.0
  0
LINE
  5
67
  8
1
 62
     7
 10
425.58342834550911
 20
-109.55680527174459
 30
0.0
 11
425.58342834550911
 21
-156.0
 31
0.0
  0
LINE
  5
68
  8
1
 62
     7
 10
423.28342834550909
 20
-109.3073996875691
 30
0.0
 11
423.28342834550909
 21
-156.0
 31
0.0
  0
LINE
  5
69
  8
1
 62
     7
 10
423.28342834550909
 20
-156.0
 30
0.0
 11
425.58342834550911
 21
-156.0
 31
0.0
  0
LINE
  5
6A
  8
1
 62
     7
 10
439.38342834550912
 20
-95.0
 30
0.0
 11
440.38342834550917
 21
-94.0
 31
0.0
  0
LINE
  5
6B
  8
1
 62
     7
 10
440.38342834550917
 20
-94.0
 30
0.0
 11
440.38342834550917
 21
-86.0
 31
0.0
  0
LINE
  5
6C
  8
1
 62
     7
 10
440.38342834550917
 20
-86.0
 30
0.0
 11
439.38342834550912
 21
-85.0
 31
0.0
  0
LINE
  5
6D
  8
1
 62
     7
 10
439.38342834550912
 20
-85.0
 30
0.0
 11
425.58342834550911
 21
-85.0
 31
0.0
  0
LINE
  5
6E
  8
1
 62
     7
 10
439.38342834550912
 20
-95.0
 30
0.0
 11
439.38342834550912
 21
-85.0
 31
0.0
  0
LINE
  5
6F
  8
1
 62
     3
 10
440.38342834550917
 20
-94.0
 30
0.0
 11
425.58342834550911
 21
-94.0
 31
0.0
  0
LINE
  5
70
  8
1
 62
     3
 10
440.38342834550917
 20
-86.0
 30
0.0
 11
425.58342834550911
 21
-86.0
 31
0.0
  0
LINE
  5
71
  8
1
 62
     7
 10
423.28342834550909
 20
-111.0
 30
0.0
 11
423.28342834550909
 21
111.0
 31
0.0
  0
LINE
  5
72
  8
1
 62
     7
 10
425.58342834550911
 20
-110.81718171509419
 30
0.0
 11
425.58342834550911
 21
110.81718171509419
 31
0.0
  0
LINE
  5
73
  8
1
 62
     7
 10
335.82537969401062
 20
-83.0
 30
0.0
 11
337.48342834550931
 21
-83.0
 31
0.0
  0
LINE
  5
74
  8
1
 62
     7
 10
335.82537969401062
 20
-97.0
 30
0.0
 11
337.48342834550931
 21
-97.0
 31
0.0
  0
LINE
  5
75
  8
1
 62
     7
 10
339.38342834550912
 20
114.040712038625
 30
0.0
 11
338.4066807255561
 21
114.040712038625
 31
0.0
  0
LINE
  5
76
  8
1
 62
     7
 10
331.88342834550912
 20
114.040712038625
 30
0.0
 11
331.38342834550912
 21
114.90673744240959
 31
0.0
  0
LINE
  5
77
  8
1
 62
     7
 10
331.38342834550912
 20
114.90673744240959
 30
0.0
 11
331.38342834550912
 21
126.1746866348407
 31
0.0
  0
LINE
  5
78
  8
1
 62
     7
 10
331.38342834550912
 20
126.1746866348407
 30
0.0
 11
331.88342834550912
 21
127.040712038625
 31
0.0
  0
LINE
  5
79
  8
1
 62
     7
 10
331.88342834550912
 20
127.040712038625
 30
0.0
 11
334.58342834550911
 21
127.040712038625
 31
0.0
  0
LINE
  5
7A
  8
1
 62
     7
 10
331.88342834550912
 20
114.040712038625
 30
0.0
 11
331.88342834550912
 21
127.040712038625
 31
0.0
  0
LINE
  5
7B
  8
1
 62
     7
 10
659.74099405162121
 20
-80.0
 30
0.0
 11
629.74099405162121
 21
-80.0
 31
0.0
  0
LINE
  5
7C
  8
1
 62
     7
 10
659.74099405162121
 20
-45.0
 30
0.0
 11
659.74099405162121
 21
-80.0
 31
0.0
  0
LINE
  5
7D
  8
1
 62
     7
 10
659.74099405162121
 20
-45.0
 30
0.0
 11
629.74099405162121
 21
-45.0
 31
0.0
  0
LINE
  5
7E
  8
1
 62
     7
 10
624.94099405162115
 20
-82.249999999999986
 30
0.0
 11
624.94099405162115
 21
-97.75
 31
0.0
  0
LINE
  5
7F
  8
1
 62
     7
 10
626.74099405162121
 20
43.999999999999993
 30
0.0
 11
629.74099405162121
 21
43.999999999999993
 31
0.0
  0
LINE
  5
80
  8
1
 62
     7
 10
626.74099405162121
 20
53.406733260263437
 30
0.0
 11
626.74099405162121
 21
43.999999999999993
 31
0.0
  0
LINE
  5
81
  8
1
  6
DASHDOT
 62
     3
 10
973.56950113169955
 20
79.998728559375394
 30
0.0
 11
973.56950113169955
 21
101.1591675845045
 31
0.0
  0
LINE
  5
82
  8
1
  6
DASHDOT
 62
     3
 10
1030.1371445823361
 20
56.567643450636211
 30
0.0
 11
1045.0998345098881
 21
71.530333378189511
 31
0.0
  0
LINE
  5
83
  8
1
  6
DASHDOT
 62
     3
 10
1053.568229691075
 20
-0.0000000000000711
 30
0.0
 11
1074.7286687162041
 21
-0.0000000000001208
 31
0.0
  0
LINE
  5
84
  8
1
  6
DASHDOT
 62
     3
 10
1030.1371445823361
 20
-56.567643450636353
 30
0.0
 11
1045.0998345098881
 21
-71.530333378189667
 31
0.0
  0
LINE
  5
85
  8
1
  6
DASHDOT
 62
     3
 10
973.56950113169933
 20
-79.998728559375451
 30
0.0
 11
973.56950113169933
 21
-101.1591675845045
 31
0.0
  0
LINE
  5
86
  8
1
  6
DASHDOT
 62
     3
 10
917.00185768106314
 20
-56.56764345063629
 30
0.0
 11
902.03916775351001
 21
-71.530333378189525
 31
0.0
  0
LINE
  5
87
  8
1
  6
DASHDOT
 62
     3
 10
893.57077257232402
 20
0.0000000000000142
 30
0.0
 11
872.4103335471948
 21
0.0000000000000497
 31
0.0
  0
LINE
  5
88
  8
1
  6
DASHDOT
 62
     3
 10
973.56950113169955
 20
172.5
 30
0.0
 11
973.56950113169955
 21
167.5
 31
0.0
  0
LINE
  5
89
  8
1
  6
DASHDOT
 62
     3
 10
971.06950113169955
 20
170.0
 30
0.0
 11
976.06950113169967
 21
170.0
 31
0.0
  0
LINE
  5
8A
  8
1
  6
DASHDOT
 62
     3
 10
963.56950113169967
 20
-0.0000000000000071
 30
0.0
 11
983.56950113169955
 21
0.0
 31
0.0
  0
LINE
  5
8B
  8
1
  6
DASHDOT
 62
     3
 10
973.56950113169955
 20
9.9999999999999911
 30
0.0
 11
973.56950113169955
 21
-10.0
 31
0.0
  0
LINE
  5
8C
  8
1
 62
     7
 10
989.56950113169933
 20
140.6879765215736
 30
0.0
 11
989.56950113169933
 21
145.30677867509061
 31
0.0
  0
LINE
  5
8D
  8
1
 62
     7
 10
985.56950113169955
 20
138.37857544481511
 30
0.0
 11
989.56950113169933
 21
140.6879765215736
 31
0.0
  0
LINE
  5
8E
  8
1
 62
     7
 10
981.56950113169955
 20
140.6879765215736
 30
0.0
 11
985.56950113169955
 21
138.37857544481511
 31
0.0
  0
LINE
  5
8F
  8
1
 62
     7
 10
981.56950113169955
 20
145.30677867509061
 30
0.0
 11
981.56950113169955
 21
140.6879765215736
 31
0.0
  0
LINE
  5
90
  8
1
 62
     7
 10
985.56950113169955
 20
147.6161797518491
 30
0.0
 11
981.56950113169955
 21
145.30677867509061
 31
0.0
  0
LINE
  5
91
  8
1
 62
     7
 10
989.56950113169933
 20
145.30677867509061
 30
0.0
 11
985.56950113169955
 21
147.6161797518491
 31
0.0
  0
LINE
  5
92
  8
1
 62
     7
 10
1118.8762798067901
 20
-16.000000000000011
 30
0.0
 11
1121.1856808835489
 21
-12.000000000000011
 31
0.0
  0
LINE
  5
93
  8
1
 62
     7
 10
1121.1856808835489
 20
-12.000000000000011
 30
0.0
 11
1118.8762798067901
 21
-8.0000000000000124
 31
0.0
  0
LINE
  5
94
  8
1
 62
     7
 10
1118.8762798067901
 20
-8.0000000000000124
 30
0.0
 11
1114.2574776532731
 21
-8.0000000000000124
 31
0.0
  0
LINE
  5
95
  8
1
 62
     7
 10
1114.2574776532731
 20
-8.0000000000000124
 30
0.0
 11
1111.9480765765149
 21
-12.000000000000011
 31
0.0
  0
LINE
  5
96
  8
1
 62
     7
 10
1111.9480765765149
 20
-12.000000000000011
 30
0.0
 11
1114.2574776532731
 21
-16.000000000000011
 31
0.0
  0
LINE
  5
97
  8
1
 62
     7
 10
1114.2574776532731
 20
-16.000000000000011
 30
0.0
 11
1118.8762798067901
 21
-16.000000000000011
 31
0.0
  0
LINE
  5
98
  8
1
 62
     7
 10
1118.8762798067901
 20
15.999999999999989
 30
0.0
 11
1114.2574776532731
 21
16.0
 31
0.0
  0
LINE
  5
99
  8
1
 62
     7
 10
1114.2574776532731
 20
16.0
 30
0.0
 11
1111.9480765765149
 21
12.0
 31
0.0
  0
LINE
  5
9A
  8
1
 62
     7
 10
1111.9480765765149
 20
12.0
 30
0.0
 11
1114.2574776532731
 21
8.0
 31
0.0
  0
LINE
  5
9B
  8
1
 62
     7
 10
1114.2574776532731
 20
8.0
 30
0.0
 11
1118.8762798067901
 21
8.0
 31
0.0
  0
LINE
  5
9C
  8
1
 62
     7
 10
1118.8762798067901
 20
8.0
 30
0.0
 11
1121.1856808835489
 21
12.0
 31
0.0
  0
LINE
  5
9D
  8
1
 62
     7
 10
1121.1856808835489
 20
12.0
 30
0.0
 11
1118.8762798067901
 21
15.999999999999989
 31
0.0
  0
LINE
  5
9E
  8
1
 62
     7
 10
989.56950113169933
 20
-145.30677867509061
 30
0.0
 11
989.56950113169933
 21
-140.6879765215736
 31
0.0
  0
LINE
  5
9F
  8
1
 62
     7
 10
989.56950113169933
 20
-140.6879765215736
 30
0.0
 11
985.56950113169955
 21
-138.37857544481511
 31
0.0
  0
LINE
  5
A0
  8
1
 62
     7
 10
985.56950113169955
 20
-138.37857544481511
 30
0.0
 11
981.56950113169955
 21
-140.6879765215736
 31
0.0
  0
LINE
  5
A1
  8
1
 62
     7
 10
981.56950113169955
 20
-140.6879765215736
 30
0.0
 11
981.56950113169955
 21
-145.30677867509061
 31
0.0
  0
LINE
  5
A2
  8
1
 62
     7
 10
981.56950113169955
 20
-145.30677867509061
 30
0.0
 11
985.56950113169955
 21
-147.6161797518491
 31
0.0
  0
LINE
  5
A3
  8
1
 62
     7
 10
985.56950113169955
 20
-147.6161797518491
 30
0.0
 11
989.56950113169933
 21
-145.30677867509061
 31
0.0
  0
LINE
  5
A4
  8
1
 62
     7
 10
988.56950113169967
 20
157.37462385333279
 30
0.0
 11
988.56950113169967
 21
178.0
 31
0.0
  0
LINE
  5
A5
  8
1
 62
     7
 10
981.06950113169955
 20
34.999999999999993
 30
0.0
 11
981.06950113169955
 21
29.047375096555619
 31
0.0
  0
LINE
  5
A6
  8
1
 62
     7
 10
-3.8500000000000232
 20
-89.422144374441416
 30
0.0
 11
-3.8500000000000232
 21
-90.577144374441275
 31
0.0
  0
LINE
  5
A7
  8
1
 62
     7
 10
0.5774999999999864
 20
-86.149644374441266
 30
0.0
 11
-0.5774999999999864
 21
-86.149644374441266
 31
0.0
  0
LINE
  5
A8
  8
1
 62
     7
 10
3.8500000000000232
 20
-90.577144374441275
 30
0.0
 11
3.8500000000000232
 21
-89.422144374441416
 31
0.0
  0
LINE
  5
A9
  8
1
 62
     7
 10
-0.5774999999999864
 20
-93.849644374441326
 30
0.0
 11
0.5774999999999864
 21
-93.849644374441326
 31
0.0
  0
LINE
  5
AA
  8
1
 62
     7
 10
-89.422144374441245
 20
3.850000000000128
 30
0.0
 11
-90.577144374441431
 21
3.850000000000128
 31
0.0
  0
LINE
  5
AB
  8
1
 62
     7
 10
-86.149644374441195
 20
-0.5774999999998869
 30
0.0
 11
-86.149644374441195
 21
0.5775000000000859
 31
0.0
  0
LINE
  5
AC
  8
1
 62
     7
 10
-90.577144374441431
 20
-3.8499999999999162
 30
0.0
 11
-89.422144374441245
 21
-3.8499999999999299
 31
0.0
  0
LINE
  5
AD
  8
1
 62
     7
 10
-93.849644374441496
 20
0.5775000000000931
 30
0.0
 11
-93.849644374441496
 21
-0.5774999999998798
 31
0.0
  0
LINE
  5
AE
  8
1
 62
     7
 10
3.850000000000136
 20
89.422144374441302
 30
0.0
 11
3.850000000000136
 21
90.577144374441303
 31
0.0
  0
LINE
  5
AF
  8
1
 62
     7
 10
-0.5774999999998727
 20
86.149644374441323
 30
0.0
 11
0.5775000000001
 21
86.149644374441323
 31
0.0
  0
LINE
  5
B0
  8
1
 62
     7
 10
-3.8499999999999082
 20
90.577144374441303
 30
0.0
 11
-3.8499999999999082
 21
89.422144374441302
 31
0.0
  0
LINE
  5
B1
  8
1
 62
     7
 10
0.5775000000001
 20
93.849644374441326
 30
0.0
 11
-0.5774999999998727
 21
93.849644374441326
 31
0.0
  0
LINE
  5
B2
  8
1
 62
     7
 10
-24.999644374441232
 20
108.0
 30
0.0
 11
24.999644374441349
 21
108.0
 31
0.0
  0
LINE
  5
B3
  8
1
 62
     7
 10
-14.425999999999931
 20
118.80866123105621
 30
0.0
 11
-14.425999999999931
 21
122.2727628461939
 31
0.0
  0
LINE
  5
B4
  8
1
 62
     7
 10
-17.425999999999931
 20
117.07661042348739
 30
0.0
 11
-14.425999999999931
 21
118.80866123105621
 31
0.0
  0
LINE
  5
B5
  8
1
 62
     7
 10
-20.425999999999931
 20
118.80866123105621
 30
0.0
 11
-17.425999999999931
 21
117.07661042348739
 31
0.0
  0
LINE
  5
B6
  8
1
 62
     7
 10
-20.425999999999931
 20
122.2727628461939
 30
0.0
 11
-20.425999999999931
 21
118.80866123105621
 31
0.0
  0
LINE
  5
B7
  8
1
 62
     7
 10
-17.425999999999931
 20
124.00481365376289
 30
0.0
 11
-20.425999999999931
 21
122.2727628461939
 31
0.0
  0
LINE
  5
B8
  8
1
 62
     7
 10
-14.425999999999931
 20
122.2727628461939
 30
0.0
 11
-17.425999999999931
 21
124.00481365376289
 31
0.0
  0
LINE
  5
B9
  8
1
 62
     7
 10
-24.999644374441232
 20
108.0
 30
0.0
 11
-24.999644374441232
 21
123.0
 31
0.0
  0
LINE
  5
BA
  8
1
 62
     7
 10
-9.9996443744412336
 20
183.0
 30
0.0
 11
9.9996443744413455
 21
183.0
 31
0.0
  0
LINE
  5
BB
  8
1
 62
     7
 10
-14.999644374441219
 20
133.0
 30
0.0
 11
-14.999644374441219
 21
178.0
 31
0.0
  0
LINE
  5
BC
  8
1
  6
DASHDOT
 62
     3
 10
0.0
 20
172.5
 30
0.0
 11
0.0
 21
167.5
 31
0.0
  0
LINE
  5
BD
  8
1
  6
DASHDOT
 62
     3
 10
-2.5
 20
170.0
 30
0.0
 11
2.5
 21
170.0
 31
0.0
  0
LINE
  5
BE
  8
1
 62
     7
 10
-9.0
 20
-51.040815370097206
 30
0.0
 11
-12.0
 21
-51.040815370097206
 31
0.0
  0
LINE
  5
BF
  8
1
 62
     7
 10
-9.0
 20
-44.090815370097189
 30
0.0
 11
-9.0
 21
-51.040815370097206
 31
0.0
  0
LINE
  5
C0
  8
1
 62
     7
 10
9.0
 20
-51.040815370097206
 30
0.0
 11
12.0
 21
-51.040815370097206
 31
0.0
  0
LINE
  5
C1
  8
1
 62
     7
 10
9.0
 20
-44.090815370097189
 30
0.0
 11
9.0
 21
-51.040815370097206
 31
0.0
  0
LINE
  5
C2
  8
1
 62
     7
 10
-15.0
 20
-48.040815370097206
 30
0.0
 11
-15.0
 21
-47.673364634842912
 31
0.0
  0
LINE
  5
C3
  8
1
 62
     7
 10
15.0
 20
-48.040815370097206
 30
0.0
 11
15.0
 21
-47.673364634842912
 31
0.0
  0
LINE
  5
C4
  8
1
  6
DASHDOT
 62
     3
 10
-10.0
 20
0.0
 30
0.0
 11
10.0
 21
0.0
 31
0.0
  0
LINE
  5
C5
  8
1
  6
DASHDOT
 62
     3
 10
0.0
 20
10.0
 30
0.0
 11
0.0
 21
-10.0
 31
0.0
  0
LINE
  5
C6
  8
1
 62
     7
 10
-7.5
 20
34.999999999999993
 30
0.0
 11
7.5
 21
34.999999999999993
 31
0.0
  0
LINE
  5
C7
  8
1
 62
     7
 10
7.5
 20
34.999999999999993
 30
0.0
 11
7.5
 21
29.047124273305219
 31
0.0
  0
LINE
  5
C8
  8
1
 62
     7
 10
-7.5
 20
34.999999999999993
 30
0.0
 11
-7.5
 21
29.047124273305219
 31
0.0
  0
LINE
  5
C9
  8
1
 62
     7
 10
623.74099405162121
 20
29.999999999999989
 30
0.0
 11
693.74099405162121
 21
29.999999999999989
 31
0.0
  0
LINE
  5
CA
  8
1
 62
     7
 10
623.74099405162121
 20
34.999999999999993
 30
0.0
 11
693.74099405162121
 21
34.999999999999993
 31
0.0
  0
LINE
  5
CB
  8
1
 62
     7
 10
957.56950113169955
 20
145.30677867509061
 30
0.0
 11
957.56950113169955
 21
140.6879765215736
 31
0.0
  0
LINE
  5
CC
  8
1
 62
     7
 10
957.56950113169955
 20
140.6879765215736
 30
0.0
 11
961.56950113169967
 21
138.37857544481511
 31
0.0
  0
LINE
  5
CD
  8
1
 62
     7
 10
961.56950113169967
 20
138.37857544481511
 30
0.0
 11
965.56950113169955
 21
140.6879765215736
 31
0.0
  0
LINE
  5
CE
  8
1
 62
     7
 10
965.56950113169955
 20
140.6879765215736
 30
0.0
 11
965.56950113169955
 21
145.30677867509061
 31
0.0
  0
LINE
  5
CF
  8
1
 62
     7
 10
965.56950113169955
 20
145.30677867509061
 30
0.0
 11
961.56950113169967
 21
147.6161797518491
 31
0.0
  0
LINE
  5
D0
  8
1
 62
     7
 10
961.56950113169967
 20
147.6161797518491
 30
0.0
 11
957.56950113169955
 21
145.30677867509061
 31
0.0
  0
LINE
  5
D1
  8
1
 62
     7
 10
825.95332137985031
 20
-12.000000000000011
 30
0.0
 11
828.26272245660857
 21
-16.000000000000011
 31
0.0
  0
LINE
  5
D2
  8
1
 62
     7
 10
828.26272245660857
 20
-8.0000000000000124
 30
0.0
 11
825.95332137985031
 21
-12.000000000000011
 31
0.0
  0
LINE
  5
D3
  8
1
 62
     7
 10
832.88152461012567
 20
-8.0000000000000124
 30
0.0
 11
828.26272245660857
 21
-8.0000000000000124
 31
0.0
  0
LINE
  5
D4
  8
1
 62
     7
 10
835.19092568688427
 20
-12.000000000000011
 30
0.0
 11
832.88152461012567
 21
-8.0000000000000124
 31
0.0
  0
LINE
  5
D5
  8
1
 62
     7
 10
832.88152461012567
 20
-16.000000000000011
 30
0.0
 11
835.19092568688427
 21
-12.000000000000011
 31
0.0
  0
LINE
  5
D6
  8
1
 62
     7
 10
828.26272245660857
 20
-16.000000000000011
 30
0.0
 11
832.88152461012567
 21
-16.000000000000011
 31
0.0
  0
LINE
  5
D7
  8
1
 62
     7
 10
832.88152461012567
 20
16.0
 30
0.0
 11
828.26272245660857
 21
15.999999999999989
 31
0.0
  0
LINE
  5
D8
  8
1
 62
     7
 10
835.19092568688427
 20
12.0
 30
0.0
 11
832.88152461012567
 21
16.0
 31
0.0
  0
LINE
  5
D9
  8
1
 62
     7
 10
832.88152461012567
 20
8.0
 30
0.0
 11
835.19092568688427
 21
12.0
 31
0.0
  0
LINE
  5
DA
  8
1
 62
     7
 10
828.26272245660857
 20
8.0
 30
0.0
 11
832.88152461012567
 21
8.0
 31
0.0
  0
LINE
  5
DB
  8
1
 62
     7
 10
825.95332137985031
 20
12.0
 30
0.0
 11
828.26272245660857
 21
8.0
 31
0.0
  0
LINE
  5
DC
  8
1
 62
     7
 10
828.26272245660857
 20
15.999999999999989
 30
0.0
 11
825.95332137985031
 21
12.0
 31
0.0
  0
LINE
  5
DD
  8
1
 62
     7
 10
957.56950113169955
 20
-140.6879765215736
 30
0.0
 11
957.56950113169955
 21
-145.30677867509061
 31
0.0
  0
LINE
  5
DE
  8
1
 62
     7
 10
961.56950113169967
 20
-138.37857544481511
 30
0.0
 11
957.56950113169955
 21
-140.6879765215736
 31
0.0
  0
LINE
  5
DF
  8
1
 62
     7
 10
965.56950113169955
 20
-140.6879765215736
 30
0.0
 11
961.56950113169967
 21
-138.37857544481511
 31
0.0
  0
LINE
  5
E0
  8
1
 62
     7
 10
965.56950113169955
 20
-145.30677867509061
 30
0.0
 11
965.56950113169955
 21
-140.6879765215736
 31
0.0
  0
LINE
  5
E1
  8
1
 62
     7
 10
961.56950113169967
 20
-147.6161797518491
 30
0.0
 11
965.56950113169955
 21
-145.30677867509061
 31
0.0
  0
LINE
  5
E2
  8
1
 62
     7
 10
957.56950113169955
 20
-145.30677867509061
 30
0.0
 11
961.56950113169967
 21
-147.6161797518491
 31
0.0
  0
LINE
  5
E3
  8
1
 62
     7
 10
14.99964437444134
 20
178.0
 30
0.0
 11
14.99964437444134
 21
133.0
 31
0.0
  0
LINE
  5
E4
  8
1
 62
     7
 10
24.999644374441349
 20
123.0
 30
0.0
 11
24.999644374441349
 21
108.0
 31
0.0
  0
LINE
  5
E5
  8
1
 62
     7
 10
963.56950113169933
 20
183.0
 30
0.0
 11
983.56950113169955
 21
183.0
 31
0.0
  0
LINE
  5
E6
  8
1
 62
     7
 10
958.56950113169921
 20
178.0
 30
0.0
 11
958.56950113169921
 21
157.37462385333279
 31
0.0
  0
LINE
  5
E7
  8
1
 62
     7
 10
966.06950113169967
 20
34.999999999999993
 30
0.0
 11
981.06950113169955
 21
34.999999999999993
 31
0.0
  0
LINE
  5
E8
  8
1
 62
     7
 10
966.06950113169967
 20
29.047375096555619
 30
0.0
 11
966.06950113169967
 21
34.999999999999993
 31
0.0
  0
LINE
  5
E9
  8
1
 62
     7
 10
89.422144374441345
 20
-3.8500000000001009
 30
0.0
 11
90.577144374441218
 21
-3.850000000000108
 31
0.0
  0
LINE
  5
EA
  8
1
 62
     7
 10
86.149644374441195
 20
0.5774999999999153
 30
0.0
 11
86.149644374441195
 21
-0.5775000000000575
 31
0.0
  0
LINE
  5
EB
  8
1
 62
     7
 10
90.577144374441218
 20
3.8499999999999441
 30
0.0
 11
89.422144374441345
 21
3.8499999999999508
 31
0.0
  0
LINE
  5
EC
  8
1
 62
     7
 10
93.849644374441255
 20
-0.5775000000000646
 30
0.0
 11
93.849644374441255
 21
0.5774999999999011
 31
0.0
  0
LINE
  5
ED
  8
1
 62
     7
 10
693.74099405162121
 20
105.0
 30
0.0
 11
693.74099405162121
 21
157.5
 31
0.0
  0
LINE
  5
EE
  8
1
 62
     7
 10
693.74099405162121
 20
105.0
 30
0.0
 11
690.54099405162128
 21
105.0
 31
0.0
  0
LINE
  5
EF
  8
1
 62
     7
 10
690.54099405162128
 20
105.0
 30
0.0
 11
690.54099405162128
 21
74.925139054428399
 31
0.0
  0
LINE
  5
F0
  8
1
 62
     7
 10
690.54099405162128
 20
74.925139054428399
 30
0.0
 11
693.74099405162121
 21
74.925139054428399
 31
0.0
  0
LINE
  5
F1
  8
1
 62
     7
 10
693.74099405162121
 20
74.925139054428399
 30
0.0
 11
693.74099405162121
 21
-74.925139054428428
 31
0.0
  0
LINE
  5
F2
  8
1
 62
     7
 10
693.74099405162121
 20
157.5
 30
0.0
 11
665.7409940516211
 21
157.5
 31
0.0
  0
LINE
  5
F3
  8
1
 62
     7
 10
663.74099405162121
 20
147.55000000000001
 30
0.0
 11
663.74099405162121
 21
155.49999999999989
 31
0.0
  0
LINE
  5
F4
  8
1
 62
     7
 10
663.74099405162121
 20
147.55000000000001
 30
0.0
 11
682.7409940516211
 21
147.55000000000001
 31
0.0
  0
LINE
  5
F5
  8
1
 62
     7
 10
682.7409940516211
 20
147.55000000000001
 30
0.0
 11
682.7409940516211
 21
119.0
 31
0.0
  0
LINE
  5
F6
  8
1
 62
     7
 10
682.7409940516211
 20
119.0
 30
0.0
 11
676.74099405162121
 21
119.0
 31
0.0
  0
LINE
  5
F7
  8
1
 62
     7
 10
676.74099405162121
 20
119.0
 30
0.0
 11
676.74099405162121
 21
98.950000000000031
 31
0.0
  0
LINE
  5
F8
  8
1
 62
     7
 10
676.74099405162121
 20
98.950000000000031
 30
0.0
 11
663.74099405162121
 21
98.950000000000031
 31
0.0
  0
LINE
  5
F9
  8
1
 62
     7
 10
663.74099405162121
 20
98.950000000000031
 30
0.0
 11
663.74099405162121
 21
90.0
 31
0.0
  0
LINE
  5
FA
  8
1
 62
     7
 10
663.74099405162121
 20
90.0
 30
0.0
 11
669.24099405162121
 21
90.0
 31
0.0
  0
LINE
  5
FB
  8
1
 62
     7
 10
669.24099405162121
 20
90.0
 30
0.0
 11
669.24099405162121
 21
56.000000000000007
 31
0.0
  0
LINE
  5
FC
  8
1
 62
     7
 10
669.24099405162121
 20
56.000000000000007
 30
0.0
 11
659.74099405162121
 21
56.000000000000007
 31
0.0
  0
LINE
  5
FD
  8
1
 62
     7
 10
659.74099405162121
 20
44.999999999999993
 30
0.0
 11
629.74099405162121
 21
44.999999999999993
 31
0.0
  0
LINE
  5
FE
  8
1
 62
     7
 10
649.99099405162121
 20
71.593266739736606
 30
0.0
 11
659.74099405162121
 21
71.593266739736478
 31
0.0
  0
LINE
  5
FF
  8
1
 62
     7
 10
639.49099405162121
 20
71.593266739736606
 30
0.0
 11
629.74099405162121
 21
71.593266739736478
 31
0.0
  0
LINE
  5
100
  8
1
 62
     7
 10
649.99099405162121
 20
53.406733260263387
 30
0.0
 11
659.74099405162121
 21
53.406733260263437
 31
0.0
  0
LINE
  5
101
  8
1
 62
     7
 10
659.74099405162121
 20
73.0
 30
0.0
 11
663.74099405162121
 21
73.0
 31
0.0
  0
LINE
  5
102
  8
1
 62
     7
 10
663.74099405162121
 20
73.0
 30
0.0
 11
663.74099405162121
 21
85.0
 31
0.0
  0
LINE
  5
103
  8
1
 62
     7
 10
663.74099405162121
 20
85.0
 30
0.0
 11
658.74099405162121
 21
85.0
 31
0.0
  0
LINE
  5
104
  8
1
 62
     7
 10
658.74099405162121
 20
85.0
 30
0.0
 11
658.74099405162121
 21
100.0
 31
0.0
  0
LINE
  5
105
  8
1
 62
     7
 10
658.74099405162121
 20
100.0
 30
0.0
 11
673.74099405162121
 21
100.0
 31
0.0
  0
LINE
  5
106
  8
1
 62
     7
 10
673.74099405162121
 20
100.0
 30
0.0
 11
673.74099405162121
 21
146.5
 31
0.0
  0
LINE
  5
107
  8
1
 62
     7
 10
673.74099405162121
 20
146.5
 30
0.0
 11
632.7409940516211
 21
146.5
 31
0.0
  0
LINE
  5
108
  8
1
 62
     3
 10
632.43262071588094
 20
73.0
 30
0.0
 11
632.43262071588094
 21
50.996734563639201
 31
0.0
  0
LINE
  5
109
  8
1
 62
     3
 10
657.28065875352581
 20
73.0
 30
0.0
 11
657.28065875352581
 21
50.651622924227489
 31
0.0
  0
LINE
  5
10A
  8
1
 62
     7
 10
639.49099405162121
 20
53.406733260263387
 30
0.0
 11
626.74099405162121
 21
53.406733260263437
 31
0.0
  0
LINE
  5
10B
  8
1
 62
     7
 10
626.74099405162121
 20
44.999999999999993
 30
0.0
 11
624.74099405162121
 21
44.999999999999993
 31
0.0
  0
LINE
  5
10C
  8
1
 62
     7
 10
624.74099405162121
 20
44.999999999999993
 30
0.0
 11
623.74099405162121
 21
43.999999999999993
 31
0.0
  0
LINE
  5
10D
  8
1
 62
     7
 10
663.74099405162121
 20
155.49999999999989
 30
0.0
 11
665.7409940516211
 21
157.5
 31
0.0
  0
LINE
  5
10E
  8
1
 62
     7
 10
629.74099405162121
 20
143.5
 30
0.0
 11
632.7409940516211
 21
146.5
 31
0.0
  0
LINE
  5
10F
  8
1
 62
     3
 10
613.61248591599986
 20
-0.0000000000000071
 30
0.0
 11
623.74099405162121
 21
0.0
 31
0.0
  0
LINE
  5
110
  8
1
 62
     7
 10
629.74099405162121
 20
98.500000000000014
 30
0.0
 11
626.54099405162128
 21
98.500000000000014
 31
0.0
  0
LINE
  5
111
  8
1
 62
     7
 10
626.54099405162128
 20
70.0
 30
0.0
 11
629.74099405162121
 21
70.0
 31
0.0
  0
LINE
  5
112
  8
1
 62
     7
 10
629.74099405162121
 20
43.999999999999993
 30
0.0
 11
629.74099405162121
 21
143.5
 31
0.0
  0
LINE
  5
113
  8
1
 62
     7
 10
626.54099405162128
 20
70.0
 30
0.0
 11
626.54099405162128
 21
98.500000000000014
 31
0.0
  0
LINE
  5
114
  8
1
 62
     7
 10
626.54099405162128
 20
82.249999999999986
 30
0.0
 11
624.94099405162115
 21
82.249999999999986
 31
0.0
  0
LINE
  5
115
  8
1
 62
     7
 10
624.94099405162115
 20
82.249999999999986
 30
0.0
 11
624.94099405162115
 21
97.75
 31
0.0
  0
LINE
  5
116
  8
1
 62
     7
 10
624.94099405162115
 20
97.75
 30
0.0
 11
626.54099405162128
 21
97.75
 31
0.0
  0
LINE
  5
117
  8
1
 62
     7
 10
622.98294540012262
 20
97.0
 30
0.0
 11
624.64099405162119
 21
97.0
 31
0.0
  0
LINE
  5
118
  8
1
 62
     7
 10
624.94099405162115
 20
96.700000000000017
 30
0.0
 11
624.94099405162115
 21
83.300000000000026
 31
0.0
  0
LINE
  5
119
  8
1
 62
     7
 10
622.98294540012262
 20
83.0
 30
0.0
 11
624.64099405162119
 21
83.0
 31
0.0
  0
LINE
  5
11A
  8
1
 62
     7
 10
629.74099405162121
 20
138.81295476692651
 30
0.0
 11
629.74099405162121
 21
183.0
 31
0.0
  0
LINE
  5
11B
  8
1
 62
     7
 10
626.54099405162128
 20
183.0
 30
0.0
 11
626.54099405162128
 21
108.0
 31
0.0
  0
LINE
  5
11C
  8
1
 62
     7
 10
626.54099405162128
 20
183.0
 30
0.0
 11
629.74099405162121
 21
183.0
 31
0.0
  0
LINE
  5
11D
  8
1
 62
     7
 10
626.54099405162128
 20
176.5
 30
0.0
 11
629.74099405162121
 21
176.5
 31
0.0
  0
LINE
  5
11E
  8
1
 62
     3
 10
624.98289812213841
 20
170.0
 30
0.0
 11
632.28849073988647
 21
170.0
 31
0.0
  0
LINE
  5
11F
  8
1
 62
     7
 10
626.54099405162128
 20
163.49999999999989
 30
0.0
 11
629.74099405162121
 21
163.49999999999989
 31
0.0
  0
LINE
  5
120
  8
1
 62
     7
 10
626.54099405162128
 20
108.0
 30
0.0
 11
629.74099405162121
 21
108.0
 31
0.0
  0
LINE
  5
121
  8
1
 62
     7
 10
624.64099405162119
 20
-83.0
 30
0.0
 11
622.98294540012262
 21
-83.0
 31
0.0
  0
LINE
  5
122
  8
1
 62
     7
 10
624.64099405162119
 20
-97.0
 30
0.0
 11
622.98294540012262
 21
-97.0
 31
0.0
  0
LINE
  5
123
  8
1
 62
     7
 10
626.54099405162128
 20
-82.249999999999986
 30
0.0
 11
626.54099405162128
 21
-97.75
 31
0.0
  0
LINE
  5
124
  8
1
 62
     7
 10
626.54099405162128
 20
-97.75
 30
0.0
 11
624.94099405162115
 21
-97.75
 31
0.0
  0
LINE
  5
125
  8
1
 62
     7
 10
624.94099405162115
 20
-82.249999999999986
 30
0.0
 11
626.54099405162128
 21
-82.249999999999986
 31
0.0
  0
LINE
  5
126
  8
1
 62
     7
 10
626.54099405162128
 20
-97.75
 30
0.0
 11
626.54099405162128
 21
-82.249999999999986
 31
0.0
  0
LINE
  5
127
  8
1
 62
     7
 10
626.54099405162128
 20
-98.500000000000014
 30
0.0
 11
626.54099405162128
 21
-70.0
 31
0.0
  0
LINE
  5
128
  8
1
 62
     7
 10
629.74099405162121
 20
-70.0
 30
0.0
 11
626.54099405162128
 21
-70.0
 31
0.0
  0
LINE
  5
129
  8
1
 62
     7
 10
629.74099405162121
 20
-143.5
 30
0.0
 11
629.74099405162121
 21
-44.000000000000007
 31
0.0
  0
LINE
  5
12A
  8
1
 62
     7
 10
626.54099405162128
 20
-98.500000000000014
 30
0.0
 11
629.74099405162121
 21
-98.500000000000014
 31
0.0
  0
LINE
  5
12B
  8
1
 62
     7
 10
632.7409940516211
 20
-146.5
 30
0.0
 11
629.74099405162121
 21
-143.5
 31
0.0
  0
LINE
  5
12C
  8
1
 62
     7
 10
665.7409940516211
 20
-157.5
 30
0.0
 11
663.74099405162121
 21
-155.49999999999989
 31
0.0
  0
LINE
  5
12D
  8
1
 62
     7
 10
623.74099405162121
 20
-44.000000000000007
 30
0.0
 11
624.74099405162121
 21
-45.0
 31
0.0
  0
LINE
  5
12E
  8
1
 62
     7
 10
624.74099405162121
 20
-45.0
 30
0.0
 11
626.74099405162121
 21
-45.0
 31
0.0
  0
LINE
  5
12F
  8
1
 62
     7
 10
626.74099405162121
 20
-53.406733260263472
 30
0.0
 11
626.74099405162121
 21
-44.000000000000007
 31
0.0
  0
LINE
  5
130
  8
1
 62
     7
 10
626.74099405162121
 20
-44.000000000000007
 30
0.0
 11
629.74099405162121
 21
-44.000000000000007
 31
0.0
  0
LINE
  5
131
  8
1
 62
     3
 10
657.28065875352581
 20
-50.651622924227503
 30
0.0
 11
657.28065875352581
 21
-73.0
 31
0.0
  0
LINE
  5
132
  8
1
 62
     3
 10
632.43262071588094
 20
-50.996734563639222
 30
0.0
 11
632.43262071588094
 21
-73.0
 31
0.0
  0
LINE
  5
133
  8
1
 62
     7
 10
632.7409940516211
 20
-146.5
 30
0.0
 11
673.74099405162121
 21
-146.5
 31
0.0
  0
LINE
  5
134
  8
1
 62
     7
 10
673.74099405162121
 20
-100.0
 30
0.0
 11
673.74099405162121
 21
-146.5
 31
0.0
  0
LINE
  5
135
  8
1
 62
     7
 10
673.74099405162121
 20
-100.0
 30
0.0
 11
658.74099405162121
 21
-100.0
 31
0.0
  0
LINE
  5
136
  8
1
 62
     7
 10
658.74099405162121
 20
-100.0
 30
0.0
 11
658.74099405162121
 21
-85.0
 31
0.0
  0
LINE
  5
137
  8
1
 62
     7
 10
658.74099405162121
 20
-85.0
 30
0.0
 11
663.74099405162121
 21
-85.0
 31
0.0
  0
LINE
  5
138
  8
1
 62
     7
 10
663.74099405162121
 20
-85.0
 30
0.0
 11
663.74099405162121
 21
-73.0
 31
0.0
  0
LINE
  5
139
  8
1
 62
     7
 10
663.74099405162121
 20
-73.0
 30
0.0
 11
659.74099405162121
 21
-73.0
 31
0.0
  0
LINE
  5
13A
  8
1
 62
     7
 10
659.74099405162121
 20
-53.406733260263472
 30
0.0
 11
649.99099405162121
 21
-53.406733260263401
 31
0.0
  0
LINE
  5
13B
  8
1
 62
     7
 10
626.74099405162121
 20
-53.406733260263472
 30
0.0
 11
639.49099405162121
 21
-53.406733260263401
 31
0.0
  0
LINE
  5
13C
  8
1
 62
     7
 10
629.74099405162121
 20
-71.593266739736549
 30
0.0
 11
639.49099405162121
 21
-71.59326673973662
 31
0.0
  0
LINE
  5
13D
  8
1
 62
     7
 10
659.74099405162121
 20
-71.593266739736549
 30
0.0
 11
649.99099405162121
 21
-71.59326673973662
 31
0.0
  0
LINE
  5
13E
  8
1
 62
     7
 10
659.74099405162121
 20
-56.000000000000007
 30
0.0
 11
669.24099405162121
 21
-56.000000000000007
 31
0.0
  0
LINE
  5
13F
  8
1
 62
     7
 10
669.24099405162121
 20
-56.000000000000007
 30
0.0
 11
669.24099405162121
 21
-90.0
 31
0.0
  0
LINE
  5
140
  8
1
 62
     7
 10
669.24099405162121
 20
-90.0
 30
0.0
 11
663.74099405162121
 21
-90.0
 31
0.0
  0
LINE
  5
141
  8
1
 62
     7
 10
663.74099405162121
 20
-90.0
 30
0.0
 11
663.74099405162121
 21
-98.950000000000031
 31
0.0
  0
LINE
  5
142
  8
1
 62
     7
 10
663.74099405162121
 20
-98.950000000000031
 30
0.0
 11
676.74099405162121
 21
-98.950000000000031
 31
0.0
  0
LINE
  5
143
  8
1
 62
     7
 10
676.74099405162121
 20
-98.950000000000031
 30
0.0
 11
676.74099405162121
 21
-119.0
 31
0.0
  0
LINE
  5
144
  8
1
 62
     7
 10
676.74099405162121
 20
-119.0
 30
0.0
 11
682.7409940516211
 21
-119.0
 31
0.0
  0
LINE
  5
145
  8
1
 62
     7
 10
682.7409940516211
 20
-119.0
 30
0.0
 11
682.7409940516211
 21
-147.55000000000001
 31
0.0
  0
LINE
  5
146
  8
1
 62
     7
 10
682.7409940516211
 20
-147.55000000000001
 30
0.0
 11
663.74099405162121
 21
-147.55000000000001
 31
0.0
  0
LINE
  5
147
  8
1
 62
     7
 10
663.74099405162121
 20
-155.49999999999989
 30
0.0
 11
663.74099405162121
 21
-147.55000000000001
 31
0.0
  0
LINE
  5
148
  8
1
 62
     7
 10
623.74099405162121
 20
-44.000000000000007
 30
0.0
 11
623.74099405162121
 21
43.999999999999993
 31
0.0
  0
LINE
  5
149
  8
1
 62
     7
 10
693.74099405162121
 20
-30.000000000000011
 30
0.0
 11
623.74099405162121
 21
-30.000000000000011
 31
0.0
  0
LINE
  5
14A
  8
1
 62
     7
 10
693.74099405162121
 20
-115.187499494222
 30
0.0
 11
693.74099405162121
 21
-147.97310523833701
 31
0.0
  0
LINE
  5
14B
  8
1
 62
     7
 10
665.7409940516211
 20
-157.5
 30
0.0
 11
693.74099405162121
 21
-157.5
 31
0.0
  0
LINE
  5
14C
  8
1
 62
     7
 10
693.74099405162121
 20
-74.925139054428428
 30
0.0
 11
690.54099405162128
 21
-74.925139054428428
 31
0.0
  0
LINE
  5
14D
  8
1
 62
     7
 10
690.54099405162128
 20
-74.925139054428428
 30
0.0
 11
690.54099405162128
 21
-105.0
 31
0.0
  0
LINE
  5
14E
  8
1
 62
     7
 10
690.54099405162128
 20
-105.0
 30
0.0
 11
693.74099405162121
 21
-105.0
 31
0.0
  0
LINE
  5
14F
  8
1
 62
     7
 10
693.74099405162121
 20
-105.0
 30
0.0
 11
693.74099405162121
 21
-119.0
 31
0.0
  0
LINE
  5
150
  8
1
 62
     7
 10
693.74099405162121
 20
-146.5
 30
0.0
 11
693.74099405162121
 21
-157.5
 31
0.0
  0
LINE
  5
151
  8
1
 62
     7
 10
669.24099405162121
 20
63.0
 30
0.0
 11
693.74099405162121
 21
63.0
 31
0.0
  0
LINE
  5
152
  8
1
 62
     7
 10
693.74099405162121
 20
-63.0
 30
0.0
 11
669.24099405162121
 21
-63.0
 31
0.0
  0
LINE
  5
153
  8
1
 62
     7
 10
694.44099405162115
 20
158.0
 30
0.0
 11
709.84099405162124
 21
158.0
 31
0.0
  0
LINE
  5
154
  8
1
 62
     7
 10
709.84099405162124
 20
112.5
 30
0.0
 11
707.54099405162117
 21
112.5
 31
0.0
  0
LINE
  5
155
  8
1
 62
     7
 10
707.54099405162117
 20
112.5
 30
0.0
 11
707.54099405162117
 21
-112.5
 31
0.0
  0
LINE
  5
156
  8
1
 62
     7
 10
694.44099405162115
 20
105.0
 30
0.0
 11
707.54099405162117
 21
105.0
 31
0.0
  0
LINE
  5
157
  8
1
 62
     7
 10
707.54099405162117
 20
111.0
 30
0.0
 11
710.44099405162115
 21
111.0
 31
0.0
  0
LINE
  5
158
  8
1
 62
     7
 10
707.54099405162117
 20
76.0
 30
0.0
 11
710.44099405162115
 21
76.0
 31
0.0
  0
LINE
  5
159
  8
1
 62
     7
 10
710.44099405162115
 20
111.0
 30
0.0
 11
709.82537281172529
 21
118.0365829706992
 31
0.0
  0
LINE
  5
15A
  8
1
 62
     7
 10
712.14099405162119
 20
117.4937315799269
 30
0.0
 11
712.74099405162121
 21
110.81718171509419
 31
0.0
  0
LINE
  5
15B
  8
1
 62
     7
 10
709.84099405162124
 20
156.0
 30
0.0
 11
712.14099405162119
 21
156.0
 31
0.0
  0
LINE
  5
15C
  8
1
 62
     7
 10
712.14099405162119
 20
156.0
 30
0.0
 11
712.14099405162119
 21
117.0384336335261
 31
0.0
  0
LINE
  5
15D
  8
1
 62
     7
 10
712.14099405162119
 20
152.5
 30
0.0
 11
714.14099405162108
 21
152.5
 31
0.0
  0
LINE
  5
15E
  8
1
 62
     7
 10
714.14099405162108
 20
152.5
 30
0.0
 11
714.14099405162108
 21
134.49999999999989
 31
0.0
  0
LINE
  5
15F
  8
1
 62
     7
 10
714.14099405162108
 20
134.49999999999989
 30
0.0
 11
712.14099405162119
 21
134.49999999999989
 31
0.0
  0
LINE
  5
160
  8
1
 62
     7
 10
714.14099405162108
 20
151.5
 30
0.0
 11
723.54099405162128
 21
151.5
 31
0.0
  0
LINE
  5
161
  8
1
 62
     7
 10
723.54099405162128
 20
151.5
 30
0.0
 11
724.14099405162119
 21
150.46076951545859
 31
0.0
  0
LINE
  5
162
  8
1
 62
     7
 10
724.14099405162119
 20
150.46076951545859
 30
0.0
 11
724.14099405162119
 21
136.53923048454121
 31
0.0
  0
LINE
  5
163
  8
1
 62
     7
 10
724.14099405162119
 20
136.53923048454121
 30
0.0
 11
723.54099405162128
 21
135.49999999999989
 31
0.0
  0
LINE
  5
164
  8
1
 62
     7
 10
723.54099405162128
 20
135.49999999999989
 30
0.0
 11
714.14099405162108
 21
135.49999999999989
 31
0.0
  0
LINE
  5
165
  8
1
 62
     7
 10
723.54099405162128
 20
151.5
 30
0.0
 11
723.54099405162128
 21
135.49999999999989
 31
0.0
  0
LINE
  5
166
  8
1
 62
     7
 10
709.84099405162124
 20
112.5
 30
0.0
 11
709.84099405162124
 21
158.0
 31
0.0
  0
LINE
  5
167
  8
1
 62
     7
 10
709.84099405162124
 20
-112.5
 30
0.0
 11
709.84099405162124
 21
-138.5
 31
0.0
  0
LINE
  5
168
  8
1
 62
     7
 10
712.74099405162121
 20
-85.0
 30
0.0
 11
712.74099405162121
 21
110.81718171509419
 31
0.0
  0
LINE
  5
169
  8
1
 62
     7
 10
710.44099405162115
 20
-76.0
 30
0.0
 11
707.54099405162117
 21
-76.0
 31
0.0
  0
LINE
  5
16A
  8
1
 62
     7
 10
710.44099405162115
 20
-85.0
 30
0.0
 11
710.44099405162115
 21
111.0
 31
0.0
  0
LINE
  5
16B
  8
1
 62
     7
 10
710.44099405162115
 20
-111.0
 30
0.0
 11
707.54099405162117
 21
-111.0
 31
0.0
  0
LINE
  5
16C
  8
1
 62
     7
 10
707.54099405162117
 20
-105.0
 30
0.0
 11
694.44099405162115
 21
-105.0
 31
0.0
  0
LINE
  5
16D
  8
1
 62
     7
 10
707.54099405162117
 20
-112.5
 30
0.0
 11
709.84099405162124
 21
-112.5
 31
0.0
  0
LINE
  5
16E
  8
1
 62
     7
 10
709.84099405162124
 20
-158.0
 30
0.0
 11
694.44099405162115
 21
-158.0
 31
0.0
  0
LINE
  5
16F
  8
1
 62
     7
 10
694.44099405162115
 20
-158.0
 30
0.0
 11
694.44099405162115
 21
158.0
 31
0.0
  0
LINE
  5
170
  8
1
 62
     7
 10
712.74099405162121
 20
-109.55680527174459
 30
0.0
 11
712.74099405162121
 21
-156.0
 31
0.0
  0
LINE
  5
171
  8
1
 62
     7
 10
709.84099405162124
 20
-137.86433907565001
 30
0.0
 11
709.84099405162124
 21
-158.0
 31
0.0
  0
LINE
  5
172
  8
1
 62
     7
 10
710.44099405162115
 20
-109.3073996875691
 30
0.0
 11
710.44099405162115
 21
-156.0
 31
0.0
  0
LINE
  5
173
  8
1
 62
     7
 10
710.44099405162115
 20
-156.0
 30
0.0
 11
712.74099405162121
 21
-156.0
 31
0.0
  0
LINE
  5
174
  8
1
 62
     7
 10
707.54099405162117
 20
-98.0
 30
0.0
 11
698.14099405162108
 21
-98.0
 31
0.0
  0
LINE
  5
175
  8
1
 62
     7
 10
698.14099405162108
 20
-98.0
 30
0.0
 11
697.54099405162128
 21
-96.960769515458693
 31
0.0
  0
LINE
  5
176
  8
1
 62
     7
 10
697.54099405162128
 20
-96.960769515458693
 30
0.0
 11
697.54099405162128
 21
-83.039230484541335
 31
0.0
  0
LINE
  5
177
  8
1
 62
     7
 10
697.54099405162128
 20
-83.039230484541335
 30
0.0
 11
698.14099405162108
 21
-82.0
 31
0.0
  0
LINE
  5
178
  8
1
 62
     7
 10
698.14099405162108
 20
-82.0
 30
0.0
 11
707.54099405162117
 21
-82.0
 31
0.0
  0
LINE
  5
179
  8
1
 62
     7
 10
707.54099405162117
 20
-82.0
 30
0.0
 11
707.54099405162117
 21
-98.0
 31
0.0
  0
LINE
  5
17A
  8
1
 62
     7
 10
698.14099405162108
 20
-98.0
 30
0.0
 11
698.14099405162108
 21
-82.0
 31
0.0
  0
LINE
  5
17B
  8
1
 62
     7
 10
707.54099405162117
 20
-95.0
 30
0.0
 11
726.54099405162128
 21
-95.0
 31
0.0
  0
LINE
  5
17C
  8
1
 62
     7
 10
726.54099405162128
 20
-95.0
 30
0.0
 11
727.54099405162128
 21
-94.0
 31
0.0
  0
LINE
  5
17D
  8
1
 62
     7
 10
727.54099405162128
 20
-94.0
 30
0.0
 11
727.54099405162128
 21
-86.0
 31
0.0
  0
LINE
  5
17E
  8
1
 62
     7
 10
727.54099405162128
 20
-86.0
 30
0.0
 11
726.54099405162128
 21
-85.0
 31
0.0
  0
LINE
  5
17F
  8
1
 62
     7
 10
726.54099405162128
 20
-85.0
 30
0.0
 11
707.54099405162117
 21
-85.0
 31
0.0
  0
LINE
  5
180
  8
1
 62
     7
 10
726.54099405162128
 20
-95.0
 30
0.0
 11
726.54099405162128
 21
-85.0
 31
0.0
  0
LINE
  5
181
  8
1
 62
     3
 10
727.54099405162128
 20
-94.0
 30
0.0
 11
709.77304485918989
 21
-94.0
 31
0.0
  0
LINE
  5
182
  8
1
 62
     3
 10
709.77304485918989
 20
-94.0
 30
0.0
 11
708.04099405162117
 21
-95.0
 31
0.0
  0
LINE
  5
183
  8
1
 62
     3
 10
727.54099405162128
 20
-86.0
 30
0.0
 11
709.77304485918989
 21
-86.0
 31
0.0
  0
LINE
  5
184
  8
1
 62
     3
 10
709.77304485918989
 20
-86.0
 30
0.0
 11
708.04099405162117
 21
-85.0
 31
0.0
  0
LINE
  5
185
  8
1
 62
     3
 10
709.77304485918989
 20
-95.0
 30
0.0
 11
709.77304485918989
 21
-85.0
 31
0.0
  0
LINE
  5
186
  8
1
  6
DASHDOT
 62
     3
 10
695.2165237936124
 20
-90.0
 30
0.0
 11
729.35008453312332
 21
-90.0
 31
0.0
  0
LINE
  5
187
  8
1
 62
     7
 10
710.44099405162115
 20
-95.0
 30
0.0
 11
710.44099405162115
 21
-111.0
 31
0.0
  0
LINE
  5
188
  8
1
 62
     7
 10
712.74099405162121
 20
-95.0
 30
0.0
 11
712.74099405162121
 21
-110.81718171509419
 31
0.0
  0
LINE
  5
189
  8
1
 62
     7
 10
709.84099405162124
 20
131.0
 30
0.0
 11
712.14099405162119
 21
131.0
 31
0.0
  0
LINE
  5
18A
  8
1
 62
     7
 10
710.44099405162115
 20
109.0
 30
0.0
 11
712.74099405162121
 21
109.0
 31
0.0
  0
LINE
  5
18B
  8
1
 62
     7
 10
710.44099405162115
 20
-75.0
 30
0.0
 11
712.74099405162121
 21
-75.0
 31
0.0
  0
LINE
  5
18C
  8
1
 62
     7
 10
710.44099405162115
 20
75.0
 30
0.0
 11
712.74099405162121
 21
75.0
 31
0.0
  0
LINE
  5
18D
  8
1
  6
DASHDOT
 62
     3
 10
917.00185768106314
 20
56.567643450636297
 30
0.0
 11
902.03916775351001
 21
71.530333378189596
 31
0.0
  0
LINE
  5
18E
  8
1
 62
     7
 10
927.07397626474938
 20
163.8644028651494
 30
0.0
 11
930.2663968077901
 21
151.95012719939581
 31
0.0
  0
LINE
  5
18F
  8
1
 62
     7
 10
929.56023818599624
 20
164.24480531702301
 30
0.0
 11
932.67609200550112
 21
152.61628055367279
 31
0.0
  0
LINE
  5
190
  8
1
 62
     7
 10
932.02432823254333
 20
164.70795433177491
 30
0.0
 11
935.09602593923512
 21
153.2442224249084
 31
0.0
  0
LINE
  5
191
  8
1
 62
     3
 10
929.04255394560425
 20
166.1768292044431
 30
0.0
 11
929.56023818599624
 21
164.24480531702301
 31
0.0
  0
LINE
  5
192
  8
1
 62
     7
 10
647.49099405162121
 20
156.14054545385221
 30
0.0
 11
647.49099405162121
 21
146.5
 31
0.0
  0
LINE
  5
193
  8
1
 62
     7
 10
649.99099405162121
 20
156.07534687328459
 30
0.0
 11
649.99099405162121
 21
146.5
 31
0.0
  0
LINE
  5
194
  8
1
 62
     7
 10
622.98294540012262
 20
-83.0
 30
0.0
 11
624.64099405162119
 21
-83.0
 31
0.0
  0
LINE
  5
195
  8
1
 62
     7
 10
622.98294540012262
 20
-97.0
 30
0.0
 11
624.64099405162119
 21
-97.0
 31
0.0
  0
LINE
  5
196
  8
1
 62
     7
 10
624.94099405162115
 20
96.700000000000017
 30
0.0
 11
624.94099405162115
 21
83.300000000000026
 31
0.0
  0
LINE
  5
197
  8
1
 62
     7
 10
626.54099405162128
 20
114.040712038625
 30
0.0
 11
619.04099405162128
 21
114.040712038625
 31
0.0
  0
LINE
  5
198
  8
1
 62
     7
 10
619.04099405162128
 20
114.040712038625
 30
0.0
 11
618.54099405162128
 21
114.90673744240959
 31
0.0
  0
LINE
  5
199
  8
1
 62
     7
 10
618.54099405162128
 20
114.90673744240959
 30
0.0
 11
618.54099405162128
 21
126.1746866348407
 31
0.0
  0
LINE
  5
19A
  8
1
 62
     7
 10
618.54099405162128
 20
126.1746866348407
 30
0.0
 11
619.04099405162128
 21
127.040712038625
 31
0.0
  0
LINE
  5
19B
  8
1
 62
     7
 10
619.04099405162128
 20
127.040712038625
 30
0.0
 11
626.54099405162128
 21
127.040712038625
 31
0.0
  0
LINE
  5
19C
  8
1
 62
     7
 10
619.04099405162128
 20
114.040712038625
 30
0.0
 11
619.04099405162128
 21
127.040712038625
 31
0.0
  0
LINE
  5
19D
  8
1
 62
     7
 10
17.42600000000003
 20
124.00481365376289
 30
0.0
 11
14.42600000000003
 21
122.2727628461939
 31
0.0
  0
LINE
  5
19E
  8
1
 62
     7
 10
14.42600000000003
 20
122.2727628461939
 30
0.0
 11
14.42600000000003
 21
118.80866123105621
 31
0.0
  0
LINE
  5
19F
  8
1
 62
     7
 10
14.42600000000003
 20
118.80866123105621
 30
0.0
 11
17.42600000000003
 21
117.07661042348739
 31
0.0
  0
LINE
  5
1A0
  8
1
 62
     7
 10
17.42600000000003
 20
117.07661042348739
 30
0.0
 11
20.42600000000003
 21
118.80866123105621
 31
0.0
  0
LINE
  5
1A1
  8
1
 62
     7
 10
20.42600000000003
 20
118.80866123105621
 30
0.0
 11
20.42600000000003
 21
122.2727628461939
 31
0.0
  0
LINE
  5
1A2
  8
1
 62
     7
 10
20.42600000000003
 20
122.2727628461939
 30
0.0
 11
17.42600000000003
 21
124.00481365376289
 31
0.0
  0
LINE
  5
1A3
  8
1
 62
     7
 10
336.53687053475312
 20
83.0
 30
0.0
 11
337.48342834550931
 21
83.0
 31
0.0
  0
LINE
  5
1A4
  8
1
 62
     7
 10
339.38342834550912
 20
86.775519126041615
 30
0.0
 11
339.38342834550912
 21
-98.500000000000014
 31
0.0
  0
LINE
  5
1A5
  8
1
 62
     7
 10
336.58342834550911
 20
127.040712038625
 30
0.0
 11
339.38342834550912
 21
127.040712038625
 31
0.0
  0
LINE
  5
1A6
  8
1
 62
     7
 10
334.08888541457981
 20
114.040712038625
 30
0.0
 11
331.88342834550912
 21
114.040712038625
 31
0.0
  0
LINE
  5
1A7
  8
1
 62
     7
 10
319.33342834550911
 20
107.7107246806608
 30
0.0
 11
319.33342834550911
 21
124.9973524610747
 31
0.0
  0
LINE
  5
1A8
  8
1
 62
     7
 10
322.79673682121029
 20
87.633168793470418
 30
0.0
 11
312.68764829020512
 21
124.2828489810815
 31
0.0
  0
LINE
  5
1A9
  8
1
 62
     7
 10
324.72473780915959
 20
88.164969687101035
 30
0.0
 11
314.61564927815459
 21
124.814649874712
 31
0.0
  0
LINE
  5
1AA
  8
1
 62
     7
 10
321.33342834550911
 20
124.9973524610747
 30
0.0
 11
321.33342834550911
 21
107.2292449079977
 31
0.0
  0
LINE
  5
1AB
  8
1
 62
     7
 10
339.98343170819408
 20
93.346176695160011
 30
0.0
 11
340.7155248258918
 21
93.186754039976904
 31
0.0
  0
LINE
  5
1AC
  8
1
 62
     7
 10
339.98343170819408
 20
92.223884916936299
 30
0.0
 11
340.38980545777002
 21
92.630258666512006
 31
0.0
  0
LINE
  5
1AD
  8
1
 62
     7
 10
339.9834317081943
 20
90.923884916936402
 30
0.0
 11
340.98342834550931
 21
91.923881554251196
 31
0.0
  0
LINE
  5
1AE
  8
1
 62
     7
 10
339.68342834550913
 20
87.688337058233131
 30
0.0
 11
339.68342834550913
 21
87.673881554251196
 31
0.0
  0
LINE
  5
1AF
  8
1
 62
     7
 10
337.9834317081939
 20
94.867959367697068
 30
0.0
 11
337.98343170819481
 21
89.960026583856404
 31
0.0
  0
LINE
  5
1B0
  8
1
 62
     7
 10
339.9834317081939
 20
96.120127626048202
 30
0.0
 11
339.98343170819442
 21
89.960026583856404
 31
0.0
  0
LINE
  5
1B1
  8
1
 62
     7
 10
312.78173357962658
 20
134.28396694223039
 30
0.0
 11
309.40773185071532
 21
133.35331537837669
 31
0.0
  0
LINE
  5
1B2
  8
1
 62
     7
 10
313.47907432572032
 20
131.75581465157421
 30
0.0
 11
313.0855114852078
 21
133.18264479499041
 31
0.0
  0
LINE
  5
1B3
  8
1
 62
     7
 10
313.96107457270739
 20
131.8887648749818
 30
0.0
 11
309.62307234982131
 21
130.69221286431281
 31
0.0
  0
LINE
  5
1B4
  8
1
 62
     7
 10
315.82064989562281
 20
125.14702543323121
 30
0.0
 11
311.4826476727369
 21
123.9504734225625
 31
0.0
  0
LINE
  5
1B5
  8
1
 62
     7
 10
309.71150975629632
 20
132.25199323113679
 30
0.0
 11
313.0855114852078
 21
133.18264479499041
 31
0.0
  0
LINE
  5
1B6
  8
1
 62
     7
 10
309.71150975629632
 20
132.25199323113679
 30
0.0
 11
310.10507259680861
 21
130.82516308772051
 31
0.0
  0
LINE
  5
1B7
  8
1
 62
     7
 10
312.29973333263962
 20
134.1510167188228
 30
0.0
 11
312.60351123822028
 21
133.04969457158299
 31
0.0
  0
LINE
  5
1B8
  8
1
 62
     7
 10
309.88973209770279
 20
133.48626560178459
 30
0.0
 11
310.19351000328362
 21
132.3849434545447
 31
0.0
  0
LINE
  5
1B9
  8
1
 62
     7
 10
309.40773185071532
 20
133.35331537837669
 30
0.0
 11
309.17970886266562
 21
134.17999421908641
 31
0.0
  0
LINE
  5
1BA
  8
1
 62
     7
 10
309.04870905687483
 20
136.53532639319209
 30
0.0
 11
309.17970886266562
 21
134.17999421908641
 31
0.0
  0
LINE
  5
1BB
  8
1
 62
     7
 10
311.4587102918116
 20
137.2000775102305
 30
0.0
 11
312.5537105915771
 21
135.11064578294
 31
0.0
  0
LINE
  5
1BC
  8
1
 62
     7
 10
309.04870905687483
 20
136.53532639319209
 30
0.0
 11
311.4587102918116
 21
137.2000775102305
 31
0.0
  0
LINE
  5
1BD
  8
1
 62
     7
 10
312.5537105915771
 20
135.11064578294
 30
0.0
 11
312.78173357962658
 21
134.28396694223039
 31
0.0
  0
LINE
  5
1BE
  8
1
 62
     7
 10
313.96107457270739
 20
131.8887648749818
 30
0.0
 11
315.82064989562281
 21
125.14702543323121
 31
0.0
  0
LINE
  5
1BF
  8
1
 62
     7
 10
309.62307234982131
 20
130.69221286431281
 30
0.0
 11
311.4826476727369
 21
123.9504734225625
 31
0.0
  0
LINE
  5
1C0
  8
1
 62
     7
 10
322.58342834550911
 20
124.9973524610747
 30
0.0
 11
322.58342834550911
 21
131.9908545224209
 31
0.0
  0
LINE
  5
1C1
  8
1
 62
     7
 10
318.08342834550911
 20
124.9973524610747
 30
0.0
 11
318.08342834550911
 21
131.9908545224209
 31
0.0
  0
LINE
  5
1C2
  8
1
 62
     7
 10
318.58342834550911
 20
134.61341779542551
 30
0.0
 11
318.58342834550911
 21
135.47096802063439
 31
0.0
  0
LINE
  5
1C3
  8
1
 62
     7
 10
319.08342834550911
 20
137.7763423068393
 30
0.0
 11
321.58342834550911
 21
137.7763423068393
 31
0.0
  0
LINE
  5
1C4
  8
1
 62
     7
 10
318.58342834550911
 20
135.47096802063439
 30
0.0
 11
319.08342834550911
 21
137.7763423068393
 31
0.0
  0
LINE
  5
1C5
  8
1
 62
     7
 10
322.08342834550911
 20
135.47096802063439
 30
0.0
 11
321.58342834550911
 21
137.7763423068393
 31
0.0
  0
LINE
  5
1C6
  8
1
 62
     7
 10
322.08342834550911
 20
135.47096802063439
 30
0.0
 11
322.08342834550911
 21
134.61341779542551
 31
0.0
  0
LINE
  5
1C7
  8
1
 62
     7
 10
321.58342834550911
 20
133.47096802063439
 30
0.0
 11
321.58342834550911
 21
134.61341779542551
 31
0.0
  0
LINE
  5
1C8
  8
1
 62
     7
 10
319.08342834550911
 20
133.47096802063439
 30
0.0
 11
319.08342834550911
 21
134.61341779542551
 31
0.0
  0
LINE
  5
1C9
  8
1
 62
     7
 10
322.08342834550911
 20
131.9908545224209
 30
0.0
 11
322.08342834550911
 21
133.47096802063439
 31
0.0
  0
LINE
  5
1CA
  8
1
 62
     7
 10
318.58342834550911
 20
133.47096802063439
 30
0.0
 11
322.08342834550911
 21
133.47096802063439
 31
0.0
  0
LINE
  5
1CB
  8
1
 62
     7
 10
318.08342834550911
 20
124.9973524610747
 30
0.0
 11
322.58342834550911
 21
124.9973524610747
 31
0.0
  0
LINE
  5
1CC
  8
1
 62
     7
 10
318.08342834550911
 20
131.9908545224209
 30
0.0
 11
322.58342834550911
 21
131.9908545224209
 31
0.0
  0
LINE
  5
1CD
  8
1
 62
     7
 10
318.58342834550911
 20
133.47096802063439
 30
0.0
 11
318.58342834550911
 21
131.9908545224209
 31
0.0
  0
LINE
  5
1CE
  8
1
 62
     7
 10
318.58342834550911
 20
134.61341779542551
 30
0.0
 11
322.08342834550911
 21
134.61341779542551
 31
0.0
  0
LINE
  5
1CF
  8
1
 62
     7
 10
334.58342834550911
 20
135.70776025612639
 30
0.0
 11
334.58342834550911
 21
116.1115772354125
 31
0.0
  0
LINE
  5
1D0
  8
1
 62
     7
 10
336.58342834550911
 20
135.70776025612639
 30
0.0
 11
336.58342834550911
 21
116.1115772354125
 31
0.0
  0
LINE
  5
1D1
  8
1
 62
     7
 10
335.38345503844232
 20
100.9635733422547
 30
0.0
 11
335.38345503844232
 21
94.091417338648583
 31
0.0
  0
LINE
  5
1D2
  8
1
 62
     7
 10
335.85279548329231
 20
101.81115840378421
 30
0.0
 11
339.02169072662309
 21
103.7951534226535
 31
0.0
  0
LINE
  5
1D3
  8
1
 62
     7
 10
341.08342834550911
 20
94.091417338648583
 30
0.0
 11
341.78342834550921
 21
92.087948125286715
 31
0.0
  0
LINE
  5
1D4
  8
1
 62
     7
 10
336.76232576727318
 20
93.139211872041926
 30
0.0
 11
337.9834317081943
 21
92.939395361974704
 31
0.0
  0
LINE
  5
1D5
  8
1
 62
     7
 10
337.22790531652811
 20
93.853406488611924
 30
0.0
 11
337.98343170819408
 21
93.729557360424522
 31
0.0
  0
LINE
  5
1D6
  8
1
 62
     7
 10
340.31577428458752
 20
92.642207191500788
 30
0.0
 11
339.98343170819408
 21
92.681863190538024
 31
0.0
  0
LINE
  5
1D7
  8
1
 62
     7
 10
335.8216907266231
 20
94.717195986405997
 30
0.0
 11
339.02169072662309
 21
96.720665199767907
 31
0.0
  0
LINE
  5
1D8
  8
1
 62
     7
 10
336.99299394078781
 20
94.247862000587901
 30
0.0
 11
340.19299394078757
 21
96.251331213949811
 31
0.0
  0
LINE
  5
1D9
  8
1
 62
     7
 10
341.08342834550911
 20
94.091417338648583
 30
0.0
 11
341.08342834550911
 21
96.094886552010422
 31
0.0
  0
LINE
  5
1DA
  8
1
 62
     7
 10
340.98342834550931
 20
92.0531518142609
 30
0.0
 11
340.66967460665171
 21
92.484344679695994
 31
0.0
  0
LINE
  5
1DB
  8
1
 62
     7
 10
340.98342834550931
 20
92.0531518142609
 30
0.0
 11
341.78342834550921
 21
92.087948125286715
 31
0.0
  0
LINE
  5
1DC
  8
1
 62
     7
 10
341.78342834550921
 20
92.087948125286715
 30
0.0
 11
341.78342834550921
 21
85.0758058785202
 31
0.0
  0
LINE
  5
1DD
  8
1
 62
     7
 10
341.78342834550921
 20
92.087948125286715
 30
0.0
 11
342.58342834550911
 21
92.087948125286715
 31
0.0
  0
LINE
  5
1DE
  8
1
 62
     7
 10
340.98342834550931
 20
85.0758058785202
 30
0.0
 11
342.58342834550911
 21
85.0758058785202
 31
0.0
  0
LINE
  5
1DF
  8
1
 62
     7
 10
339.68342834550913
 20
87.673881554251196
 30
0.0
 11
340.98342834550931
 21
87.673881554251196
 31
0.0
  0
LINE
  5
1E0
  8
1
 62
     7
 10
340.98342834550931
 20
85.0758058785202
 30
0.0
 11
340.98342834550931
 21
92.0531518142609
 31
0.0
  0
LINE
  5
1E1
  8
1
 62
     7
 10
342.58342834550911
 20
103.1693747748962
 30
0.0
 11
342.58342834550911
 21
85.0758058785202
 31
0.0
  0
LINE
  5
1E2
  8
1
 62
     7
 10
40.360570493229829
 20
142.90163840542661
 30
0.0
 11
39.839402914239031
 21
140.9565962763412
 31
0.0
  0
LINE
  5
1E3
  8
1
 62
     7
 10
38.428717626759067
 20
143.4192719653015
 30
0.0
 11
37.911084066884307
 21
141.4874190988306
 31
0.0
  0
LINE
  5
1E4
  8
1
 62
     7
 10
36.49686476028829
 20
143.93690552517629
 30
0.0
 11
35.975697181297498
 21
141.99186339609079
 31
0.0
  0
LINE
  5
1E5
  8
1
 62
     7
 10
93.875140644767157
 20
93.366379387871802
 30
0.0
 11
93.366023762313176
 21
93.875496270325911
 31
0.0
  0
LINE
  5
1E6
  8
1
 62
     7
 10
90.481028095071792
 20
93.875496270326096
 30
0.0
 11
89.97191121261757
 21
93.366379387871802
 31
0.0
  0
LINE
  5
1E7
  8
1
 62
     7
 10
89.971911212617783
 20
90.481383720630475
 30
0.0
 11
90.481028095071792
 21
89.972266838176267
 31
0.0
  0
LINE
  5
1E8
  8
1
 62
     7
 10
93.366023762313176
 20
89.972266838176267
 30
0.0
 11
93.875140644767583
 21
90.481383720630618
 31
0.0
  0
LINE
  5
1E9
  8
1
 62
     7
 10
85.075450252961332
 20
92.146873690385704
 30
0.0
 11
92.14651806482685
 21
85.0758058785202
 31
0.0
  0
LINE
  5
1EA
  8
1
 62
     7
 10
92.14651806482685
 20
85.0758058785202
 30
0.0
 11
104.1673333449983
 21
97.096621158691434
 31
0.0
  0
LINE
  5
1EB
  8
1
 62
     7
 10
97.096265533132851
 20
104.1676889705569
 30
0.0
 11
104.1673333449983
 21
97.096621158691434
 31
0.0
  0
LINE
  5
1EC
  8
1
 62
     7
 10
85.075450252961332
 20
92.146873690385704
 30
0.0
 11
97.096265533132851
 21
104.1676889705569
 31
0.0
  0
LINE
  5
1ED
  8
1
 62
     7
 10
158.75353617904801
 20
133.18264479499041
 30
0.0
 11
158.3599733385355
 21
131.75581465157421
 31
0.0
  0
LINE
  5
1EE
  8
1
 62
     7
 10
158.75353617904801
 20
133.18264479499041
 30
0.0
 11
162.12753790795941
 21
132.25199323113679
 31
0.0
  0
LINE
  5
1EF
  8
1
 62
     7
 10
161.73397506744729
 20
130.82516308772051
 30
0.0
 11
162.12753790795941
 21
132.25199323113679
 31
0.0
  0
LINE
  5
1F0
  8
1
 62
     7
 10
159.23553642603531
 20
133.04969457158299
 30
0.0
 11
159.53931433161631
 21
134.1510167188228
 31
0.0
  0
LINE
  5
1F1
  8
1
 62
     7
 10
161.6455376609722
 20
132.3849434545447
 30
0.0
 11
161.94931556655311
 21
133.48626560178459
 31
0.0
  0
LINE
  5
1F2
  8
1
 62
     7
 10
162.43131581354041
 20
133.35331537837669
 30
0.0
 11
159.0573140846291
 21
134.28396694223039
 31
0.0
  0
LINE
  5
1F3
  8
1
 62
     7
 10
162.65933880159011
 20
134.17999421908641
 30
0.0
 11
162.43131581354041
 21
133.35331537837669
 31
0.0
  0
LINE
  5
1F4
  8
1
 62
     7
 10
162.65933880159011
 20
134.17999421908641
 30
0.0
 11
162.7903386073809
 21
136.53532639319209
 31
0.0
  0
LINE
  5
1F5
  8
1
 62
     7
 10
159.28533707267869
 20
135.11064578294
 30
0.0
 11
160.3803373724441
 21
137.2000775102305
 31
0.0
  0
LINE
  5
1F6
  8
1
 62
     7
 10
160.3803373724441
 20
137.2000775102305
 30
0.0
 11
162.7903386073809
 21
136.53532639319209
 31
0.0
  0
LINE
  5
1F7
  8
1
 62
     7
 10
159.0573140846291
 20
134.28396694223039
 30
0.0
 11
159.28533707267869
 21
135.11064578294
 31
0.0
  0
LINE
  5
1F8
  8
1
 62
     7
 10
156.01839776863301
 20
125.14702543323121
 30
0.0
 11
157.8779730915484
 21
131.8887648749818
 31
0.0
  0
LINE
  5
1F9
  8
1
 62
     7
 10
162.2159753144345
 20
130.69221286431281
 30
0.0
 11
157.8779730915484
 21
131.8887648749818
 31
0.0
  0
LINE
  5
1FA
  8
1
 62
     7
 10
160.356399991519
 20
123.9504734225625
 30
0.0
 11
156.01839776863301
 21
125.14702543323121
 31
0.0
  0
LINE
  5
1FB
  8
1
 62
     7
 10
160.356399991519
 20
123.9504734225625
 30
0.0
 11
162.2159753144345
 21
130.69221286431281
 31
0.0
  0
LINE
  5
1FC
  8
1
 62
     7
 10
149.2556193187466
 20
131.9908545224209
 30
0.0
 11
149.2556193187466
 21
124.9973524610747
 31
0.0
  0
LINE
  5
1FD
  8
1
 62
     7
 10
153.7556193187466
 20
131.9908545224209
 30
0.0
 11
153.7556193187466
 21
124.9973524610747
 31
0.0
  0
LINE
  5
1FE
  8
1
 62
     7
 10
153.2556193187466
 20
135.47096802063439
 30
0.0
 11
153.2556193187466
 21
134.61341779542551
 31
0.0
  0
LINE
  5
1FF
  8
1
 62
     7
 10
150.2556193187466
 20
137.7763423068393
 30
0.0
 11
152.7556193187466
 21
137.7763423068393
 31
0.0
  0
LINE
  5
200
  8
1
 62
     7
 10
152.7556193187466
 20
137.7763423068393
 30
0.0
 11
153.2556193187466
 21
135.47096802063439
 31
0.0
  0
LINE
  5
201
  8
1
 62
     7
 10
150.2556193187466
 20
137.7763423068393
 30
0.0
 11
149.7556193187466
 21
135.47096802063439
 31
0.0
  0
LINE
  5
202
  8
1
 62
     7
 10
149.7556193187466
 20
134.61341779542551
 30
0.0
 11
149.7556193187466
 21
135.47096802063439
 31
0.0
  0
LINE
  5
203
  8
1
 62
     7
 10
150.2556193187466
 20
134.61341779542551
 30
0.0
 11
150.2556193187466
 21
133.47096802063439
 31
0.0
  0
LINE
  5
204
  8
1
 62
     7
 10
152.7556193187466
 20
134.61341779542551
 30
0.0
 11
152.7556193187466
 21
133.47096802063439
 31
0.0
  0
LINE
  5
205
  8
1
 62
     7
 10
149.7556193187466
 20
133.47096802063439
 30
0.0
 11
149.7556193187466
 21
131.9908545224209
 31
0.0
  0
LINE
  5
206
  8
1
 62
     7
 10
149.7556193187466
 20
133.47096802063439
 30
0.0
 11
153.2556193187466
 21
133.47096802063439
 31
0.0
  0
LINE
  5
207
  8
1
 62
     7
 10
149.2556193187466
 20
124.9973524610747
 30
0.0
 11
153.7556193187466
 21
124.9973524610747
 31
0.0
  0
LINE
  5
208
  8
1
 62
     7
 10
149.2556193187466
 20
131.9908545224209
 30
0.0
 11
153.7556193187466
 21
131.9908545224209
 31
0.0
  0
LINE
  5
209
  8
1
 62
     7
 10
153.2556193187466
 20
131.9908545224209
 30
0.0
 11
153.2556193187466
 21
133.47096802063439
 31
0.0
  0
LINE
  5
20A
  8
1
 62
     7
 10
149.7556193187466
 20
134.61341779542551
 30
0.0
 11
153.2556193187466
 21
134.61341779542551
 31
0.0
  0
LINE
  5
20B
  8
1
 62
     7
 10
150.5056193187466
 20
111.6869348713025
 30
0.0
 11
150.5056193187466
 21
124.9973524610747
 31
0.0
  0
LINE
  5
20C
  8
1
 62
     7
 10
152.5056193187466
 20
124.9973524610747
 30
0.0
 11
152.5056193187466
 21
111.6869348713055
 31
0.0
  0
LINE
  5
20D
  8
1
 62
     7
 10
159.15139937405041
 20
124.2828489810815
 30
0.0
 11
153.37320317029551
 21
103.33446750441691
 31
0.0
  0
LINE
  5
20E
  8
1
 62
     7
 10
157.36384792935439
 20
124.7759096494329
 30
0.0
 11
151.44760044550941
 21
103.8689490286404
 31
0.0
  0
LINE
  5
20F
  8
1
 62
     7
 10
362.58342834550911
 20
148.5
 30
0.0
 11
362.58342834550911
 21
146.5
 31
0.0
  0
LINE
  5
210
  8
1
 62
     7
 10
360.58342834550911
 20
148.5
 30
0.0
 11
360.58342834550911
 21
146.5
 31
0.0
  0
LINE
  5
211
  8
1
 62
     7
 10
342.58342834550911
 20
-143.5
 30
0.0
 11
342.58342834550911
 21
150.64185327380301
 31
0.0
  0
LINE
  5
212
  8
1
 62
     7
 10
339.38342834550912
 20
145.25491511586989
 30
0.0
 11
339.38342834550912
 21
112.7983760960296
 31
0.0
  0
LINE
  5
213
  8
1
 62
     7
 10
342.58342834550911
 20
153.858366525316
 30
0.0
 11
342.58342834550911
 21
183.0
 31
0.0
  0
LINE
  5
214
  8
1
 62
     7
 10
341.21758717880789
 20
108.0
 30
0.0
 11
342.58342834550911
 21
108.0
 31
0.0
  0
ARC
  5
215
  8
1
 62
     7
 10
340.58048885726248
 20
92.003518499177417
 30
0.0
 40
1.1909160582655149
 50
31.584377397835169
 51
83.48932558406247
  0
ARC
  5
216
  8
1
 62
     7
 10
340.25499916493533
 20
92.030337162262725
 30
0.0
 40
0.6148809216820572
 50
47.592457709260152
 51
84.327596462831394
  0
ARC
  5
217
  8
1
 62
     7
 10
335.82537969401062
 20
94.400000000000006
 30
0.0
 40
2.6000000000000232
 50
99.786134182951415
 51
163.39845040098089
  0
ARC
  5
218
  8
1
 62
     7
 10
337.48342834550931
 20
83.300000000000026
 30
0.0
 40
0.3000000000000114
 50
270.0
 51
0.0
  0
ARC
  5
219
  8
1
 62
     7
 10
337.48342834550931
 20
-83.300000000000026
 30
0.0
 40
0.2999999999998977
 50
0.0
 51
90.0
  0
ARC
  5
21A
  8
1
 62
     7
 10
337.48342834550931
 20
-96.700000000000017
 30
0.0
 40
0.3000000000000114
 50
270.0
 51
0.0
  0
ARC
  5
21B
  8
1
 62
     7
 10
335.82537969401062
 20
-85.59999999999998
 30
0.0
 40
2.599999999999993
 50
90.0
 51
163.39845040098041
  0
ARC
  5
21C
  8
1
 62
     7
 10
335.82537969401062
 20
-94.400000000000034
 30
0.0
 40
2.6000000000000552
 50
196.60154959901931
 51
270.0
  0
ARC
  5
21D
  8
1
 62
     7
 10
335.82537969401062
 20
-85.59999999999998
 30
0.0
 40
2.599999999999993
 50
90.0
 51
163.39845040098041
  0
ARC
  5
21E
  8
1
 62
     7
 10
335.82537969401062
 20
-94.400000000000034
 30
0.0
 40
2.6000000000000552
 50
196.60154959901931
 51
270.0
  0
ARC
  5
21F
  8
1
 62
     7
 10
337.48342834550931
 20
-83.300000000000026
 30
0.0
 40
0.2999999999998977
 50
0.0
 51
90.0
  0
ARC
  5
220
  8
1
 62
     7
 10
337.48342834550931
 20
-96.700000000000017
 30
0.0
 40
0.3000000000000114
 50
270.0
 51
0.0
  0
ARC
  5
221
  8
1
 62
     7
 10
-19.5
 20
-47.673364634842912
 30
0.0
 40
4.5
 50
0.0
 51
68.644985486577511
  0
ARC
  5
222
  8
1
 62
     7
 10
19.5
 20
-47.673364634842912
 30
0.0
 40
4.4999999999999813
 50
111.35501451342201
 51
180.0
  0
ARC
  5
223
  8
1
 62
     7
 10
-12.0
 20
-48.040815370097206
 30
0.0
 40
3.0
 50
180.0
 51
270.0
  0
ARC
  5
224
  8
1
 62
     7
 10
12.0
 20
-48.040815370097206
 30
0.0
 40
3.0
 50
270.0
 51
0.0
  0
ARC
  5
225
  8
1
 62
     7
 10
633.94099405162115
 20
49.200000000000003
 30
0.0
 40
4.2000000000000464
 50
180.0
 51
270.0
  0
ARC
  5
226
  8
1
 62
     7
 10
655.54099405162128
 20
75.800000000000026
 30
0.0
 40
4.1999999999999309
 50
0.0
 51
90.0
  0
ARC
  5
227
  8
1
 62
     7
 10
633.94099405162115
 20
75.800000000000026
 30
0.0
 40
4.1999999999999877
 50
90.0
 51
180.0
  0
ARC
  5
228
  8
1
 62
     7
 10
655.54099405162128
 20
49.200000000000003
 30
0.0
 40
4.2000000000000091
 50
270.0
 51
0.0
  0
ARC
  5
229
  8
1
 62
     7
 10
622.98294540012262
 20
94.400000000000006
 30
0.0
 40
2.599999999999993
 50
90.0
 51
163.39845040098029
  0
ARC
  5
22A
  8
1
 62
     7
 10
622.98294540012262
 20
85.600000000000023
 30
0.0
 40
2.599999999999989
 50
196.6015495990188
 51
270.0
  0
ARC
  5
22B
  8
1
 62
     7
 10
624.64099405162119
 20
96.700000000000017
 30
0.0
 40
0.3000000000000682
 50
0.0
 51
90.0
  0
ARC
  5
22C
  8
1
 62
     7
 10
624.64099405162119
 20
83.300000000000026
 30
0.0
 40
0.3000000000000114
 50
270.0
 51
0.0
  0
ARC
  5
22D
  8
1
 62
     7
 10
624.64099405162119
 20
-83.300000000000026
 30
0.0
 40
0.3000000000000682
 50
0.0
 51
90.0
  0
ARC
  5
22E
  8
1
 62
     7
 10
624.64099405162119
 20
-96.700000000000017
 30
0.0
 40
0.3000000000000114
 50
270.0
 51
0.0
  0
ARC
  5
22F
  8
1
 62
     7
 10
622.98294540012262
 20
-85.59999999999998
 30
0.0
 40
2.599999999999993
 50
90.0
 51
163.39845040098029
  0
ARC
  5
230
  8
1
 62
     7
 10
622.98294540012262
 20
-94.400000000000034
 30
0.0
 40
2.5999999999999961
 50
196.60154959901931
 51
270.0
  0
ARC
  5
231
  8
1
 62
     7
 10
655.54099405162128
 20
-49.20000000000001
 30
0.0
 40
4.1999999999999309
 50
0.0
 51
90.0
  0
ARC
  5
232
  8
1
 62
     7
 10
633.94099405162115
 20
-75.800000000000026
 30
0.0
 40
4.2000000000000464
 50
180.0
 51
270.0
  0
ARC
  5
233
  8
1
 62
     7
 10
655.54099405162128
 20
-75.800000000000026
 30
0.0
 40
4.1999999999999877
 50
270.0
 51
0.0
  0
ARC
  5
234
  8
1
 62
     7
 10
633.94099405162115
 20
-49.20000000000001
 30
0.0
 40
4.2000000000000091
 50
90.0
 51
180.0
  0
ARC
  5
235
  8
1
 62
     7
 10
622.98294540012262
 20
-85.59999999999998
 30
0.0
 40
2.599999999999993
 50
90.0
 51
163.39845040098029
  0
ARC
  5
236
  8
1
 62
     7
 10
622.98294540012262
 20
-94.400000000000034
 30
0.0
 40
2.5999999999999961
 50
196.60154959901931
 51
270.0
  0
ARC
  5
237
  8
1
 62
     7
 10
624.64099405162119
 20
-83.300000000000026
 30
0.0
 40
0.3000000000000682
 50
0.0
 51
90.0
  0
ARC
  5
238
  8
1
 62
     7
 10
624.64099405162119
 20
-96.700000000000017
 30
0.0
 40
0.3000000000000114
 50
270.0
 51
0.0
  0
ARC
  5
239
  8
1
 62
     7
 10
335.82537969401062
 20
85.600000000000023
 30
0.0
 40
2.6000000000000458
 50
196.6015495990186
 51
224.24504110538771
  0
ARC
  5
23A
  8
1
 62
     7
 10
371.33342834550911
 20
107.2292449079977
 30
0.0
 40
49.999999999999893
 50
180.0
 51
195.42046435251731
  0
ARC
  5
23B
  8
1
 62
     7
 10
339.38342834550912
 20
87.723881554251207
 30
0.0
 40
0.3000000000000325
 50
339.50824758258852
 51
349.80906739484209
  0
ARC
  5
23C
  8
1
 62
     7
 10
338.39593616779013
 20
89.023881554251204
 30
0.0
 40
1.600000000000019
 50
196.1913516386191
 51
239.16824074109331
  0
ARC
  5
23D
  8
1
 62
     7
 10
350.58342834550911
 20
90.0
 30
0.0
 40
18.000000000000039
 50
163.3984504009799
 51
196.60154959901999
  0
ARC
  5
23E
  8
1
 62
     7
 10
350.58342834550911
 20
-90.0
 30
0.0
 40
18.00000000000005
 50
163.39845040097981
 51
196.60154959902019
  0
ARC
  5
23F
  8
1
 62
     7
 10
350.58342834550911
 20
-90.0
 30
0.0
 40
18.00000000000005
 50
163.39845040097981
 51
196.60154959902019
  0
ARC
  5
240
  8
1
 62
     3
 10
973.56950113169955
 20
0.0
 30
0.0
 40
89.999999999999957
 50
84.747545822200152
 51
95.819664540355063
  0
ARC
  5
241
  8
1
  6
DASHDOT
 62
     3
 10
973.56950113169955
 20
0.0
 30
0.0
 40
89.999999999999844
 50
39.747545822200237
 51
50.81966454035512
  0
ARC
  5
242
  8
1
  6
DASHDOT
 62
     3
 10
973.56950113169955
 20
-0.0000000000029114
 30
0.0
 40
89.999999999999844
 50
354.74754582220208
 51
5.819664540356932
  0
ARC
  5
243
  8
1
  6
DASHDOT
 62
     3
 10
973.56950113169955
 20
0.0
 30
0.0
 40
89.999999999999815
 50
309.74754582219981
 51
320.81966454035472
  0
ARC
  5
244
  8
1
  6
DASHDOT
 62
     3
 10
973.56950113169955
 20
0.0
 30
0.0
 40
90.000000000000014
 50
264.74754582220021
 51
275.81966454035489
  0
ARC
  5
245
  8
1
  6
DASHDOT
 62
     3
 10
973.56950113169955
 20
0.0
 30
0.0
 40
90.000000000000057
 50
219.7475458222001
 51
230.81966454035501
  0
ARC
  5
246
  8
1
  6
DASHDOT
 62
     3
 10
973.56950113169955
 20
0.0
 30
0.0
 40
89.999999999999986
 50
174.74754582220021
 51
185.81966454035509
  0
ARC
  5
247
  8
1
  6
DASHDOT
 62
     3
 10
973.56950113169955
 20
0.0
 30
0.0
 40
90.000000000000057
 50
129.74754582220021
 51
140.81966454035509
  0
ARC
  5
248
  8
1
 62
     7
 10
973.56950113169955
 20
0.0
 30
0.0
 40
131.0
 50
58.739035174369683
 51
121.2609648256302
  0
ARC
  5
249
  8
1
 62
     7
 10
973.56950113169955
 20
0.0
 30
0.0
 40
109.0
 50
58.739035174369633
 51
121.2609648256302
  0
ARC
  5
24A
  8
1
 62
     7
 10
973.56950113169955
 20
0.0
 30
0.0
 40
131.0
 50
328.73903517436969
 51
31.260964825630229
  0
ARC
  5
24B
  8
1
 62
     7
 10
973.56950113169955
 20
0.0
 30
0.0
 40
108.9999999999997
 50
328.73903517436969
 51
31.260964825630332
  0
ARC
  5
24C
  8
1
 62
     7
 10
1076.1470102735791
 20
-62.27242261424729
 30
0.0
 40
11.000000000000179
 50
148.73903517437029
 51
328.73903517437031
  0
ARC
  5
24D
  8
1
 62
     7
 10
983.56950113169955
 20
178.0
 30
0.0
 40
5.0
 50
0.0
 51
90.0
  0
ARC
  5
24E
  8
1
 62
     7
 10
1076.1470102735791
 20
62.27242261424729
 30
0.0
 40
11.000000000000179
 50
31.260964825629689
 51
211.26096482562971
  0
ARC
  5
24F
  8
1
 62
     7
 10
1035.841923745947
 20
-102.5775091418805
 30
0.0
 40
10.999999999999959
 50
301.26096482563008
 51
121.2609648256296
  0
ARC
  5
250
  8
1
 62
     7
 10
1035.841923745947
 20
102.5775091418805
 30
0.0
 40
10.99999999999994
 50
238.7390351743698
 51
58.739035174369917
  0
ARC
  5
251
  8
1
 62
     7
 10
-3.8500000000000232
 20
-86.149644374441266
 30
0.0
 40
3.2725000000001061
 50
270.0
 51
0.0
  0
ARC
  5
252
  8
1
 62
     7
 10
3.8500000000000232
 20
-86.149644374441266
 30
0.0
 40
3.2725000000000359
 50
180.0
 51
270.0
  0
ARC
  5
253
  8
1
 62
     7
 10
3.8500000000000232
 20
-93.849644374441326
 30
0.0
 40
3.2725000000000359
 50
90.0
 51
180.0
  0
ARC
  5
254
  8
1
 62
     7
 10
-3.8500000000000232
 20
-93.849644374441326
 30
0.0
 40
3.2725000000000359
 50
0.0
 51
90.0
  0
ARC
  5
255
  8
1
 62
     7
 10
-86.149644374441195
 20
3.850000000000128
 30
0.0
 40
3.2725000000000359
 50
180.0
 51
270.0
  0
ARC
  5
256
  8
1
 62
     7
 10
-86.149644374441195
 20
-3.8499999999999299
 30
0.0
 40
3.272500000000043
 50
90.0
 51
180.0
  0
ARC
  5
257
  8
1
 62
     7
 10
-93.849644374441496
 20
-3.8499999999999162
 30
0.0
 40
3.2725000000000359
 50
0.0
 51
90.0
  0
ARC
  5
258
  8
1
 62
     7
 10
-93.849644374441496
 20
3.850000000000128
 30
0.0
 40
3.2725000000000359
 50
270.0
 51
0.0
  0
ARC
  5
259
  8
1
 62
     7
 10
3.850000000000136
 20
86.149644374441323
 30
0.0
 40
3.2724999999999791
 50
90.0
 51
180.0
  0
ARC
  5
25A
  8
1
 62
     7
 10
-3.8499999999999082
 20
86.149644374441323
 30
0.0
 40
3.2725000000000359
 50
0.0
 51
90.0
  0
ARC
  5
25B
  8
1
 62
     7
 10
-3.8499999999999082
 20
93.849644374441326
 30
0.0
 40
3.272500000000008
 50
270.0
 51
0.0
  0
ARC
  5
25C
  8
1
 62
     7
 10
3.850000000000136
 20
93.849644374441326
 30
0.0
 40
3.2725000000000359
 50
180.0
 51
270.0
  0
ARC
  5
25D
  8
1
 62
     7
 10
-19.999644374441232
 20
123.0
 30
0.0
 40
5.0
 50
90.0
 51
180.0
  0
ARC
  5
25E
  8
1
 62
     7
 10
-19.999644374441232
 20
133.0
 30
0.0
 40
5.0
 50
270.0
 51
0.0
  0
ARC
  5
25F
  8
1
 62
     7
 10
-9.9996443744412336
 20
178.0
 30
0.0
 40
5.0
 50
90.0
 51
180.0
  0
ARC
  5
260
  8
1
 62
     7
 10
0.0
 20
2.200000000000002
 30
0.0
 40
49.050000000000018
 50
291.35501451342282
 51
248.64498548657721
  0
ARC
  5
261
  8
1
 62
     7
 10
0.0
 20
0.0
 30
0.0
 40
29.9997571414976
 50
104.4776319461799
 51
75.522368053820145
  0
ARC
  5
262
  8
1
 62
     7
 10
973.56950113169955
 20
0.0
 30
0.0
 40
131.0
 50
148.7390351743698
 51
211.26096482563011
  0
ARC
  5
263
  8
1
 62
     7
 10
973.56950113169955
 20
0.0
 30
0.0
 40
108.9999999999998
 50
148.7390351743696
 51
211.26096482563011
  0
ARC
  5
264
  8
1
 62
     7
 10
870.99199198981898
 20
-62.27242261424729
 30
0.0
 40
10.999999999999989
 50
211.26096482563031
 51
31.260964825630118
  0
ARC
  5
265
  8
1
 62
     7
 10
9.9996443744413455
 20
178.0
 30
0.0
 40
5.0000000000000044
 50
0.0
 51
90.0
  0
ARC
  5
266
  8
1
 62
     7
 10
19.999644374441349
 20
133.0
 30
0.0
 40
4.9999999999999982
 50
180.0
 51
270.0
  0
ARC
  5
267
  8
1
 62
     7
 10
19.999644374441349
 20
123.0
 30
0.0
 40
5.0
 50
0.0
 51
90.0
  0
ARC
  5
268
  8
1
 62
     7
 10
963.56950113169933
 20
178.0
 30
0.0
 40
5.0
 50
90.0
 51
180.0
  0
ARC
  5
269
  8
1
 62
     7
 10
973.56950113169955
 20
0.0
 30
0.0
 40
30.0
 50
104.4775121859299
 51
75.522487814070075
  0
ARC
  5
26A
  8
1
 62
     7
 10
86.149644374441195
 20
-3.8500000000001009
 30
0.0
 40
3.2725000000001492
 50
0.0
 51
90.0
  0
ARC
  5
26B
  8
1
 62
     7
 10
86.149644374441195
 20
3.8499999999999508
 30
0.0
 40
3.2725000000000359
 50
270.0
 51
0.0
  0
ARC
  5
26C
  8
1
 62
     7
 10
93.849644374441255
 20
3.8499999999999441
 30
0.0
 40
3.2725000000000359
 50
180.0
 51
270.0
  0
ARC
  5
26D
  8
1
 62
     7
 10
93.849644374441255
 20
-3.850000000000108
 30
0.0
 40
3.272500000000043
 50
90.0
 51
180.0
  0
ARC
  5
26E
  8
1
 62
     7
 10
637.74099405162121
 20
90.0
 30
0.0
 40
17.999999999999979
 50
163.39845040097981
 51
196.60154959901999
  0
ARC
  5
26F
  8
1
 62
     7
 10
637.74099405162121
 20
-90.0
 30
0.0
 40
17.999999999999979
 50
163.39845040097981
 51
196.60154959902019
  0
ARC
  5
270
  8
1
 62
     7
 10
973.56950113169955
 20
0.0
 30
0.0
 40
109.0
 50
238.7390351743698
 51
301.26096482563031
  0
ARC
  5
271
  8
1
 62
     7
 10
973.56950113169955
 20
0.0
 30
0.0
 40
131.0
 50
238.7390351743698
 51
301.26096482563031
  0
ARC
  5
272
  8
1
 62
     7
 10
637.74099405162121
 20
-90.0
 30
0.0
 40
17.999999999999979
 50
163.39845040097981
 51
196.60154959902019
  0
ARC
  5
273
  8
1
 62
     7
 10
870.99199198981898
 20
62.27242261424729
 30
0.0
 40
11.000000000000091
 50
328.73903517436997
 51
148.7390351743698
  0
ARC
  5
274
  8
1
 62
     7
 10
911.29707851745229
 20
-102.5775091418805
 30
0.0
 40
10.99999999999997
 50
58.739035174369953
 51
238.73903517436941
  0
ARC
  5
275
  8
1
 62
     7
 10
911.29707851745229
 20
102.5775091418805
 30
0.0
 40
11.00000000000002
 50
121.26096482563059
 51
301.2609648256298
  0
ARC
  5
276
  8
1
 62
     7
 10
331.23257093208451
 20
89.960026583856404
 30
0.0
 40
6.7508607761104331
 50
195.42046435251649
 51
0.0
  0
ARC
  5
277
  8
1
 62
     7
 10
331.23257093208451
 20
89.960026583856404
 30
0.0
 40
8.7508607761103772
 50
195.420464352517
 51
0.0
  0
ARC
  5
278
  8
1
 62
     7
 10
349.54321046407921
 20
113.8535438508565
 30
0.0
 40
14.302546835188551
 50
212.45689583909791
 51
224.0001033188255
  0
ARC
  5
279
  8
1
 62
     7
 10
348.18694754482652
 20
109.67627701831221
 30
0.0
 40
12.255878865437991
 50
203.65520854483481
 51
212.61627641761891
  0
ARC
  5
27A
  8
1
 62
     7
 10
340.81600810759682
 20
99.738101280943141
 30
0.0
 40
4.7325797620868366
 50
130.96625686797961
 51
143.95621575618941
  0
ARC
  5
27B
  8
1
 62
     7
 10
340.81600810761779
 20
101.73813796426499
 30
0.0
 40
4.7325797621090846
 50
142.97965491511829
 51
177.3278420787629
  0
ARC
  5
27C
  8
1
 62
     7
 10
350.19957569468158
 20
116.03975303357041
 30
0.0
 40
18.441734698398481
 50
214.14177525587201
 51
222.0445825535634
  0
ARC
  5
27D
  8
1
 62
     7
 10
343.84490455829109
 20
113.7305567030654
 30
0.0
 40
10.763778051834811
 50
192.96240094955709
 51
194.88204367504349
  0
ARC
  5
27E
  8
1
 62
     7
 10
362.87816500814461
 20
116.1115772354125
 30
0.0
 40
28.29473666263538
 50
180.0
 51
183.2719893871664
  0
ARC
  5
27F
  8
1
 62
     7
 10
353.09350414584731
 20
116.1115772354125
 30
0.0
 40
16.51007580033809
 50
180.0
 51
183.9634817935804
  0
ARC
  5
280
  8
1
 62
     7
 10
336.28108761724872
 20
111.9895393188434
 30
0.0
 40
3.0021758815503659
 50
92.497835593474562
 51
192.96240094955829
  0
ARC
  5
281
  8
1
 62
     7
 10
336.27509373422282
 20
112.1269409184834
 30
0.0
 40
2.8646436081840152
 50
41.090517617747103
 51
92.497835593475415
  0
ARC
  5
282
  8
1
 62
     7
 10
327.37052875017912
 20
104.3615885905842
 30
0.0
 40
14.679548361564921
 50
25.57121665186326
 51
41.090517617748041
  0
ARC
  5
283
  8
1
 62
     7
 10
337.33206082859772
 20
107.7437559517266
 30
0.0
 40
3.8678507098934038
 50
349.4820712522793
 51
352.89831554271098
  0
ARC
  5
284
  8
1
 62
     7
 10
335.03646537405632
 20
108.0297560168909
 30
0.0
 40
6.1811934273014977
 50
352.89831554267892
 51
25.571216651863121
  0
ARC
  5
285
  8
1
 62
     7
 10
343.84490455829109
 20
111.7305567030654
 30
0.0
 40
10.763778051834811
 50
192.96240094955709
 51
214.14177525587209
  0
ARC
  5
286
  8
1
 62
     7
 10
336.28108761724872
 20
109.9895393188434
 30
0.0
 40
3.0021758815503659
 50
92.497835593474562
 51
192.96240094955829
  0
ARC
  5
287
  8
1
 62
     7
 10
336.27509373422282
 20
110.1269409184834
 30
0.0
 40
2.864643608183929
 50
41.090517617748603
 51
92.497835593475415
  0
ARC
  5
288
  8
1
 62
     7
 10
327.37052875017912
 20
102.3615885905842
 30
0.0
 40
14.67954836156502
 50
25.571216651863079
 51
41.090517617748318
  0
ARC
  5
289
  8
1
 62
     7
 10
335.03646537405632
 20
106.0297560168909
 30
0.0
 40
6.181193427301567
 50
352.89831554267818
 51
25.57121665186267
  0
ARC
  5
28A
  8
1
 62
     7
 10
337.33206082859812
 20
105.7437559517288
 30
0.0
 40
3.867850709893331
 50
347.39074312849442
 51
352.89831554267812
  0
ARC
  5
28B
  8
1
 62
     7
 10
336.28108761724872
 20
109.9895393188434
 30
0.0
 40
1.002175881550428
 50
92.497835593473354
 51
192.96240094956119
  0
ARC
  5
28C
  8
1
 62
     7
 10
336.27509373422282
 20
110.1269409184834
 30
0.0
 40
0.8646436081840494
 50
41.090517617746748
 51
92.497835593476054
  0
ARC
  5
28D
  8
1
 62
     7
 10
327.37052875017912
 20
102.3615885905842
 30
0.0
 40
12.67954836156515
 50
25.599357694733111
 51
41.090517617748169
  0
ARC
  5
28E
  8
1
 62
     7
 10
362.87816500814461
 20
116.1115772354125
 30
0.0
 40
28.294736662635209
 50
192.96240094955749
 51
203.65520854483509
  0
ARC
  5
28F
  8
1
 62
     7
 10
341.58342834550911
 20
103.19523155822419
 30
0.0
 40
1.0
 50
0.0
 51
53.247091286464602
  0
ARC
  5
290
  8
1
 62
     7
 10
349.54321046407921
 20
113.8535438508565
 30
0.0
 40
12.30254683518846
 50
212.45689583909791
 51
233.24709128647001
  0
ARC
  5
291
  8
1
 62
     7
 10
353.09350414584731
 20
116.1115772354125
 30
0.0
 40
16.510075800337962
 50
206.16430090532791
 51
212.45689583909771
  0
ARC
  5
292
  8
1
 62
     7
 10
353.09350414584731
 20
116.1115772354125
 30
0.0
 40
18.51007580033799
 50
197.5236950854983
 51
212.45689583909751
  0
ARC
  5
293
  8
1
 62
     7
 10
348.38342834550912
 20
91.923881554251196
 30
0.0
 40
11.999999999999959
 50
173.87169304445189
 51
196.19135163861711
  0
ARC
  5
294
  8
1
 62
     7
 10
88.593866880357595
 20
107.72971434771689
 30
0.0
 40
4.862721182479306
 50
242.2447023965349
 51
260.0956553029626
  0
ARC
  5
295
  8
1
 62
     7
 10
89.410404285760251
 20
109.2813485004469
 30
0.0
 40
6.6160899053494724
 50
205.49389315905779
 51
242.2447023965351
  0
ARC
  5
296
  8
1
 62
     7
 10
95.317638478387934
 20
91.923881554251309
 30
0.0
 40
2.0400000000001111
 50
135.0000000000062
 51
225.0000000000073
  0
ARC
  5
297
  8
1
 62
     7
 10
91.923525928692357
 20
95.317994103946745
 30
0.0
 40
2.0400000000000502
 50
225.00000000000111
 51
314.99999999999932
  0
ARC
  5
298
  8
1
 62
     7
 10
88.529413378996978
 20
91.923881554251309
 30
0.0
 40
2.0400000000003509
 50
314.99999999999932
 51
44.999999999998309
  0
ARC
  5
299
  8
1
 62
     7
 10
91.92352592869257
 20
88.529769004555817
 30
0.0
 40
2.039999999999949
 50
44.999999999998309
 51
135.0000000000062
  0
ARC
  5
29A
  8
1
 62
     7
 10
89.201927765038164
 20
127.34790906522851
 30
0.0
 40
14.478789798676241
 50
259.25578242273002
 51
272.23257884707681
  0
ARC
  5
29B
  8
1
 62
     7
 10
89.977572086078681
 20
107.45223928448689
 30
0.0
 40
5.4319937152157332
 50
351.62423627811398
 51
92.232578847076894
  0
ARC
  5
29C
  8
1
 62
     7
 10
89.201927765038164
 20
127.34790906522851
 30
0.0
 40
16.478789798676299
 50
259.25587536292983
 51
272.23257884707652
  0
ARC
  5
29D
  8
1
 62
     7
 10
89.201927765038164
 20
127.34790906522851
 30
0.0
 40
18.478789798676349
 50
262.13751241128182
 51
272.23257884707641
  0
ARC
  5
29E
  8
1
 62
     7
 10
90.055484069853605
 20
105.4537574299823
 30
0.0
 40
5.4319937152158486
 50
336.11541938968031
 51
92.232578847076823
  0
ARC
  5
29F
  8
1
 62
     7
 10
90.055484069853605
 20
105.4537574299823
 30
0.0
 40
3.4319937152158388
 50
7.5785908879707398
 51
92.232578847077491
  0
ARC
  5
2A0
  8
1
 62
     7
 10
114.17399783420601
 20
121.089736992856
 30
0.0
 40
30.050987467037011
 50
205.4938931590579
 51
216.06188861198629
  0
ARC
  5
2A1
  8
1
 62
     7
 10
96.666331647236234
 20
112.7412990520254
 30
0.0
 40
10.65473031865217
 50
182.69860776632649
 51
205.49389315905819
  0
ARC
  5
2A2
  8
1
 62
     7
 10
86.992764177394292
 20
112.2853407716938
 30
0.0
 40
0.9704231391484604
 50
42.982368801018517
 51
182.69860776632211
  0
ARC
  5
2A3
  8
1
 62
     7
 10
114.17399783420601
 20
121.089736992856
 30
0.0
 40
32.050987467036983
 50
205.49389315905779
 51
216.06188861198629
  0
ARC
  5
2A4
  8
1
 62
     7
 10
96.666331647236234
 20
112.7412990520254
 30
0.0
 40
12.654730318652129
 50
182.6986077663268
 51
205.4938931590579
  0
ARC
  5
2A5
  8
1
 62
     7
 10
86.992764177394292
 20
112.2853407716938
 30
0.0
 40
2.970423139148386
 50
42.982368801014509
 51
182.69860776632609
  0
ARC
  5
2A6
  8
1
 62
     7
 10
83.727421283407807
 20
109.2422373174247
 30
0.0
 40
7.4339355283652298
 50
29.290664477331362
 51
42.982368801013983
  0
ARC
  5
2A7
  8
1
 62
     7
 10
162.4946212288782
 20
141.55121237427011
 30
0.0
 40
77.702083032955755
 50
205.6552455481208
 51
206.6480538434194
  0
ARC
  5
2A8
  8
1
 62
     7
 10
162.49462122888099
 20
141.55121237426391
 30
0.0
 40
79.702083032955684
 50
204.2006195754135
 51
206.6480538434144
  0
ARC
  5
2A9
  8
1
 62
     7
 10
96.666331647236234
 20
112.7412990520254
 30
0.0
 40
14.65473031865206
 50
178.97091371509151
 51
205.4938931590581
  0
ARC
  5
2AA
  8
1
 62
     7
 10
84.981094037369417
 20
113.1443516831428
 30
0.0
 40
2.970423139148338
 50
45.272408365218382
 51
182.6986077663264
  0
ARC
  5
2AB
  8
1
 62
     7
 10
162.49462122887951
 20
141.55121237426721
 30
0.0
 40
81.702083032955812
 50
203.52478637073031
 51
206.64805384341699
  0
ARC
  5
2AC
  8
1
 62
     7
 10
87.894661403798978
 20
124.1092103745264
 30
0.0
 40
10.986209871404441
 50
223.9109563157561
 51
239.94248940770939
  0
ARC
  5
2AD
  8
1
 62
     7
 10
87.894661403798978
 20
124.1092103745264
 30
0.0
 40
12.986209871404441
 50
223.91095631575621
 51
243.06960572589119
  0
ARC
  5
2AE
  8
1
 62
     7
 10
87.894661403798978
 20
124.1092103745264
 30
0.0
 40
14.98620987140435
 50
223.9109563157561
 51
247.7797190435989
  0
ARC
  5
2AF
  8
1
 62
     7
 10
91.343048184751495
 20
104.4643727332831
 30
0.0
 40
3.8082008010684461
 50
216.06188861198629
 51
278.64018844694732
  0
ARC
  5
2B0
  8
1
 62
     7
 10
91.343048184751495
 20
104.4643727332831
 30
0.0
 40
1.8082008010684381
 50
216.0618886119839
 51
245.7263144255345
  0
ARC
  5
2B1
  8
1
 62
     7
 10
43.924605774654879
 20
124.14528790008821
 30
0.0
 40
26.64679189331569
 50
7.6926670267267179
 51
26.58419008585367
  0
ARC
  5
2B2
  8
1
 62
     7
 10
95.114603985781855
 20
131.0597760257736
 30
0.0
 40
25.008082638478761
 50
187.69266702672661
 51
223.9109563157561
  0
ARC
  5
2B3
  8
1
 62
     7
 10
95.114603985781855
 20
131.0597760257736
 30
0.0
 40
23.00808263847879
 50
187.69266702672661
 51
223.91095631575621
  0
ARC
  5
2B4
  8
1
 62
     7
 10
95.114603985781855
 20
131.0597760257736
 30
0.0
 40
21.0080826384788
 50
187.69266702672661
 51
223.91095631575621
  0
ARC
  5
2B5
  8
1
 62
     7
 10
125.06673388368159
 20
122.76944371289341
 30
0.0
 40
35.826056655394581
 50
206.6480538434171
 51
214.34397677396231
  0
ARC
  5
2B6
  8
1
 62
     7
 10
125.06673388368159
 20
122.76944371289341
 30
0.0
 40
37.826056655394652
 50
206.64805384341699
 51
214.91346333894421
  0
ARC
  5
2B7
  8
1
 62
     7
 10
125.06673388368159
 20
122.76944371289341
 30
0.0
 40
39.826056655394673
 50
206.6480538434171
 51
215.4248919729981
  0
ARC
  5
2B8
  8
1
 62
     7
 10
134.6499263948682
 20
129.3174382948913
 30
0.0
 40
47.432684578798543
 50
226.4848558943354
 51
230.3899513338221
  0
ARC
  5
2B9
  8
1
 62
     7
 10
125.42299767152051
 20
118.1679793706065
 30
0.0
 40
32.960412885313353
 50
230.3899513338221
 51
271.00112090907731
  0
ARC
  5
2BA
  8
1
 62
     7
 10
125.59117327888789
 20
108.54399508337821
 30
0.0
 40
23.33495930661228
 50
271.00112090907731
 51
305.2250107059711
  0
ARC
  5
2BB
  8
1
 62
     7
 10
123.47519814990039
 20
111.5408029373
 30
0.0
 40
27.003502349813601
 50
305.2250107059711
 51
339.12521725233682
  0
ARC
  5
2BC
  8
1
 62
     7
 10
123.0920104758849
 20
111.68693487125969
 30
0.0
 40
27.413608842861638
 50
339.12521725214509
 51
0.0000000000894606
  0
ARC
  5
2BD
  8
1
 62
     7
 10
123.47519814990039
 20
111.5408029373
 30
0.0
 40
29.00350234981353
 50
305.22501070597082
 51
339.12521725233688
  0
ARC
  5
2BE
  8
1
 62
     7
 10
125.59117327888789
 20
108.54399508337821
 30
0.0
 40
25.33495930661217
 50
271.00112090907731
 51
305.22501070597082
  0
ARC
  5
2BF
  8
1
 62
     7
 10
125.42299767152051
 20
118.1679793706065
 30
0.0
 40
34.960412885313438
 50
230.3899513338219
 51
271.00112090907731
  0
ARC
  5
2C0
  8
1
 62
     7
 10
134.6499263948682
 20
129.3174382948913
 30
0.0
 40
49.432684578798522
 50
226.42476737189659
 51
230.3899513338219
  0
ARC
  5
2C1
  8
1
 62
     7
 10
134.6499263948682
 20
129.3174382948913
 30
0.0
 40
51.431085256344737
 50
226.36939600829569
 51
230.3899513338219
  0
ARC
  5
2C2
  8
1
 62
     7
 10
125.42299767152051
 20
118.1679793706065
 30
0.0
 40
36.958813562859667
 50
230.3899513338219
 51
271.00112090907731
  0
ARC
  5
2C3
  8
1
 62
     7
 10
125.59117327888789
 20
108.54399508337821
 30
0.0
 40
27.333359984158552
 50
271.00112090907731
 51
305.22501070597087
  0
ARC
  5
2C4
  8
1
 62
     7
 10
123.47519814990039
 20
111.5408029373
 30
0.0
 40
31.001903027359681
 50
305.22501070597087
 51
339.12521725233682
  0
ARC
  5
2C5
  8
1
 62
     7
 10
123.0920104758849
 20
111.68693487125969
 30
0.0
 40
31.41200952040791
 50
339.12521725214509
 51
344.57953564748158
  0
ARC
  5
2C6
  8
1
 62
     7
 10
123.0920104758849
 20
111.68693487125969
 30
0.0
 40
29.413608842861681
 50
339.12521725214509
 51
0.0000000000894123
  0
ARC
  5
2C7
  8
1
 62
     7
 10
47.723837863132189
 20
126.0464905643657
 30
0.0
 40
22.3984114921778
 50
26.584190085853741
 51
83.598081168436693
  0
ARC
  5
2C8
  8
1
 62
     7
 10
49.085102997141448
 20
138.17877472627791
 30
0.0
 40
10.18999792814526
 50
83.598081168436934
 51
124.3804735185718
  0
ARC
  5
2C9
  8
1
 62
     7
 10
47.965890404860929
 20
139.81453908655621
 30
0.0
 40
8.2079883749201024
 50
124.38047351857131
 51
157.90711992106051
  0
ARC
  5
2CA
  8
1
 62
     7
 10
42.478444639529457
 20
123.9499477096978
 30
0.0
 40
30.106086181226431
 50
7.6926670267265402
 51
25.684950058617481
  0
ARC
  5
2CB
  8
1
 62
     7
 10
43.207588296661697
 20
124.04843677661211
 30
0.0
 40
31.370320886422551
 50
7.6926670267266344
 51
26.156321666588418
  0
ARC
  5
2CC
  8
1
 62
     7
 10
48.14930507480198
 20
126.677314178472
 30
0.0
 40
23.813456688611041
 50
25.684950058617499
 51
84.446177949123069
  0
ARC
  5
2CD
  8
1
 62
     7
 10
47.944289421768516
 20
126.3746991348257
 30
0.0
 40
26.09321617760445
 50
26.15632166658839
 51
83.998778020499728
  0
ARC
  5
2CE
  8
1
 62
     7
 10
49.161146006946858
 20
137.949941394441
 30
0.0
 40
14.454188154711961
 50
83.998778020499884
 51
124.1170273191109
  0
ARC
  5
2CF
  8
1
 62
     7
 10
49.237225900070023
 20
137.86563150562071
 30
0.0
 40
12.57237060518346
 50
84.446177949123111
 51
124.1467776140836
  0
ARC
  5
2D0
  8
1
 62
     7
 10
47.708723126664268
 20
140.119255224174
 30
0.0
 40
9.8492950290866599
 50
124.146777614084
 51
160.42435708589849
  0
ARC
  5
2D1
  8
1
 62
     7
 10
47.674166832428902
 20
140.14479514988261
 30
0.0
 40
11.8030581931247
 50
124.1170273191109
 51
161.2595262701729
  0
ARC
  5
2D2
  8
1
 62
     7
 10
0.0
 20
0.0
 30
0.0
 40
146.478462779941
 50
61.362009971716169
 51
84.252150231799249
  0
ARC
  5
2D3
  8
1
 62
     7
 10
0.0
 20
0.0
 30
0.0
 40
157.48149301279091
 50
73.908826617681584
 51
84.53446198018824
  0
ARC
  5
2D4
  8
1
 62
     7
 10
0.0
 20
0.0
 30
0.0
 40
146.478462779941
 50
35.91097616473369
 51
59.324611861705073
  0
ARC
  5
2D5
  8
1
 62
     7
 10
0.0
 20
0.0
 30
0.0
 40
157.48149301279091
 50
33.13090382140912
 51
63.913023887583932
  0
ARC
  5
2D6
  8
1
 62
     7
 10
0.0
 20
0.0
 30
0.0
 40
146.47846277994091
 50
95.877488208683801
 51
33.754457122903183
  0
ARC
  5
2D7
  8
1
 62
     7
 10
0.0
 20
0.0
 30
0.0
 40
157.48149301279091
 50
95.465538019811717
 51
31.621657216620079
  0
ARC
  5
2D8
  8
1
 62
     7
 10
352.02015246828341
 20
148.5
 30
0.0
 40
8.5632758772258075
 50
0.0
 51
134.45491122620101
  0
ARC
  5
2D9
  8
1
 62
     7
 10
368.73716031483582
 20
131.4618495998449
 30
0.0
 40
32.432857364969038
 50
134.4549112262001
 51
172.4775958388941
  0
ARC
  5
2DA
  8
1
 62
     7
 10
352.02015246828341
 20
148.5
 30
0.0
 40
10.563275877225809
 50
0.0
 51
134.45491122620061
  0
ARC
  5
2DB
  8
1
 62
     7
 10
368.73716031483582
 20
131.4618495998449
 30
0.0
 40
34.432857364969003
 50
134.45491122620001
 51
172.4775958388943
  0
ARC
  5
2DC
  8
1
 62
     7
 10
336.58342834550911
 20
135.70776025612639
 30
0.0
 40
2.0000000000000449
 50
172.4775958388955
 51
180.0
  0
CIRCLE
  5
2DD
  8
1
 62
     7
 10
644.7409940516211
 20
62.5
 30
0.0
 40
10.5
  0
CIRCLE
  5
2DE
  8
1
 62
     7
 10
644.7409940516211
 20
-62.5
 30
0.0
 40
10.5
  0
CIRCLE
  5
2DF
  8
1
 62
     7
 10
973.56950113169955
 20
170.0
 30
0.0
 40
6.5
  0
CIRCLE
  5
2E0
  8
1
 62
     7
 10
973.56950113169955
 20
90.0
 30
0.0
 40
4.0
  0
CIRCLE
  5
2E1
  8
1
 62
     7
 10
973.56950113169955
 20
90.0
 30
0.0
 40
5.0
  0
CIRCLE
  5
2E2
  8
1
 62
     7
 10
1037.2091114384889
 20
63.639610306789287
 30
0.0
 40
4.0
  0
CIRCLE
  5
2E3
  8
1
 62
     7
 10
1037.2091114384889
 20
63.639610306789287
 30
0.0
 40
5.0
  0
CIRCLE
  5
2E4
  8
1
 62
     7
 10
1063.5695011316991
 20
0.0000000000000142
 30
0.0
 40
4.0
  0
CIRCLE
  5
2E5
  8
1
 62
     7
 10
1063.5695011316991
 20
0.0000000000000142
 30
0.0
 40
5.0
  0
CIRCLE
  5
2E6
  8
1
 62
     7
 10
1037.2091114384889
 20
-63.639610306789251
 30
0.0
 40
4.000000000001136
  0
CIRCLE
  5
2E7
  8
1
 62
     7
 10
1037.2091114384889
 20
-63.639610306789251
 30
0.0
 40
5.0
  0
CIRCLE
  5
2E8
  8
1
 62
     7
 10
973.56950113169933
 20
-90.0
 30
0.0
 40
4.0
  0
CIRCLE
  5
2E9
  8
1
 62
     7
 10
973.56950113169933
 20
-90.0
 30
0.0
 40
5.0
  0
CIRCLE
  5
2EA
  8
1
 62
     7
 10
909.92989082491033
 20
-63.639610306789237
 30
0.0
 40
4.0
  0
CIRCLE
  5
2EB
  8
1
 62
     7
 10
909.92989082491033
 20
-63.639610306789237
 30
0.0
 40
4.9999999999998863
  0
CIRCLE
  5
2EC
  8
1
 62
     7
 10
883.56950113169955
 20
0.0000000000000426
 30
0.0
 40
4.0
  0
CIRCLE
  5
2ED
  8
1
 62
     7
 10
883.56950113169955
 20
0.0000000000000426
 30
0.0
 40
5.0
  0
CIRCLE
  5
2EE
  8
1
 62
     7
 10
973.56950113169955
 20
0.0
 30
0.0
 40
75.000000000000455
  0
CIRCLE
  5
2EF
  8
1
 62
     7
 10
973.56950113169955
 20
0.0
 30
0.0
 40
58.000000000000462
  0
CIRCLE
  5
2F0
  8
1
 62
     7
 10
973.56950113169955
 20
0.0
 30
0.0
 40
156.0000000000004
  0
CIRCLE
  5
2F1
  8
1
 62
     7
 10
973.56950113169955
 20
0.0
 30
0.0
 40
158.0000000000004
  0
CIRCLE
  5
2F2
  8
1
 62
     7
 10
985.56950113169955
 20
142.99737759833221
 30
0.0
 40
7.9999999999998863
  0
CIRCLE
  5
2F3
  8
1
 62
     7
 10
985.56950113169955
 20
142.99737759833221
 30
0.0
 40
8.9999999999998863
  0
CIRCLE
  5
2F4
  8
1
 62
     7
 10
1116.5668787300319
 20
-12.000000000000011
 30
0.0
 40
9.0
  0
CIRCLE
  5
2F5
  8
1
 62
     7
 10
1116.5668787300319
 20
-12.000000000000011
 30
0.0
 40
8.0
  0
CIRCLE
  5
2F6
  8
1
 62
     7
 10
1116.5668787300319
 20
12.0
 30
0.0
 40
8.0
  0
CIRCLE
  5
2F7
  8
1
 62
     7
 10
1116.5668787300319
 20
12.0
 30
0.0
 40
9.0
  0
CIRCLE
  5
2F8
  8
1
 62
     7
 10
985.56950113169955
 20
-142.99737759833221
 30
0.0
 40
7.9999999999998863
  0
CIRCLE
  5
2F9
  8
1
 62
     7
 10
985.56950113169955
 20
-142.99737759833221
 30
0.0
 40
8.9999999999998863
  0
CIRCLE
  5
2FA
  8
1
 62
     7
 10
-0.0000000000001137
 20
-89.999644374441417
 30
0.0
 40
7.0
  0
CIRCLE
  5
2FB
  8
1
 62
     7
 10
-89.999644374441573
 20
0.0000000000000995
 30
0.0
 40
7.0
  0
CIRCLE
  5
2FC
  8
1
 62
     7
 10
0.0000000000001137
 20
89.999644374441417
 30
0.0
 40
7.0
  0
CIRCLE
  5
2FD
  8
1
 62
     7
 10
-17.425999999999931
 20
120.540712038625
 30
0.0
 40
6.5
  0
CIRCLE
  5
2FE
  8
1
 62
     7
 10
0.0
 20
170.0
 30
0.0
 40
6.5
  0
CIRCLE
  5
2FF
  8
1
 62
     7
 10
-12.0
 20
-47.565815370097198
 30
0.0
 40
1.5
  0
CIRCLE
  5
300
  8
1
 62
     7
 10
12.0
 20
-47.565815370097198
 30
0.0
 40
1.5
  0
CIRCLE
  5
301
  8
1
 62
     7
 10
0.0
 20
0.0
 30
0.0
 40
45.0
  0
CIRCLE
  5
302
  8
1
 62
     7
 10
0.0
 20
0.0
 30
0.0
 40
69.999796235615605
  0
CIRCLE
  5
303
  8
1
 62
     7
 10
0.0
 20
0.0
 30
0.0
 40
98.499842307661964
  0
CIRCLE
  5
304
  8
1
 62
     7
 10
961.56950113169967
 20
142.99737759833221
 30
0.0
 40
8.0
  0
CIRCLE
  5
305
  8
1
 62
     7
 10
961.56950113169967
 20
142.99737759833221
 30
0.0
 40
9.0
  0
CIRCLE
  5
306
  8
1
 62
     7
 10
909.92989082491033
 20
63.639610306789287
 30
0.0
 40
4.0
  0
CIRCLE
  5
307
  8
1
 62
     7
 10
909.92989082491033
 20
63.639610306789287
 30
0.0
 40
5.0
  0
CIRCLE
  5
308
  8
1
 62
     7
 10
830.57212353336718
 20
-12.000000000000011
 30
0.0
 40
9.0
  0
CIRCLE
  5
309
  8
1
 62
     7
 10
830.57212353336718
 20
-12.000000000000011
 30
0.0
 40
8.0
  0
CIRCLE
  5
30A
  8
1
 62
     7
 10
830.57212353336718
 20
12.0
 30
0.0
 40
8.0
  0
CIRCLE
  5
30B
  8
1
 62
     7
 10
830.57212353336718
 20
12.0
 30
0.0
 40
9.0
  0
CIRCLE
  5
30C
  8
1
 62
     7
 10
961.56950113169967
 20
-142.99737759833221
 30
0.0
 40
8.0
  0
CIRCLE
  5
30D
  8
1
 62
     7
 10
961.56950113169967
 20
-142.99737759833221
 30
0.0
 40
9.0
  0
CIRCLE
  5
30E
  8
1
 62
     7
 10
89.999644374441317
 20
-0.0000000000000782
 30
0.0
 40
7.0
  0
CIRCLE
  5
30F
  8
1
 62
     7
 10
17.42600000000003
 20
120.540712038625
 30
0.0
 40
6.5000000000000107
  0
CIRCLE
  5
310
  8
1
 62
     7
 10
91.92352592869257
 20
91.923881554251196
 30
0.0
 40
4.500000000000127
  0
POLYLINE
  5
311
  8
1
 62
     7
 66
     1
 10
0.0
 20
0.0
 30
0.0
  0
VERTEX
  5
39F
  8
1
 62
     7
 10
340.19299394078757
 20
96.251331213949811
 30
0.0
 42
-0.0482433487079079
  0
VERTEX
  5
3A0
  8
1
 62
     7
 10
340.31069624954762
 20
96.303768892200935
 30
0.0
 42
-0.0419484719092155
  0
VERTEX
  5
3A1
  8
1
 62
     7
 10
340.43458458570183
 20
96.333669945531213
 30
0.0
 42
-0.0336573382915016
  0
VERTEX
  5
3A2
  8
1
 62
     7
 10
340.56314716932951
 20
96.34470330848248
 30
0.0
 42
-0.0224290554048817
  0
VERTEX
  5
3A3
  8
1
 62
     7
 10
340.68362974066252
 20
96.341241950359404
 30
0.0
 42
-0.0322590237990732
  0
VERTEX
  5
3A4
  8
1
 62
     7
 10
340.7923339713401
 20
96.325873259748008
 30
0.0
 42
-0.0461984937722982
  0
VERTEX
  5
3A5
  8
1
 62
     7
 10
340.89554420953561
 20
96.294252611946334
 30
0.0
 42
-0.0618510881171366
  0
VERTEX
  5
3A6
  8
1
 62
     7
 10
340.98848767260029
 20
96.241710130501303
 30
0.0
 42
-0.0472883459770188
  0
VERTEX
  5
3A7
  8
1
 62
     7
 10
341.03320389047218
 20
96.201597985375315
 30
0.0
 42
-0.0699263837305797
  0
VERTEX
  5
3A8
  8
1
 62
     7
 10
341.06694764781008
 20
96.152872359599314
 30
0.0
 42
-0.0930140562155402
  0
VERTEX
  5
3A9
  8
1
 62
     7
 10
341.08342834550911
 20
96.094886552010422
 30
0.0
  0
SEQEND
  5
3AA
  8
1
 62
     7
  0
POLYLINE
  5
31E
  8
1
 62
     7
 66
     1
 10
0.0
 20
0.0
 30
0.0
  0
VERTEX
  5
3AB
  8
1
 62
     7
 10
339.02169072662309
 20
96.720665199767907
 30
0.0
 42
-0.0038509513437429
  0
VERTEX
  5
3AC
  8
1
 62
     7
 10
339.50691648943581
 20
96.86988616826919
 30
0.0
 42
-0.0174490994214474
  0
VERTEX
  5
3AD
  8
1
 62
     7
 10
340.00389673980681
 20
96.999895724468558
 30
0.0
 42
-0.0316819744936414
  0
VERTEX
  5
3AE
  8
1
 62
     7
 10
340.50949715765353
 20
97.080347022975602
 30
0.0
 42
-0.0499295345180126
  0
VERTEX
  5
3AF
  8
1
 62
     7
 10
341.04592334322513
 20
97.079081154692091
 30
0.0
 42
-0.0521103586129776
  0
VERTEX
  5
3B0
  8
1
 62
     7
 10
341.60021230935519
 20
96.965208738979655
 30
0.0
 42
-0.0548356127726898
  0
VERTEX
  5
3B1
  8
1
 62
     7
 10
342.12319914096798
 20
96.734181709692805
 30
0.0
 42
-0.0372394792651117
  0
VERTEX
  5
3B2
  8
1
 62
     7
 10
342.32185562018151
 20
96.600739513329202
 30
0.0
 42
-0.0705889733885213
  0
VERTEX
  5
3B3
  8
1
 62
     7
 10
342.48148004234531
 20
96.434171195136713
 30
0.0
 42
-0.105552520847717
  0
VERTEX
  5
3B4
  8
1
 62
     7
 10
342.57267664832182
 20
96.221987298014326
 30
0.0
  0
VERTEX
  5
3B5
  8
1
 62
     7
 10
342.58342834550911
 20
96.094886552010422
 30
0.0
  0
SEQEND
  5
3B6
  8
1
 62
     7
  0
POLYLINE
  5
32B
  8
1
 62
     7
 66
     1
 10
0.0
 20
0.0
 30
0.0
  0
VERTEX
  5
3B7
  8
1
 62
     7
 10
337.22790531652811
 20
93.853406488611924
 30
0.0
 42
-0.0270752800128861
  0
VERTEX
  5
3B8
  8
1
 62
     7
 10
337.19319728069939
 20
93.859641741749556
 30
0.0
 42
-0.0184593679215954
  0
VERTEX
  5
3B9
  8
1
 62
     7
 10
337.15032392875491
 20
93.871047833430367
 30
0.0
 42
-0.0166854048043327
  0
VERTEX
  5
3BA
  8
1
 62
     7
 10
337.1024060681147
 20
93.887285761872079
 30
0.0
 42
-0.0180025300856549
  0
VERTEX
  5
3BB
  8
1
 62
     7
 10
337.05256450619783
 20
93.908016525292325
 30
0.0
 42
-0.0219026638999553
  0
VERTEX
  5
3BC
  8
1
 62
     7
 10
337.00392005042431
 20
93.932901121908913
 30
0.0
 42
-0.0291827036034532
  0
VERTEX
  5
3BD
  8
1
 62
     7
 10
336.95959350821317
 20
93.961600549939405
 30
0.0
 42
-0.0418893964227351
  0
VERTEX
  5
3BE
  8
1
 62
     7
 10
336.92270568698461
 20
93.993775807601565
 30
0.0
 42
-0.063251066851834
  0
VERTEX
  5
3BF
  8
1
 62
     7
 10
336.89637739415781
 20
94.029087893113115
 30
0.0
 42
-0.0931845498433817
  0
VERTEX
  5
3C0
  8
1
 62
     7
 10
336.88372943715228
 20
94.067197804691702
 30
0.0
 42
-0.104721907545683
  0
VERTEX
  5
3C1
  8
1
 62
     7
 10
336.8875048590433
 20
94.107085415181245
 30
0.0
 42
-0.0632623979657915
  0
VERTEX
  5
3C2
  8
1
 62
     7
 10
336.90571069075361
 20
94.147221278643727
 30
0.0
 42
-0.0364765387344261
  0
VERTEX
  5
3C3
  8
1
 62
     7
 10
336.93299611454057
 20
94.185738460212363
 30
0.0
 42
-0.0226731313216935
  0
VERTEX
  5
3C4
  8
1
 62
     7
 10
336.9639081810152
 20
94.220123265617104
 30
0.0
 42
-0.0151987761836056
  0
VERTEX
  5
3C5
  8
1
 62
     7
 10
336.99299394078781
 20
94.247862000587901
 30
0.0
  0
SEQEND
  5
3C6
  8
1
 62
     7
  0
POLYLINE
  5
33C
  8
1
 62
     7
 66
     1
 10
0.0
 20
0.0
 30
0.0
  0
VERTEX
  5
3C7
  8
1
 62
     7
 10
336.76232576727318
 20
93.139211872041926
 30
0.0
 42
-0.0251632003473457
  0
VERTEX
  5
3C8
  8
1
 62
     7
 10
336.58361080734812
 20
93.170617706454138
 30
0.0
 42
-0.0201078410907608
  0
VERTEX
  5
3C9
  8
1
 62
     7
 10
336.38186947833589
 20
93.224137815435654
 30
0.0
 42
-0.0195573635253944
  0
VERTEX
  5
3CA
  8
1
 62
     7
 10
336.16970312782757
 20
93.298265521277003
 30
0.0
 42
-0.0219735763643835
  0
VERTEX
  5
3CB
  8
1
 62
     7
 10
335.95971310341389
 20
93.391494146268585
 30
0.0
 42
-0.0275749100301768
  0
VERTEX
  5
3CC
  8
1
 62
     7
 10
335.76450075268571
 20
93.502317012700999
 30
0.0
 42
-0.037829590904009
  0
VERTEX
  5
3CD
  8
1
 62
     7
 10
335.59666742323361
 20
93.629227442864703
 30
0.0
 42
-0.0555118400461444
  0
VERTEX
  5
3CE
  8
1
 62
     7
 10
335.46881446264842
 20
93.77071875905024
 30
0.0
 42
-0.0825774512812964
  0
VERTEX
  5
3CF
  8
1
 62
     7
 10
335.39354321852107
 20
93.925284283547995
 30
0.0
 42
-0.1081501028360042
  0
VERTEX
  5
3D0
  8
1
 62
     7
 10
335.38345503844232
 20
94.091417338648583
 30
0.0
 42
-0.0766978444264095
  0
VERTEX
  5
3D1
  8
1
 62
     7
 10
335.43622176813682
 20
94.249401478995054
 30
0.0
 42
-0.0436761089239088
  0
VERTEX
  5
3D2
  8
1
 62
     7
 10
335.53202055508729
 20
94.405254873456357
 30
0.0
 42
-0.0268873501999693
  0
VERTEX
  5
3D3
  8
1
 62
     7
 10
335.64980880175682
 20
94.548559181467795
 30
0.0
 42
-0.0184509184998796
  0
VERTEX
  5
3D4
  8
1
 62
     7
 10
335.76854391060903
 20
94.668896062464583
 30
0.0
  0
VERTEX
  5
3D5
  8
1
 62
     7
 10
335.8216907266231
 20
94.717195986405997
 30
0.0
  0
SEQEND
  5
3D6
  8
1
 62
     7
  0
POLYLINE
  5
34D
  8
1
 62
     7
 66
     1
 10
0.0
 20
0.0
 30
0.0
  0
VERTEX
  5
3D7
  8
1
 62
     7
 10
339.02169072662309
 20
103.7951534226535
 30
0.0
 42
-0.0510455318938493
  0
VERTEX
  5
3D8
  8
1
 62
     7
 10
339.49172581203152
 20
104.0073494895001
 30
0.0
 42
-0.042648356510818
  0
VERTEX
  5
3D9
  8
1
 62
     7
 10
339.9909741596008
 20
104.1271854780899
 30
0.0
 42
-0.033919494498879
  0
VERTEX
  5
3DA
  8
1
 62
     7
 10
340.50568898389031
 20
104.16985171758969
 30
0.0
 42
-0.026423669379331
  0
VERTEX
  5
3DB
  8
1
 62
     7
 10
341.00588073944328
 20
104.1510981210147
 30
0.0
 42
-0.0400533136127954
  0
VERTEX
  5
3DC
  8
1
 62
     7
 10
341.48094378647852
 20
104.06926632604269
 30
0.0
 42
-0.0345533278934252
  0
VERTEX
  5
3DD
  8
1
 62
     7
 10
341.85808731244703
 20
103.9357843738532
 30
0.0
 42
-0.0444965713522187
  0
VERTEX
  5
3DE
  8
1
 62
     7
 10
342.13148674348253
 20
103.780620579782
 30
0.0
 42
-0.0588997632141989
  0
VERTEX
  5
3DF
  8
1
 62
     7
 10
342.36299152844578
 20
103.5763776363499
 30
0.0
 42
-0.0755640566944686
  0
VERTEX
  5
3E0
  8
1
 62
     7
 10
342.5305363420818
 20
103.31911723898379
 30
0.0
  0
VERTEX
  5
3E1
  8
1
 62
     7
 10
342.58342834550911
 20
103.1693747748962
 30
0.0
  0
SEQEND
  5
3E2
  8
1
 62
     7
  0
POLYLINE
  5
35A
  8
1
 62
     7
 66
     1
 10
0.0
 20
0.0
 30
0.0
  0
VERTEX
  5
3E3
  8
1
 62
     7
 10
649.99099405162121
 20
156.07534687328459
 30
0.0
 42
0.0414605059478946
  0
VERTEX
  5
3E4
  8
1
 62
     7
 10
649.84437407062933
 20
156.22428018034509
 30
0.0
 42
0.0523753614202088
  0
VERTEX
  5
3E5
  8
1
 62
     7
 10
649.69051974766171
 20
156.3295448363879
 30
0.0
 42
0.0618779647586853
  0
VERTEX
  5
3E6
  8
1
 62
     7
 10
649.52943108271802
 20
156.39114084141309
 30
0.0
 42
0.0652780208564434
  0
VERTEX
  5
3E7
  8
1
 62
     7
 10
649.36110807579871
 20
156.40906819542059
 30
0.0
 42
0.0603651841414228
  0
VERTEX
  5
3E8
  8
1
 62
     7
 10
649.18555072690344
 20
156.3833268984105
 30
0.0
 42
0.0502419329600643
  0
VERTEX
  5
3E9
  8
1
 62
     7
 10
649.00275903603244
 20
156.31391695038269
 30
0.0
 42
0.0394687978615758
  0
VERTEX
  5
3EA
  8
1
 62
     7
 10
648.8127330031856
 20
156.2008383513373
 30
0.0
  0
VERTEX
  5
3EB
  8
1
 62
     7
 10
648.71500710852092
 20
156.12792330768289
 30
0.0
  0
SEQEND
  5
3EC
  8
1
 62
     7
  0
POLYLINE
  5
365
  8
1
 62
     7
 66
     1
 10
0.0
 20
0.0
 30
0.0
  0
VERTEX
  5
3ED
  8
1
 62
     7
 10
647.49099405162121
 20
156.14054545385221
 30
0.0
 42
-0.0533128940111799
  0
VERTEX
  5
3EE
  8
1
 62
     7
 10
647.60053673645075
 20
156.34865418864661
 30
0.0
 42
-0.0793441087314493
  0
VERTEX
  5
3EF
  8
1
 62
     7
 10
647.72541092406368
 20
156.47826710581981
 30
0.0
 42
-0.0993551426326273
  0
VERTEX
  5
3F0
  8
1
 62
     7
 10
647.86278162563974
 20
156.5398168974223
 30
0.0
 42
-0.0898719189989424
  0
VERTEX
  5
3F1
  8
1
 62
     7
 10
648.00981385235923
 20
156.543736255505
 30
0.0
 42
-0.0623403154829391
  0
VERTEX
  5
3F2
  8
1
 62
     7
 10
648.1636726154029
 20
156.50045787211889
 30
0.0
 42
-0.0389651192153416
  0
VERTEX
  5
3F3
  8
1
 62
     7
 10
648.32152292595083
 20
156.4204144393145
 30
0.0
 42
-0.0234674057933851
  0
VERTEX
  5
3F4
  8
1
 62
     7
 10
648.48052979518286
 20
156.31403864914299
 30
0.0
 42
-0.0130324108847277
  0
VERTEX
  5
3F5
  8
1
 62
     7
 10
648.63785823427952
 20
156.19176319365491
 30
0.0
 42
-0.0047211152148612
  0
VERTEX
  5
3F6
  8
1
 62
     7
 10
648.79118523426462
 20
156.06366236063889
 30
0.0
 42
0.0064328378534711
  0
VERTEX
  5
3F7
  8
1
 62
     7
 10
648.93995002835356
 20
155.9400899951369
 30
0.0
 42
0.020086548497813
  0
VERTEX
  5
3F8
  8
1
 62
     7
 10
649.0854364178399
 20
155.83168297835331
 30
0.0
 42
0.0384814857749863
  0
VERTEX
  5
3F9
  8
1
 62
     7
 10
649.22945664903546
 20
155.74872048301231
 30
0.0
 42
0.0631483505600834
  0
VERTEX
  5
3FA
  8
1
 62
     7
 10
649.37382296825467
 20
155.70148168183761
 30
0.0
 42
0.0871345265028867
  0
VERTEX
  5
3FB
  8
1
 62
     7
 10
649.52034762180915
 20
155.70024574755331
 30
0.0
 42
0.0904041115699964
  0
VERTEX
  5
3FC
  8
1
 62
     7
 10
649.67084285601345
 20
155.75529185288389
 30
0.0
 42
0.0703622643267499
  0
VERTEX
  5
3FD
  8
1
 62
     7
 10
649.82712091717963
 20
155.876899170553
 30
0.0
 42
0.0474165389165314
  0
VERTEX
  5
3FE
  8
1
 62
     7
 10
649.99099405162121
 20
156.07534687328459
 30
0.0
  0
SEQEND
  5
3FF
  8
1
 62
     7
  0
POLYLINE
  5
379
  8
1
 62
     7
 66
     1
 10
0.0
 20
0.0
 30
0.0
  0
VERTEX
  5
400
  8
1
 62
     7
 10
932.02432823254333
 20
164.70795433177491
 30
0.0
 42
0.038471522931685
  0
VERTEX
  5
401
  8
1
 62
     7
 10
931.69256910838521
 20
164.97590806954409
 30
0.0
 42
0.0514976461458383
  0
VERTEX
  5
402
  8
1
 62
     7
 10
931.36759508946727
 20
165.15076256028101
 30
0.0
 42
0.0656061874256888
  0
VERTEX
  5
403
  8
1
 62
     7
 10
931.04940617578904
 20
165.23251780398559
 30
0.0
 42
0.074293594779973
  0
VERTEX
  5
404
  8
1
 62
     7
 10
930.73800236735065
 20
165.22117380065771
 30
0.0
 42
0.0710941152958987
  0
VERTEX
  5
405
  8
1
 62
     7
 10
930.43338366415219
 20
165.11673055029749
 30
0.0
 42
0.0586100866392663
  0
VERTEX
  5
406
  8
1
 62
     7
 10
930.13555006619367
 20
164.9191880529051
 30
0.0
 42
0.0445340814631206
  0
VERTEX
  5
407
  8
1
 62
     7
 10
929.84450157347533
 20
164.62854630848031
 30
0.0
 42
0.0330602874917134
  0
VERTEX
  5
408
  8
1
 62
     7
 10
929.56023818599624
 20
164.24480531702301
 30
0.0
  0
SEQEND
  5
409
  8
1
 62
     7
  0
POLYLINE
  5
384
  8
1
 62
     7
 66
     1
 10
0.0
 20
0.0
 30
0.0
  0
VERTEX
  5
40A
  8
1
 62
     7
 10
927.07397626474938
 20
163.8644028651494
 30
0.0
 42
-0.0661777063937082
  0
VERTEX
  5
40B
  8
1
 62
     7
 10
927.32826309939355
 20
164.24799354148109
 30
0.0
 42
-0.0859469775615652
  0
VERTEX
  5
40C
  8
1
 62
     7
 10
927.62463568715793
 20
164.4781266985849
 30
0.0
 42
-0.0842116029453786
  0
VERTEX
  5
40D
  8
1
 62
     7
 10
927.9568068606012
 20
164.58143207333751
 30
0.0
 42
-0.0611014316250508
  0
VERTEX
  5
40E
  8
1
 62
     7
 10
928.31848945228057
 20
164.58453940261541
 30
0.0
 42
-0.0362253547726106
  0
VERTEX
  5
40F
  8
1
 62
     7
 10
928.70339629475586
 20
164.5140784232949
 30
0.0
 42
-0.017191993083481
  0
VERTEX
  5
410
  8
1
 62
     7
 10
929.10524022058462
 20
164.39667887225261
 30
0.0
 42
-0.0024604927520706
  0
VERTEX
  5
411
  8
1
 62
     7
 10
929.51773406232451
 20
164.258970486365
 30
0.0
 42
0.010890965886895
  0
VERTEX
  5
412
  8
1
 62
     7
 10
929.93459065253535
 20
164.1275830025086
 30
0.0
 42
0.0254574212091199
  0
VERTEX
  5
413
  8
1
 62
     7
 10
930.3495228237739
 20
164.02914615756009
 30
0.0
 42
0.0431906804333082
  0
VERTEX
  5
414
  8
1
 62
     7
 10
930.75624340859918
 20
163.99028968839551
 30
0.0
 42
0.0634248215175091
  0
VERTEX
  5
415
  8
1
 62
     7
 10
931.14846523956908
 20
164.03764333189179
 30
0.0
 42
0.0784088456608161
  0
VERTEX
  5
416
  8
1
 62
     7
 10
931.51990114924331
 20
164.1978368249251
 30
0.0
 42
0.0768817534215257
  0
VERTEX
  5
417
  8
1
 62
     7
 10
931.86426397017829
 20
164.49749990437229
 30
0.0
  0
VERTEX
  5
418
  8
1
 62
     7
 10
932.02432823254333
 20
164.70795433177491
 30
0.0
  0
SEQEND
  5
419
  8
1
 62
     7
  0
ARC
  5
395
  8
1
 62
     7
 10
336.38345503844232
 20
100.9635733422547
 30
0.0
 40
0.999999999999926
 50
122.0500291495873
 51
180.0
  0
TEXT
  5
397
  8
1
 62
     7
 10
-40.499999999999993
 20
282.22164595158853
 30
0.0
 40
15.0
  1
MMC 70
 41
0.9
  7
SIMPLEX
  0
ENDSEC
  0
EOF
