  0
SECTION
  2
HEADER
  9
$ACADVER
  1
AC1009
  9
$INSBASE
 10
0.0
 20
0.0
 30
0.0
  9
$EXTMIN
 10
-1263.0225771058599
 20
-817.05383764106716
 30
0.0
  9
$EXTMAX
 10
-822.15056120950396
 20
-566.72565295790889
 30
0.0
  9
$LIMMIN
 10
-1263.0225771058599
 20
-816.5431840675609
  9
$LIMMAX
 10
-822.15056120950396
 20
-566.72565295790889
  9
$ORTHOMODE
 70
     0
  9
$REGENMODE
 70
     1
  9
$FILLMODE
 70
     1
  9
$QTEXTMODE
 70
     0
  9
$MIRRTEXT
 70
     1
  9
$DRAGMODE
 70
     2
  9
$LTSCALE
 40
1.0
  9
$OSMODE
 70
    37
  9
$ATTMODE
 70
     1
  9
$TEXTSIZE
 40
3.5
  9
$TRACEWID
 40
0.5
  9
$TEXTSTYLE
  7
STANDARD
  9
$CLAYER
  8
0
  9
$CELTYPE
  6
BYLAYER
  9
$CECOLOR
 62
   256
  9
$DIMSCALE
 40
1.0
  9
$DIMASZ
 40
0.18
  9
$DIMEXO
 40
0.0625
  9
$DIMDLI
 40
0.38
  9
$DIMRND
 40
0.0
  9
$DIMDLE
 40
0.0
  9
$DIMEXE
 40
0.18
  9
$DIMTP
 40
0.0
  9
$DIMTM
 40
0.0
  9
$DIMTXT
 40
0.18
  9
$DIMCEN
 40
0.09
  9
$DIMTSZ
 40
0.0
  9
$DIMTOL
 70
     0
  9
$DIMLIM
 70
     0
  9
$DIMTIH
 70
     1
  9
$DIMTOH
 70
     1
  9
$DIMSE1
 70
     0
  9
$DIMSE2
 70
     0
  9
$DIMTAD
 70
     0
  9
$DIMZIN
 70
     0
  9
$DIMBLK
  1

  9
$DIMASO
 70
     1
  9
$DIMSHO
 70
     1
  9
$DIMPOST
  1

  9
$DIMAPOST
  1

  9
$DIMALT
 70
     0
  9
$DIMALTD
 70
     2
  9
$DIMALTF
 40
25.399999999999999
  9
$DIMLFAC
 40
1.0
  9
$DIMTOFL
 70
     0
  9
$DIMTVP
 40
0.0
  9
$DIMTIX
 70
     0
  9
$DIMSOXD
 70
     0
  9
$DIMSAH
 70
     0
  9
$DIMBLK1
  1

  9
$DIMBLK2
  1

  9
$DIMSTYLE
  2
STANDARD
  9
$DIMCLRD
 70
     0
  9
$DIMCLRE
 70
     0
  9
$DIMCLRT
 70
     0
  9
$DIMTFAC
 40
1.0
  9
$DIMGAP
 40
0.09
  9
$LUNITS
 70
     2
  9
$LUPREC
 70
     4
  9
$SKETCHINC
 40
0.1
  9
$FILLETRAD
 40
2.0
  9
$AUNITS
 70
     0
  9
$AUPREC
 70
     0
  9
$MENU
  1
ACAD
  9
$ELEVATION
 40
0.0
  9
$PELEVATION
 40
0.0
  9
$THICKNESS
 40
0.0
  9
$LIMCHECK
 70
     0
  9
$BLIPMODE
 70
     0
  9
$CHAMFERA
 40
0.0
  9
$CHAMFERB
 40
0.0
  9
$SKPOLY
 70
     0
  9
$TDCREATE
 40
2452094.7512840279
  9
$TDUPDATE
 40
2452094.7523750002
  9
$TDINDWG
 40
0.0010934028
  9
$TDUSRTIMER
 40
0.0010934028
  9
$USRTIMER
 70
     1
  9
$ANGBASE
 50
0.0
  9
$ANGDIR
 70
     0
  9
$PDMODE
 70
     0
  9
$PDSIZE
 40
0.0
  9
$PLINEWID
 40
0.0
  9
$COORDS
 70
     1
  9
$SPLFRAME
 70
     0
  9
$SPLINETYPE
 70
     6
  9
$SPLINESEGS
 70
     8
  9
$ATTDIA
 70
     0
  9
$ATTREQ
 70
     1
  9
$HANDLING
 70
 10241
  9
$HANDSEED
  5
210
  9
$SURFTAB1
 70
     6
  9
$SURFTAB2
 70
     6
  9
$SURFTYPE
 70
     6
  9
$SURFU
 70
     6
  9
$SURFV
 70
     6
  9
$UCSNAME
  2

  9
$UCSORG
 10
0.0
 20
0.0
 30
0.0
  9
$UCSXDIR
 10
1.0
 20
0.0
 30
0.0
  9
$UCSYDIR
 10
0.0
 20
1.0
 30
0.0
  9
$PUCSNAME
  2

  9
$PUCSORG
 10
0.0
 20
0.0
 30
0.0
  9
$PUCSXDIR
 10
1.0
 20
0.0
 30
0.0
  9
$PUCSYDIR
 10
0.0
 20
1.0
 30
0.0
  9
$USERI1
 70
     0
  9
$USERI2
 70
     0
  9
$USERI3
 70
     0
  9
$USERI4
 70
     0
  9
$USERI5
 70
     0
  9
$USERR1
 40
0.0
  9
$USERR2
 40
0.0
  9
$USERR3
 40
0.0
  9
$USERR4
 40
0.0
  9
$USERR5
 40
0.0
  9
$WORLDVIEW
 70
     1
  9
$SHADEDGE
 70
     3
  9
$SHADEDIF
 70
    70
  9
$TILEMODE
 70
     1
  9
$MAXACTVP
 70
    64
  9
$PLIMCHECK
 70
     0
  9
$PEXTMIN
 10
1.0000000000000000E+020
 20
1.0000000000000000E+020
 30
1.0000000000000000E+020
  9
$PEXTMAX
 10
-1.0000000000000000E+020
 20
-1.0000000000000000E+020
 30
-1.0000000000000000E+020
  9
$PLIMMIN
 10
0.0
 20
0.0
  9
$PLIMMAX
 10
12.0
 20
9.0
  9
$UNITMODE
 70
     0
  9
$VISRETAIN
 70
     1
  9
$PLINEGEN
 70
     0
  9
$PSLTSCALE
 70
     1
  0
ENDSEC
  0
SECTION
  2
TABLES
  0
TABLE
  2
VPORT
 70
     2
  0
VPORT
  2
*ACTIVE
 70
     0
 10
0.0
 20
0.0
 11
1.0
 21
1.0
 12
-1231.417877240717
 22
-580.98095550384664
 13
0.0
 23
0.0
 14
1.0
 24
1.0
 15
0.0
 25
0.0
 16
0.0
 26
0.0
 36
1.0
 17
0.0
 27
0.0
 37
0.0
 40
9.0000000174954948
 41
2.418918918918918
 42
50.0
 43
0.0
 44
0.0
 50
0.0
 51
0.0
 71
     0
 72
   100
 73
     1
 74
     1
 75
     0
 76
     0
 77
     0
 78
     0
  0
ENDTAB
  0
TABLE
  2
LTYPE
 70
     9
  0
LTYPE
  2
CONTINUOUS
 70
     0
  3
Solid line
 72
    65
 73
     0
 40
0.0
  0
LTYPE
  2
BORDER
 70
     0
  3
__ __ . __ __ .
 72
    65
 73
     6
 40
20.303316521542708
 49
5.8009475775836314
 49
-2.9004737887918139
 49
5.8009475775836314
 49
-2.9004737887918139
 49
0.0
 49
-2.9004737887918139
  0
LTYPE
  2
CENTER
 70
     0
  3
____ _ ____ _
 72
    65
 73
     4
 40
23.203790310334512
 49
14.50236894395908
 49
-2.9004737887918139
 49
2.9004737887918139
 49
-2.9004737887918139
  0
LTYPE
  2
DASHDOT
 70
     0
  3
__ . __ . __ .
 72
    65
 73
     4
 40
11.60189515516725
 49
5.8009475775836314
 49
-2.9004737887918139
 49
0.0
 49
-2.9004737887918139
  0
LTYPE
  2
DASHED
 70
     0
  3
__ __ __ __ __
 72
    65
 73
     2
 40
8.7014213663754454
 49
5.8009475775836314
 49
-2.9004737887918139
  0
LTYPE
  2
DIVIDE
 70
     0
  3
__ . . __ . . 
 72
    65
 73
     6
 40
14.50236894395908
 49
5.8009475775836314
 49
-2.9004737887918139
 49
0.0
 49
-2.9004737887918139
 49
0.0
 49
-2.9004737887918139
  0
LTYPE
  2
DOT
 70
     0
  3
..............
 72
    65
 73
     4
 40
5.8009475775836314
 49
0.0
 49
-2.9004737887918139
 49
0.0
 49
-2.9004737887918139
  0
LTYPE
  2
HIDDEN
 70
     0
  3
_ _ _ _ _ _ _
 72
    65
 73
     2
 40
4.3507106831877227
 49
2.9004737887918139
 49
-1.4502368943959081
  0
LTYPE
  2
PHANTOM
 70
     0
  3
_____ _ _ _____ _ _ 
 72
    65
 73
     6
 40
29.004737887918139
 49
14.50236894395908
 49
-2.9004737887918139
 49
2.9004737887918139
 49
-2.9004737887918139
 49
2.9004737887918139
 49
-2.9004737887918139
  0
ENDTAB
  0
TABLE
  2
LAYER
 70
     2
  0
LAYER
  2
0
 70
     0
 62
     7
  6
CONTINUOUS
  0
LAYER
  2
1
 70
     0
 62
     7
  6
CONTINUOUS
  0
ENDTAB
  0
TABLE
  2
STYLE
 70
     4
  0
STYLE
  2
STANDARD
 70
     0
 40
0.0
 41
1.0
 50
0.0
 71
     0
 42
3.5
  3
txt
  4

  0
STYLE
  2
SIMPLEX
 70
     0
 40
0.0
 41
1.0
 50
0.0
 71
     0
 42
3.5
  3
simplex
  4

  0
STYLE
  2
COMPLEX
 70
     0
 40
0.0
 41
1.0
 50
0.0
 71
     0
 42
3.5
  3
complex
  4

  0
STYLE
  2
ITALIC
 70
     0
 40
0.0
 41
1.0
 50
0.0
 71
     0
 42
3.5
  3
italic
  4

  0
ENDTAB
  0
TABLE
  2
VIEW
 70
     0
  0
ENDTAB
  0
TABLE
  2
UCS
 70
     0
  0
ENDTAB
  0
TABLE
  2
APPID
 70
     1
  0
APPID
  2
ACAD
 70
     0
  0
ENDTAB
  0
TABLE
  2
DIMSTYLE
 70
     1
  0
DIMSTYLE
  2
STANDARD
 70
     0
  3

  4

  5

  6

  7

 40
1.0
 41
0.18
 42
0.0625
 43
0.38
 44
0.18
 45
0.0
 46
0.0
 47
0.0
 48
0.0
140
0.18
141
0.09
142
0.0
143
25.399999999999999
144
1.0
145
0.0
146
1.0
147
0.09
 71
     0
 72
     0
 73
     1
 74
     1
 75
     0
 76
     0
 77
     0
 78
     0
170
     0
171
     2
172
     0
173
     0
174
     0
175
     0
176
     0
177
     0
178
     0
  0
ENDTAB
  0
ENDSEC
  0
SECTION
  2
BLOCKS
  0
BLOCK
  8
0
  2
$MODEL_SPACE
 70
     0
 10
0.0
 20
0.0
 30
0.0
  3
$MODEL_SPACE
  1

  0
ENDBLK
  5
20
  8
0
  0
BLOCK
 67
     1
  8
0
  2
$PAPER_SPACE
 70
     0
 10
0.0
 20
0.0
 30
0.0
  3
$PAPER_SPACE
  1

  0
ENDBLK
  5
1C
 67
     1
  8
0
  0
ENDSEC
  0
SECTION
  2
ENTITIES
  0
LINE
  5
33
  8
1
 62
     7
 10
-1180.49313625995
 20
-787.04318406756067
 30
0.0
 11
-1183.49313625995
 21
-790.04318406756045
 31
0.0
  0
LINE
  5
34
  8
1
 62
     7
 10
-1180.49313625995
 20
-787.04318406756067
 30
0.0
 11
-1180.49313625995
 21
-671.04318406756067
 31
0.0
  0
LINE
  5
35
  8
1
 62
     7
 10
-1179.49313625995
 20
-771.54318406756067
 30
0.0
 11
-1180.49313625995
 21
-771.54318406756079
 31
0.0
  0
LINE
  5
36
  8
1
 62
     7
 10
-1179.49313625995
 20
-777.26818406756058
 30
0.0
 11
-1180.49313625995
 21
-777.26818406756058
 31
0.0
  0
LINE
  5
37
  8
1
 62
     7
 10
-1184.393136259949
 20
-664.69057330381543
 30
0.0
 11
-1188.3931362599501
 21
-664.69057330381543
 31
0.0
  0
LINE
  5
38
  8
1
 62
     7
 10
-1179.49313625995
 20
-686.54318406756056
 30
0.0
 11
-1180.49313625995
 21
-686.54318406756056
 31
0.0
  0
LINE
  5
39
  8
1
 62
     7
 10
-1180.49313625995
 20
-671.04318406756067
 30
0.0
 11
-1183.49313625995
 21
-668.04318406756056
 31
0.0
  0
LINE
  5
3A
  8
1
 62
     7
 10
-1199.8931362599501
 20
-644.08543564336708
 30
0.0
 11
-1199.8931362599501
 21
-814.00093249175416
 31
0.0
  0
LINE
  5
3B
  8
1
 62
     7
 10
-1202.893136259949
 20
-641.54318406756067
 30
0.0
 11
-1202.893136259949
 21
-816.5431840675609
 31
0.0
  0
LINE
  5
3C
  8
1
 62
     7
 10
-1196.893136259949
 20
-816.5431840675609
 30
0.0
 11
-1195.7931362599491
 21
-816.5431840675609
 31
0.0
  0
LINE
  5
3D
  8
1
 62
     7
 10
-1196.893136259949
 20
-641.54318406756067
 30
0.0
 11
-1195.7931362599491
 21
-641.54318406756067
 31
0.0
  0
LINE
  5
3E
  8
1
 62
     7
 10
-1050.4944090317031
 20
-777.26818406756058
 30
0.0
 11
-1070.8944090317029
 21
-777.26818406756092
 31
0.0
  0
LINE
  5
3F
  8
1
 62
     7
 10
-1059.2944090317039
 20
-778.46818406756097
 30
0.0
 11
-1061.594409031703
 21
-778.46818406756097
 31
0.0
  0
LINE
  5
40
  8
1
 62
     7
 10
-1063.594409031703
 20
-801.0431840675609
 30
0.0
 11
-1063.594409031703
 21
-780.46818406756108
 31
0.0
  0
LINE
  5
41
  8
1
 62
     7
 10
-1064.7944090317039
 20
-780.46818406756086
 30
0.0
 11
-1064.7944090317039
 21
-783.34318406756063
 31
0.0
  0
LINE
  5
42
  8
1
 62
     7
 10
-1063.5678261188909
 20
-677.94318406756076
 30
0.0
 11
-1062.3944090317029
 21
-677.94318406756076
 31
0.0
  0
LINE
  5
43
  8
1
 62
     7
 10
-1071.8944090317029
 20
-681.81818406756065
 30
0.0
 11
-1071.8944090317029
 21
-704.04318406756067
 31
0.0
  0
LINE
  5
44
  8
1
 62
     7
 10
-1070.8944090317029
 20
-680.81818406756065
 30
0.0
 11
-1050.4944090317031
 21
-680.81818406756065
 31
0.0
  0
LINE
  5
45
  8
1
 62
     7
 10
-1061.594409031703
 20
-679.61818406756061
 30
0.0
 11
-1059.2944090317039
 21
-679.61818406756061
 31
0.0
  0
LINE
  5
46
  8
1
 62
     7
 10
-1063.594409031703
 20
-674.74318406756072
 30
0.0
 11
-1063.594409031703
 21
-677.61818406756049
 31
0.0
  0
LINE
  5
47
  8
1
 62
     7
 10
-1063.594409031703
 20
-671.04318406756067
 30
0.0
 11
-1063.594409031703
 21
-674.74318406756072
 31
0.0
  0
LINE
  5
48
  8
1
 62
     7
 10
-1065.794409031703
 20
-671.54318406756067
 30
0.0
 11
-1064.594409031703
 21
-671.54318406756067
 31
0.0
  0
LINE
  5
49
  8
1
 62
     7
 10
-1066.7944090317039
 20
-801.04318406756136
 30
0.0
 11
-1068.8944090317029
 21
-801.04318406756136
 31
0.0
  0
LINE
  5
4A
  8
1
 62
     7
 10
-1052.8944090317029
 20
-789.0431840675609
 30
0.0
 11
-1050.8944090317029
 21
-787.0431840675609
 31
0.0
  0
LINE
  5
4B
  8
1
 62
     7
 10
-1066.7944090317039
 20
-781.54318406756056
 30
0.0
 11
-1066.7944090317039
 21
-816.5431840675609
 31
0.0
  0
LINE
  5
4C
  8
1
 62
     7
 10
-1073.8944090317029
 20
-794.44318406756076
 30
0.0
 11
-1073.8944090317029
 21
-761.54031959397082
 31
0.0
  0
LINE
  5
4D
  8
1
 62
     7
 10
-1067.8944090317029
 20
-783.54318406756067
 30
0.0
 11
-1066.7944090317039
 21
-783.54318406756067
 31
0.0
  0
LINE
  5
4E
  8
1
 62
     7
 10
-1067.8944090317029
 20
-781.54318406756056
 30
0.0
 11
-1066.7944090317039
 21
-781.54318406756056
 31
0.0
  0
LINE
  5
4F
  8
1
 62
     7
 10
-1067.8944090317029
 20
-816.5431840675609
 30
0.0
 11
-1066.7944090317039
 21
-816.5431840675609
 31
0.0
  0
LINE
  5
50
  8
1
 62
     7
 10
-1067.8944090317029
 20
-814.5431840675609
 30
0.0
 11
-1066.7944090317039
 21
-814.5431840675609
 31
0.0
  0
LINE
  5
51
  8
1
 62
     7
 10
-1068.8944090317029
 20
-784.54318406756056
 30
0.0
 11
-1068.8944090317029
 21
-813.5431840675609
 31
0.0
  0
LINE
  5
52
  8
1
 62
     7
 10
-1051.494409031704
 20
-671.04318406756067
 30
0.0
 11
-1054.4795861775081
 21
-668.05800692175569
 31
0.0
  0
LINE
  5
53
  8
1
 62
     7
 10
-1051.494409031704
 20
-671.04318406756067
 30
0.0
 11
-1051.494409031704
 21
-686.54318406756056
 31
0.0
  0
LINE
  5
54
  8
1
 62
     7
 10
-1070.8944090317029
 20
-670.54318406756067
 30
0.0
 11
-1070.8944090317029
 21
-674.00093249175427
 31
0.0
  0
LINE
  5
55
  8
1
 62
     7
 10
-1073.8944090317029
 20
-670.54318406756067
 30
0.0
 11
-1073.8944090317029
 21
-698.04318406756056
 31
0.0
  0
LINE
  5
56
  8
1
 62
     7
 10
-1067.8944090317029
 20
-674.54318406756067
 30
0.0
 11
-1066.7944090317039
 21
-674.54318406756067
 31
0.0
  0
LINE
  5
57
  8
1
 62
     7
 10
-1066.7944090317039
 20
-676.54318406756056
 30
0.0
 11
-1066.7944090317039
 21
-668.04318406756056
 31
0.0
  0
LINE
  5
58
  8
1
 62
     7
 10
-1067.8944090317029
 20
-676.54318406756056
 30
0.0
 11
-1066.7944090317039
 21
-676.54318406756056
 31
0.0
  0
LINE
  5
59
  8
1
 62
     7
 10
-1073.8944090317029
 20
-641.54318406756067
 30
0.0
 11
-1073.8944090317029
 21
-657.54318406756056
 31
0.0
  0
LINE
  5
5A
  8
1
 62
     7
 10
-1070.8944090317029
 20
-644.08543564336708
 30
0.0
 11
-1070.8944090317029
 21
-657.54318406756056
 31
0.0
  0
LINE
  5
5B
  8
1
 62
     7
 10
-1067.8944090317029
 20
-641.54318406756067
 30
0.0
 11
-1066.7944090317039
 21
-641.54318406756067
 31
0.0
  0
LINE
  5
5C
  8
1
 62
     7
 10
-1067.8944090317029
 20
-643.54318406756056
 30
0.0
 11
-1066.7944090317039
 21
-643.54318406756056
 31
0.0
  0
LINE
  5
5D
  8
1
 62
     7
 10
-1068.8944090317029
 20
-660.04318406756056
 30
0.0
 11
-1068.8944090317029
 21
-644.54318406756056
 31
0.0
  0
LINE
  5
5E
  8
1
 62
     7
 10
-1100.2944090317039
 20
-816.54318406756045
 30
0.0
 11
-1081.2944090317039
 21
-816.54318406756045
 31
0.0
  0
LINE
  5
5F
  8
1
 62
     7
 10
-1102.294409031703
 20
-646.1431840675607
 30
0.0
 11
-1088.7944090317039
 21
-646.1431840675607
 31
0.0
  0
LINE
  5
60
  8
1
 62
     7
 10
-911.15056120950396
 20
-603.14881493910002
 30
0.0
 11
-911.15056120950396
 21
-597.97812189827425
 31
0.0
  0
LINE
  5
61
  8
1
 62
     7
 10
-910.65056120950385
 20
-597.97812189827425
 30
0.0
 11
-910.65056120950385
 21
-603.14881493910002
 31
0.0
  0
LINE
  5
62
  8
1
 62
     7
 10
-910.15056120950385
 20
-603.14881493910002
 30
0.0
 11
-910.15056120950385
 21
-597.97812189827425
 31
0.0
  0
LINE
  5
63
  8
1
 62
     7
 10
-909.15056120950385
 20
-597.97812189827425
 30
0.0
 11
-909.15056120950385
 21
-603.14881493910002
 31
0.0
  0
LINE
  5
64
  8
1
 62
     7
 10
-908.65056120950396
 20
-603.14881493910002
 30
0.0
 11
-908.65056120950396
 21
-597.97812189827425
 31
0.0
  0
LINE
  5
65
  8
1
 62
     7
 10
-908.15056120950385
 20
-597.97812189827425
 30
0.0
 11
-908.15056120950385
 21
-603.14881493910002
 31
0.0
  0
LINE
  5
66
  8
1
 62
     7
 10
-909.65056120950396
 20
-603.14881493910002
 30
0.0
 11
-909.65056120950396
 21
-641.54318406756067
 31
0.0
  0
LINE
  5
67
  8
1
 62
     7
 10
-907.65056120950396
 20
-603.14881493910002
 30
0.0
 11
-907.65056120950396
 21
-641.56604419662062
 31
0.0
  0
LINE
  5
68
  8
1
 62
     7
 10
-911.65056120950385
 20
-603.14881493910002
 30
0.0
 11
-907.65056120950396
 21
-603.14881493910002
 31
0.0
  0
LINE
  5
69
  8
1
 62
     7
 10
-911.65056120950385
 20
-641.56604419662062
 30
0.0
 11
-911.65056120950385
 21
-603.14881493910002
 31
0.0
  0
LINE
  5
6A
  8
1
 62
     3
 10
-1064.494409031704
 20
-757.04318406756056
 30
0.0
 11
-1065.533639516246
 21
-757.64318406756058
 31
0.0
  0
LINE
  5
6B
  8
1
 62
     3
 10
-1064.494409031704
 20
-763.04318406756067
 30
0.0
 11
-1065.533639516246
 21
-762.44318406756065
 31
0.0
  0
LINE
  5
6C
  8
1
 62
     3
 10
-1064.494409031704
 20
-757.04318406756056
 30
0.0
 11
-1050.4944090317031
 21
-757.04318406756056
 31
0.0
  0
LINE
  5
6D
  8
1
 62
     3
 10
-1064.494409031704
 20
-763.04318406756067
 30
0.0
 11
-1064.494409031704
 21
-757.04318406756056
 31
0.0
  0
LINE
  5
6E
  8
1
 62
     3
 10
-1050.4944090317031
 20
-763.04318406756067
 30
0.0
 11
-1064.494409031704
 21
-763.04318406756067
 31
0.0
  0
LINE
  5
6F
  8
1
 62
     7
 10
-1071.0264598392721
 20
-760.04318406756056
 30
0.0
 11
-1069.2944090317039
 21
-757.64318406756058
 31
0.0
  0
LINE
  5
70
  8
1
 62
     7
 10
-1069.2944090317039
 20
-762.44318406756065
 30
0.0
 11
-1071.0264598392721
 21
-760.04318406756056
 31
0.0
  0
LINE
  5
71
  8
1
 62
     7
 10
-1069.2944090317039
 20
-757.64318406756058
 30
0.0
 11
-1050.4944090317031
 21
-757.64318406756058
 31
0.0
  0
LINE
  5
72
  8
1
 62
     7
 10
-1069.2944090317039
 20
-762.44318406756065
 30
0.0
 11
-1069.2944090317039
 21
-757.64318406756058
 31
0.0
  0
LINE
  5
73
  8
1
 62
     7
 10
-1050.4944090317031
 20
-762.44318406756065
 30
0.0
 11
-1069.2944090317039
 21
-762.44318406756065
 31
0.0
  0
LINE
  5
74
  8
1
 62
     7
 10
-1182.7931362599491
 20
-733.04318406756067
 30
0.0
 11
-1181.99313625995
 21
-732.24318406756072
 31
0.0
  0
LINE
  5
75
  8
1
 62
     7
 10
-1181.99313625995
 20
-732.24318406756072
 30
0.0
 11
-1181.99313625995
 21
-725.84318406756063
 31
0.0
  0
LINE
  5
76
  8
1
 62
     7
 10
-1181.99313625995
 20
-725.84318406756063
 30
0.0
 11
-1182.7931362599491
 21
-725.04318406756067
 31
0.0
  0
LINE
  5
77
  8
1
 62
     7
 10
-1182.7931362599491
 20
-725.04318406756067
 30
0.0
 11
-1183.8931362599501
 21
-725.04318406756067
 31
0.0
  0
LINE
  5
78
  8
1
 62
     7
 10
-1182.7931362599491
 20
-733.04318406756067
 30
0.0
 11
-1182.7931362599491
 21
-725.04318406756067
 31
0.0
  0
LINE
  5
79
  8
1
 62
     3
 10
-1181.99313625995
 20
-732.24318406756072
 30
0.0
 11
-1183.8931362599501
 21
-732.24318406756072
 31
0.0
  0
LINE
  5
7A
  8
1
 62
     3
 10
-1181.99313625995
 20
-725.84318406756063
 30
0.0
 11
-1183.8931362599501
 21
-725.84318406756063
 31
0.0
  0
LINE
  5
7B
  8
1
 62
     7
 10
-1183.8931362599501
 20
-733.04318406756067
 30
0.0
 11
-1182.7931362599491
 21
-733.04318406756067
 31
0.0
  0
LINE
  5
7C
  8
1
 62
     7
 10
-913.15056120950396
 20
-711.04318406756056
 30
0.0
 11
-906.15056120950385
 21
-711.04318406756056
 31
0.0
  0
LINE
  5
7D
  8
1
 62
     7
 10
-906.15056120950385
 20
-714.45723192174569
 30
0.0
 11
-906.15056120950385
 21
-711.04318406756056
 31
0.0
  0
LINE
  5
7E
  8
1
 62
     7
 10
-913.15056120950396
 20
-714.45723192174569
 30
0.0
 11
-913.15056120950396
 21
-711.04318406756056
 31
0.0
  0
LINE
  5
7F
  8
1
 62
     7
 10
-1231.49313625995
 20
-814.54318406756045
 30
0.0
 11
-1231.49313625995
 21
-643.54318406756056
 31
0.0
  0
LINE
  5
80
  8
1
  6
DASHDOT
 62
     3
 10
-1258.29313625995
 20
-729.04318406756067
 30
0.0
 11
-1263.0225771058599
 21
-729.04318406756067
 31
0.0
  0
LINE
  5
81
  8
1
 62
     7
 10
-1244.54313625995
 20
-597.97812189827425
 30
0.0
 11
-1244.54313625995
 21
-603.14881493910002
 31
0.0
  0
LINE
  5
82
  8
1
 62
     7
 10
-1243.657164872872
 20
-597.97812189827425
 30
0.0
 11
-1243.657164872872
 21
-603.14881493910002
 31
0.0
  0
LINE
  5
83
  8
1
 62
     7
 10
-1243.9431362599501
 20
-597.97812189827425
 30
0.0
 11
-1243.9431362599501
 21
-603.14881493910002
 31
0.0
  0
LINE
  5
84
  8
1
 62
     7
 10
-1244.2431362599491
 20
-597.97812189827425
 30
0.0
 11
-1244.2431362599491
 21
-603.14881493910002
 31
0.0
  0
LINE
  5
85
  8
1
 62
     7
 10
-1244.843136259949
 20
-597.97812189827425
 30
0.0
 11
-1244.843136259949
 21
-603.14881493910002
 31
0.0
  0
LINE
  5
86
  8
1
 62
     7
 10
-1242.99313625995
 20
-603.14881493910002
 30
0.0
 11
-1242.99313625995
 21
-646.50521450822782
 31
0.0
  0
LINE
  5
87
  8
1
 62
     7
 10
-1245.49313625995
 20
-603.14881493910002
 30
0.0
 11
-1242.99313625995
 21
-603.14881493910002
 31
0.0
  0
LINE
  5
88
  8
1
 62
     7
 10
-1245.49313625995
 20
-603.14881493910002
 30
0.0
 11
-1245.49313625995
 21
-646.54318406756067
 31
0.0
  0
LINE
  5
89
  8
1
 62
     7
 10
-1210.29313625995
 20
-641.54318406756067
 30
0.0
 11
-1210.29313625995
 21
-816.54318406756045
 31
0.0
  0
LINE
  5
8A
  8
1
 62
     7
 10
-1210.29313625995
 20
-641.54318406756067
 30
0.0
 11
-1229.49313625995
 21
-641.54318406756067
 31
0.0
  0
LINE
  5
8B
  8
1
 62
     7
 10
-1231.49313625995
 20
-643.54318406756056
 30
0.0
 11
-1229.49313625995
 21
-641.54318406756067
 31
0.0
  0
LINE
  5
8C
  8
1
 62
     7
 10
-1254.99313625995
 20
-648.54318406756056
 30
0.0
 11
-1254.99313625995
 21
-809.54318406756045
 31
0.0
  0
LINE
  5
8D
  8
1
 62
     7
 10
-1254.99313625995
 20
-648.54318406756056
 30
0.0
 11
-1252.99313625995
 21
-646.54318406756067
 31
0.0
  0
LINE
  5
8E
  8
1
 62
     7
 10
-1258.29313625995
 20
-659.04318406756067
 30
0.0
 11
-1258.29313625995
 21
-799.04318406756045
 31
0.0
  0
LINE
  5
8F
  8
1
 62
     7
 10
-1258.29313625995
 20
-659.04318406756067
 30
0.0
 11
-1254.99313625995
 21
-659.04318406756067
 31
0.0
  0
LINE
  5
90
  8
1
 62
     7
 10
-1254.99313625995
 20
-799.04318406756045
 30
0.0
 11
-1258.29313625995
 21
-799.04318406756045
 31
0.0
  0
LINE
  5
91
  8
1
 62
     7
 10
-1252.99313625995
 20
-811.54318406756056
 30
0.0
 11
-1254.99313625995
 21
-809.54318406756045
 31
0.0
  0
LINE
  5
92
  8
1
 62
     7
 10
-1252.99313625995
 20
-811.54318406756056
 30
0.0
 11
-1231.49313625995
 21
-811.54318406756056
 31
0.0
  0
LINE
  5
93
  8
1
 62
     7
 10
-1229.49313625995
 20
-816.54318406756045
 30
0.0
 11
-1231.49313625995
 21
-814.54318406756045
 31
0.0
  0
LINE
  5
94
  8
1
 62
     7
 10
-1229.49313625995
 20
-816.54318406756045
 30
0.0
 11
-1210.29313625995
 21
-816.54318406756045
 31
0.0
  0
LINE
  5
95
  8
1
 62
     7
 10
-1252.99313625995
 20
-646.54318406756067
 30
0.0
 11
-1231.49313625995
 21
-646.54318406756067
 31
0.0
  0
LINE
  5
96
  8
1
  6
DASHDOT
 62
     3
 10
-1129.2944090317039
 20
-729.04318406756067
 30
0.0
 11
-1134.0238498776141
 21
-729.04318406756067
 31
0.0
  0
LINE
  5
97
  8
1
  6
DASHDOT
 62
     3
 10
-1048.194409031704
 20
-729.04318406756067
 30
0.0
 11
-1042.2944090317039
 21
-729.04318406756067
 31
0.0
  0
LINE
  5
98
  8
1
 62
     7
 10
-1048.194409031704
 20
-764.04318406756056
 30
0.0
 11
-1050.4944090317031
 21
-764.04318406756056
 31
0.0
  0
LINE
  5
99
  8
1
  6
DASHDOT
 62
     3
 10
-1073.62346409119
 20
-760.04318406756056
 30
0.0
 11
-1046.950048192509
 21
-760.04318406756056
 31
0.0
  0
LINE
  5
9A
  8
1
 62
     7
 10
-1050.4944090317031
 20
-756.04318406756056
 30
0.0
 11
-1048.194409031704
 21
-756.04318406756056
 31
0.0
  0
LINE
  5
9B
  8
1
 62
     7
 10
-1115.5444090317039
 20
-597.97812189827425
 30
0.0
 11
-1115.5444090317039
 21
-603.14881493910002
 31
0.0
  0
LINE
  5
9C
  8
1
 62
     7
 10
-1114.658437644626
 20
-597.97812189827425
 30
0.0
 11
-1114.658437644626
 21
-603.14881493910002
 31
0.0
  0
LINE
  5
9D
  8
1
 62
     7
 10
-1114.9444090317029
 20
-597.97812189827425
 30
0.0
 11
-1114.9444090317029
 21
-603.14881493910002
 31
0.0
  0
LINE
  5
9E
  8
1
 62
     7
 10
-1115.2444090317031
 20
-597.97812189827425
 30
0.0
 11
-1115.2444090317031
 21
-603.14881493910002
 31
0.0
  0
LINE
  5
9F
  8
1
 62
     7
 10
-1115.844409031703
 20
-597.97812189827425
 30
0.0
 11
-1115.844409031703
 21
-603.14881493910002
 31
0.0
  0
LINE
  5
A0
  8
1
 62
     7
 10
-1113.994409031704
 20
-603.14881493910002
 30
0.0
 11
-1113.994409031704
 21
-646.50521450822782
 31
0.0
  0
LINE
  5
A1
  8
1
 62
     7
 10
-1116.4944090317031
 20
-603.14881493910002
 30
0.0
 11
-1113.994409031704
 21
-603.14881493910002
 31
0.0
  0
LINE
  5
A2
  8
1
 62
     7
 10
-1116.4944090317031
 20
-603.14881493910002
 30
0.0
 11
-1116.4944090317031
 21
-646.54318406756067
 31
0.0
  0
LINE
  5
A3
  8
1
 62
     7
 10
-884.54402958051219
 20
-743.15739568431161
 30
0.0
 11
-884.87402958051223
 21
-743.72897245080958
 31
0.0
  0
LINE
  5
A4
  8
1
 62
     7
 10
-881.41798530893743
 20
-742.80292817923487
 30
0.0
 11
-881.98956207543506
 21
-742.47292817923483
 31
0.0
  0
LINE
  5
A5
  8
1
 62
     7
 10
-881.06351780386046
 20
-745.92897245080962
 30
0.0
 11
-880.73351780386042
 21
-745.35739568431165
 31
0.0
  0
LINE
  5
A6
  8
1
 62
     7
 10
-884.18956207543511
 20
-746.28343995588648
 30
0.0
 11
-883.61798530893736
 21
-746.61343995588652
 31
0.0
  0
LINE
  5
A7
  8
1
 62
     7
 10
-934.42709283849581
 20
-743.72897245080947
 30
0.0
 11
-934.75709283849585
 21
-743.15739568431161
 31
0.0
  0
LINE
  5
A8
  8
1
 62
     7
 10
-935.68313711007033
 20
-746.61343995588652
 30
0.0
 11
-935.11156034357282
 21
-746.28343995588648
 31
0.0
  0
LINE
  5
A9
  8
1
 62
     7
 10
-938.56760461514727
 20
-745.35739568431165
 30
0.0
 11
-938.23760461514735
 21
-745.92897245080951
 31
0.0
  0
LINE
  5
AA
  8
1
 62
     7
 10
-937.31156034357264
 20
-742.47292817923483
 30
0.0
 11
-937.88313711007027
 21
-742.80292817923487
 31
0.0
  0
LINE
  5
AB
  8
1
 62
     7
 10
-909.98056120950389
 20
-700.24318406756061
 30
0.0
 11
-909.32056120950381
 21
-700.24318406756061
 31
0.0
  0
LINE
  5
AC
  8
1
 62
     7
 10
-911.85056120950378
 20
-697.71318406756063
 30
0.0
 11
-911.85056120950378
 21
-698.37318406756071
 31
0.0
  0
LINE
  5
AD
  8
1
 62
     7
 10
-909.32056120950381
 20
-695.84318406756063
 30
0.0
 11
-909.98056120950389
 21
-695.84318406756063
 31
0.0
  0
LINE
  5
AE
  8
1
 62
     7
 10
-907.45056120950392
 20
-698.37318406756071
 30
0.0
 11
-907.45056120950392
 21
-697.71318406756063
 31
0.0
  0
LINE
  5
AF
  8
1
  6
DASHDOT
 62
     3
 10
-941.69350114952806
 20
-710.54318406756056
 30
0.0
 11
-931.30119630411457
 21
-716.54318406756067
 31
0.0
  0
LINE
  5
B0
  8
1
  6
DASHDOT
 62
     3
 10
-877.60762126947964
 20
-710.54318406756056
 30
0.0
 11
-887.9999261148929
 21
-716.54318406756067
 31
0.0
  0
LINE
  5
B1
  8
1
  6
DASHDOT
 62
     3
 10
-909.65056120950396
 20
-766.04318406756056
 30
0.0
 11
-909.65056120950396
 21
-754.04318406756067
 31
0.0
  0
LINE
  5
B2
  8
1
  6
DASHDOT
 62
     3
 10
-909.65056120950396
 20
-724.04318406756056
 30
0.0
 11
-909.65056120950396
 21
-734.04318406756067
 31
0.0
  0
LINE
  5
B3
  8
1
  6
DASHDOT
 62
     3
 10
-914.65056120950385
 20
-729.04318406756067
 30
0.0
 11
-904.65056120950385
 21
-729.04318406756067
 31
0.0
  0
LINE
  5
B4
  8
1
 62
     7
 10
-1099.294409031703
 20
-753.04318406756056
 30
0.0
 11
-1099.294409031703
 21
-705.04318406756067
 31
0.0
  0
LINE
  5
B5
  8
1
 62
     7
 10
-1088.7944090317039
 20
-792.04318406756067
 30
0.0
 11
-1088.7944090317039
 21
-811.94318406756065
 31
0.0
  0
LINE
  5
B6
  8
1
 62
     7
 10
-1089.994409031704
 20
-786.29318406756067
 30
0.0
 11
-1091.9944090317031
 21
-786.29318406756067
 31
0.0
  0
LINE
  5
B7
  8
1
 62
     7
 10
-1091.9944090317031
 20
-786.29318406756067
 30
0.0
 11
-1091.9944090317031
 21
-792.04318406756067
 31
0.0
  0
LINE
  5
B8
  8
1
 62
     7
 10
-1088.7944090317039
 20
-792.04318406756067
 30
0.0
 11
-1091.9944090317031
 21
-792.04318406756067
 31
0.0
  0
LINE
  5
B9
  8
1
 62
     7
 10
-1089.994409031704
 20
-759.81255462745571
 30
0.0
 11
-1089.994409031704
 21
-786.29318406756067
 31
0.0
  0
LINE
  5
BA
  8
1
 62
     7
 10
-1089.994409031704
 20
-792.04318406756067
 30
0.0
 11
-1089.994409031704
 21
-811.54318406756056
 31
0.0
  0
LINE
  5
BB
  8
1
 62
     7
 10
-1048.194409031704
 20
-777.54318406756056
 30
0.0
 11
-1048.194409031704
 21
-680.54318406756056
 31
0.0
  0
LINE
  5
BC
  8
1
 62
     7
 10
-1081.2944090317039
 20
-811.94318406756042
 30
0.0
 11
-1102.294409031703
 21
-811.94318406756042
 31
0.0
  0
LINE
  5
BD
  8
1
 62
     7
 10
-1065.794409031703
 20
-668.04318406756056
 30
0.0
 11
-1065.794409031703
 21
-671.54318406756067
 31
0.0
  0
LINE
  5
BE
  8
1
 62
     7
 10
-1091.9944090317031
 20
-671.79318406756056
 30
0.0
 11
-1089.994409031704
 21
-671.79318406756056
 31
0.0
  0
LINE
  5
BF
  8
1
 62
     7
 10
-1062.3944090317029
 20
-780.1431840675607
 30
0.0
 11
-1062.3944090317029
 21
-801.0431840675609
 31
0.0
  0
LINE
  5
C0
  8
1
 62
     7
 10
-1059.8944090317029
 20
-789.0431840675609
 30
0.0
 11
-1052.8944090317029
 21
-789.0431840675609
 31
0.0
  0
LINE
  5
C1
  8
1
 62
     7
 10
-1059.8944090317029
 20
-783.0431840675609
 30
0.0
 11
-1059.8944090317029
 21
-789.0431840675609
 31
0.0
  0
LINE
  5
C2
  8
1
 62
     7
 10
-1068.8944090317029
 20
-785.53908182614703
 30
0.0
 11
-1066.7944090317039
 21
-785.53908182614703
 31
0.0
  0
LINE
  5
C3
  8
1
 62
     7
 10
-1071.8944090317029
 20
-797.64318406756092
 30
0.0
 11
-1077.8944090317029
 21
-797.64318406756092
 31
0.0
  0
LINE
  5
C4
  8
1
 62
     7
 10
-1073.8944090317029
 20
-805.94318406756088
 30
0.0
 11
-1073.8944090317029
 21
-797.64318406756092
 31
0.0
  0
LINE
  5
C5
  8
1
 62
     7
 10
-1064.594409031703
 20
-671.54318406756067
 30
0.0
 11
-1064.594409031703
 21
-668.04318406756056
 31
0.0
  0
LINE
  5
C6
  8
1
 62
     7
 10
-1065.794409031703
 20
-657.04318406756056
 30
0.0
 11
-1065.794409031703
 21
-660.04318406756056
 31
0.0
  0
LINE
  5
C7
  8
1
 62
     7
 10
-1088.7944090317039
 20
-646.1431840675607
 30
0.0
 11
-1088.7944090317039
 21
-666.04318406756056
 31
0.0
  0
LINE
  5
C8
  8
1
 62
     7
 10
-1068.8949360488871
 20
-800.0431840675609
 30
0.0
 11
-1066.7944090317039
 21
-800.0431840675609
 31
0.0
  0
LINE
  5
C9
  8
1
 62
     7
 10
-1068.8944090317029
 20
-792.04318406756124
 30
0.0
 11
-1066.7944090317039
 21
-792.04318406756124
 31
0.0
  0
LINE
  5
CA
  8
1
 62
     7
 10
-1083.494409031704
 20
-761.633917332397
 30
0.0
 11
-1083.494409031704
 21
-787.04318406756045
 31
0.0
  0
LINE
  5
CB
  8
1
 62
     7
 10
-1081.2944090317039
 20
-762.00830828610231
 30
0.0
 11
-1081.2944090317039
 21
-816.54318406756045
 31
0.0
  0
LINE
  5
CC
  8
1
 62
     7
 10
-1081.2944090317039
 20
-641.54318406756067
 30
0.0
 11
-1100.2944090317039
 21
-641.54318406756067
 31
0.0
  0
LINE
  5
CD
  8
1
 62
     7
 10
-1102.294409031703
 20
-646.1431840675607
 30
0.0
 11
-1102.294409031703
 21
-643.54318406756056
 31
0.0
  0
LINE
  5
CE
  8
1
 62
     7
 10
-1081.2944090317039
 20
-671.04318406756067
 30
0.0
 11
-1083.494409031704
 21
-671.04318406756067
 31
0.0
  0
LINE
  5
CF
  8
1
 62
     7
 10
-1083.494409031704
 20
-671.04318406756067
 30
0.0
 11
-1083.494409031704
 21
-698.04318406756056
 31
0.0
  0
LINE
  5
D0
  8
1
 62
     7
 10
-1102.294409031703
 20
-643.54318406756056
 30
0.0
 11
-1100.2944090317039
 21
-641.54318406756067
 31
0.0
  0
LINE
  5
D1
  8
1
 62
     7
 10
-1081.2944090317039
 20
-641.54318406756067
 30
0.0
 11
-1081.2944090317039
 21
-698.04318406756056
 31
0.0
  0
LINE
  5
D2
  8
1
 62
     7
 10
-1071.8944090317029
 20
-681.81818406756065
 30
0.0
 11
-1070.8944090317029
 21
-680.81818406756065
 31
0.0
  0
LINE
  5
D3
  8
1
 62
     7
 10
-1080.8944090317041
 20
-641.54318406756067
 30
0.0
 11
-1080.8944090317041
 21
-698.04318406756056
 31
0.0
  0
LINE
  5
D4
  8
1
 62
     7
 10
-1054.8944090317029
 20
-659.04318406756067
 30
0.0
 11
-1054.8944090317029
 21
-660.04318406756056
 31
0.0
  0
LINE
  5
D5
  8
1
 62
     7
 10
-1056.8944090317041
 20
-657.04318406756056
 30
0.0
 11
-1064.594409031703
 21
-657.04318406756056
 31
0.0
  0
LINE
  5
D6
  8
1
 62
     7
 10
-1064.594409031703
 20
-657.04318406756056
 30
0.0
 11
-1064.594409031703
 21
-660.04318406756056
 31
0.0
  0
LINE
  5
D7
  8
1
 62
     7
 10
-1058.8944090317029
 20
-676.04318406756056
 30
0.0
 11
-1058.8944090317029
 21
-686.54318406756056
 31
0.0
  0
LINE
  5
D8
  8
1
 62
     7
 10
-1064.594409031703
 20
-671.04318406756067
 30
0.0
 11
-1059.8944090317029
 21
-671.04318406756067
 31
0.0
  0
LINE
  5
D9
  8
1
 62
     7
 10
-1059.8944090317029
 20
-671.04318406756067
 30
0.0
 11
-1059.8944090317029
 21
-675.04318406756067
 31
0.0
  0
LINE
  5
DA
  8
1
 62
     7
 10
-1070.8944090317029
 20
-670.54318406756067
 30
0.0
 11
-1078.3944090317029
 21
-670.54318406756067
 31
0.0
  0
LINE
  5
DB
  8
1
 62
     7
 10
-1078.3944090317029
 20
-670.54318406756067
 30
0.0
 11
-1078.8944090317029
 21
-669.67715866377625
 31
0.0
  0
LINE
  5
DC
  8
1
 62
     7
 10
-1078.8944090317029
 20
-669.67715866377625
 30
0.0
 11
-1078.8944090317029
 21
-658.40920947134509
 31
0.0
  0
LINE
  5
DD
  8
1
 62
     7
 10
-1078.8944090317029
 20
-658.40920947134509
 30
0.0
 11
-1078.3944090317029
 21
-657.54318406756056
 31
0.0
  0
LINE
  5
DE
  8
1
 62
     7
 10
-1078.3944090317029
 20
-657.54318406756056
 30
0.0
 11
-1070.8944090317029
 21
-657.54318406756056
 31
0.0
  0
LINE
  5
DF
  8
1
 62
     7
 10
-1070.8944090317029
 20
-657.54318406756056
 30
0.0
 11
-1070.8944090317029
 21
-670.54318406756067
 31
0.0
  0
LINE
  5
E0
  8
1
 62
     7
 10
-1078.3944090317029
 20
-670.54318406756067
 30
0.0
 11
-1078.3944090317029
 21
-657.54318406756056
 31
0.0
  0
LINE
  5
E1
  8
1
 62
     7
 10
-1070.8944090317029
 20
-668.04318406756056
 30
0.0
 11
-1053.694409031704
 21
-668.04318406756056
 31
0.0
  0
LINE
  5
E2
  8
1
 62
     7
 10
-1053.694409031704
 20
-668.04318406756056
 30
0.0
 11
-1052.8944090317029
 21
-667.24318406756061
 31
0.0
  0
LINE
  5
E3
  8
1
 62
     7
 10
-1052.8944090317029
 20
-667.24318406756061
 30
0.0
 11
-1052.8944090317029
 21
-660.84318406756063
 31
0.0
  0
LINE
  5
E4
  8
1
 62
     7
 10
-1052.8944090317029
 20
-660.84318406756063
 30
0.0
 11
-1053.694409031704
 21
-660.04318406756056
 31
0.0
  0
LINE
  5
E5
  8
1
 62
     7
 10
-1053.694409031704
 20
-660.04318406756056
 30
0.0
 11
-1070.8944090317029
 21
-660.04318406756056
 31
0.0
  0
LINE
  5
E6
  8
1
 62
     7
 10
-1053.694409031704
 20
-668.04318406756056
 30
0.0
 11
-1053.694409031704
 21
-660.04318406756056
 31
0.0
  0
LINE
  5
E7
  8
1
 62
     3
 10
-1052.8944090317029
 20
-667.24318406756061
 30
0.0
 11
-1069.008768385648
 21
-667.24318406756061
 31
0.0
  0
LINE
  5
E8
  8
1
 62
     3
 10
-1069.008768385648
 20
-667.24318406756061
 30
0.0
 11
-1070.3944090317029
 21
-668.04318406756056
 31
0.0
  0
LINE
  5
E9
  8
1
 62
     3
 10
-1052.8944090317029
 20
-660.84318406756063
 30
0.0
 11
-1069.008768385648
 21
-660.84318406756063
 31
0.0
  0
LINE
  5
EA
  8
1
 62
     3
 10
-1069.008768385648
 20
-660.84318406756063
 30
0.0
 11
-1070.3944090317029
 21
-660.04318406756056
 31
0.0
  0
LINE
  5
EB
  8
1
 62
     3
 10
-1069.008768385648
 20
-668.04318406756056
 30
0.0
 11
-1069.008768385648
 21
-660.04318406756056
 31
0.0
  0
LINE
  5
EC
  8
1
 62
     7
 10
-1066.7944090317039
 20
-657.29318406756056
 30
0.0
 11
-1065.794409031703
 21
-657.29318406756056
 31
0.0
  0
LINE
  5
ED
  8
1
 62
     7
 10
-1065.794409031703
 20
-670.79318406756056
 30
0.0
 11
-1066.7944090317039
 21
-670.79318406756056
 31
0.0
  0
LINE
  5
EE
  8
1
 62
     7
 10
-1066.7944090317039
 20
-660.04318406756056
 30
0.0
 11
-1066.7944090317039
 21
-641.54318406756067
 31
0.0
  0
LINE
  5
EF
  8
1
 62
     7
 10
-1065.794409031703
 20
-657.04318406756056
 30
0.0
 11
-1064.594409031703
 21
-657.04318406756056
 31
0.0
  0
LINE
  5
F0
  8
1
 62
     7
 10
-1064.7944090317039
 20
-674.74318406756072
 30
0.0
 11
-1064.7944090317039
 21
-677.61818406756049
 31
0.0
  0
LINE
  5
F1
  8
1
 62
     7
 10
-1059.2944090317039
 20
-679.61818406756061
 30
0.0
 11
-1059.2944090317039
 21
-680.81818406756065
 31
0.0
  0
LINE
  5
F2
  8
1
 62
     7
 10
-1062.3944090317029
 20
-677.94318406756076
 30
0.0
 11
-1062.3944090317029
 21
-671.04318406756067
 31
0.0
  0
LINE
  5
F3
  8
1
 62
     7
 10
-1063.594409031703
 20
-673.94318406756065
 30
0.0
 11
-1062.3944090317029
 21
-673.94318406756065
 31
0.0
  0
LINE
  5
F4
  8
1
 62
     7
 10
-1080.8944090317041
 20
-641.54318406756067
 30
0.0
 11
-1073.8944090317029
 21
-641.54318406756067
 31
0.0
  0
LINE
  5
F5
  8
1
 62
     7
 10
-1080.8944090317041
 20
-671.04318406756067
 30
0.0
 11
-1073.8944090317029
 21
-671.04318406756067
 31
0.0
  0
LINE
  5
F6
  8
1
 62
     7
 10
-1068.8944090317029
 20
-668.04318406756056
 30
0.0
 11
-1068.8944090317029
 21
-673.54318406756056
 31
0.0
  0
LINE
  5
F7
  8
1
 62
     7
 10
-1068.8944090317029
 20
-657.04318406756056
 30
0.0
 11
-1066.7944090317039
 21
-657.04318406756056
 31
0.0
  0
LINE
  5
F8
  8
1
 62
     7
 10
-1073.8944090317029
 20
-787.0431840675609
 30
0.0
 11
-1080.8944090317041
 21
-787.0431840675609
 31
0.0
  0
LINE
  5
F9
  8
1
 62
     7
 10
-1073.8944090317029
 20
-816.5431840675609
 30
0.0
 11
-1080.8944090317041
 21
-816.5431840675609
 31
0.0
  0
LINE
  5
FA
  8
1
 62
     7
 10
-1062.3944090317029
 20
-780.1431840675607
 30
0.0
 11
-1063.5678261188909
 21
-780.1431840675607
 31
0.0
  0
LINE
  5
FB
  8
1
 62
     7
 10
-1059.2944090317039
 20
-777.26818406756092
 30
0.0
 11
-1059.2944090317039
 21
-778.46818406756097
 31
0.0
  0
LINE
  5
FC
  8
1
 62
     7
 10
-1058.8944090317029
 20
-771.54318406756079
 30
0.0
 11
-1058.8944090317029
 21
-782.0431840675609
 31
0.0
  0
LINE
  5
FD
  8
1
 62
     7
 10
-1050.8944090317029
 20
-771.54318406756079
 30
0.0
 11
-1050.8944090317029
 21
-787.0431840675609
 31
0.0
  0
LINE
  5
FE
  8
1
 62
     7
 10
-1070.8944090317029
 20
-777.26818406756092
 30
0.0
 11
-1071.8944090317029
 21
-776.26818406756092
 31
0.0
  0
LINE
  5
FF
  8
1
 62
     7
 10
-1063.594409031703
 20
-801.0431840675609
 30
0.0
 11
-1062.3944090317029
 21
-801.0431840675609
 31
0.0
  0
LINE
  5
100
  8
1
 62
     7
 10
-1080.8944090317041
 20
-793.0431840675609
 30
0.0
 11
-1077.8944090317029
 21
-793.0431840675609
 31
0.0
  0
LINE
  5
101
  8
1
 62
     7
 10
-1077.8944090317029
 20
-793.0431840675609
 30
0.0
 11
-1077.8944090317029
 21
-799.0431840675609
 31
0.0
  0
LINE
  5
102
  8
1
 62
     7
 10
-1077.8944090317029
 20
-799.0431840675609
 30
0.0
 11
-1080.8944090317041
 21
-799.0431840675609
 31
0.0
  0
LINE
  5
103
  8
1
 62
     7
 10
-1077.8944090317029
 20
-794.44318406756076
 30
0.0
 11
-1071.8944090317029
 21
-794.44318406756076
 31
0.0
  0
LINE
  5
104
  8
1
 62
     7
 10
-1080.8944090317041
 20
-804.5431840675609
 30
0.0
 11
-1077.8944090317029
 21
-804.5431840675609
 31
0.0
  0
LINE
  5
105
  8
1
 62
     7
 10
-1077.8944090317029
 20
-804.5431840675609
 30
0.0
 11
-1077.8944090317029
 21
-810.54318406756079
 31
0.0
  0
LINE
  5
106
  8
1
 62
     7
 10
-1077.8944090317029
 20
-810.54318406756079
 30
0.0
 11
-1080.8944090317041
 21
-810.54318406756079
 31
0.0
  0
LINE
  5
107
  8
1
 62
     7
 10
-1077.8944090317029
 20
-805.94318406756088
 30
0.0
 11
-1071.8944090317029
 21
-805.94318406756088
 31
0.0
  0
LINE
  5
108
  8
1
 62
     7
 10
-1077.8944090317029
 20
-809.14318406756092
 30
0.0
 11
-1071.8944090317029
 21
-809.14318406756092
 31
0.0
  0
LINE
  5
109
  8
1
 62
     7
 10
-1073.8944090317029
 20
-809.14318406756092
 30
0.0
 11
-1073.8944090317029
 21
-816.5431840675609
 31
0.0
  0
LINE
  5
10A
  8
1
 62
     7
 10
-1071.8944090317029
 20
-793.0431840675609
 30
0.0
 11
-1071.369339007751
 21
-793.0431840675609
 31
0.0
  0
LINE
  5
10B
  8
1
 62
     7
 10
-1071.8944090317029
 20
-799.0431840675609
 30
0.0
 11
-1071.2231379823461
 21
-799.0431840675609
 31
0.0
  0
LINE
  5
10C
  8
1
 62
     7
 10
-1071.8944090317029
 20
-804.5431840675609
 30
0.0
 11
-1071.3206053326151
 21
-804.5431840675609
 31
0.0
  0
LINE
  5
10D
  8
1
 62
     7
 10
-1071.8944090317029
 20
-810.54318406756079
 30
0.0
 11
-1071.532405560547
 21
-810.54318406756079
 31
0.0
  0
LINE
  5
10E
  8
1
 62
     7
 10
-1071.8944090317029
 20
-810.54318406756079
 30
0.0
 11
-1071.8944090317029
 21
-787.54318406756067
 31
0.0
  0
LINE
  5
10F
  8
1
 62
     7
 10
-1050.4944090317031
 20
-704.04318406756067
 30
0.0
 11
-1050.4944090317031
 21
-680.54318406756056
 31
0.0
  0
LINE
  5
110
  8
1
 62
     7
 10
-1050.4944090317031
 20
-704.04318406756067
 30
0.0
 11
-1048.194409031704
 21
-704.04318406756067
 31
0.0
  0
LINE
  5
111
  8
1
 62
     7
 10
-1049.2944090317039
 20
-704.04318406756067
 30
0.0
 11
-1049.2944090317039
 21
-754.04318406756067
 31
0.0
  0
LINE
  5
112
  8
1
 62
     7
 10
-1071.8944090317029
 20
-704.04318406756067
 30
0.0
 11
-1098.294409031703
 21
-704.04318406756067
 31
0.0
  0
LINE
  5
113
  8
1
 62
     7
 10
-1098.294409031703
 20
-704.04318406756067
 30
0.0
 11
-1099.294409031703
 21
-705.04318406756067
 31
0.0
  0
LINE
  5
114
  8
1
 62
     7
 10
-1099.294409031703
 20
-711.04318406756056
 30
0.0
 11
-1049.2944090317039
 21
-711.04318406756056
 31
0.0
  0
LINE
  5
115
  8
1
 62
     7
 10
-1099.294409031703
 20
-714.04318406756056
 30
0.0
 11
-1049.2944090317039
 21
-714.04318406756056
 31
0.0
  0
LINE
  5
116
  8
1
 62
     7
 10
-1049.2944090317039
 20
-744.04318406756056
 30
0.0
 11
-1099.294409031703
 21
-744.04318406756056
 31
0.0
  0
LINE
  5
117
  8
1
 62
     7
 10
-1098.294409031703
 20
-754.04318406756067
 30
0.0
 11
-1071.8944090317029
 21
-754.04318406756067
 31
0.0
  0
LINE
  5
118
  8
1
 62
     7
 10
-1048.194409031704
 20
-754.04318406756067
 30
0.0
 11
-1049.2944090317039
 21
-754.04318406756067
 31
0.0
  0
LINE
  5
119
  8
1
 62
     7
 10
-1049.2944090317039
 20
-754.04318406756067
 30
0.0
 11
-1050.4944090317031
 21
-754.04318406756067
 31
0.0
  0
LINE
  5
11A
  8
1
 62
     7
 10
-1050.4944090317031
 20
-754.04318406756067
 30
0.0
 11
-1050.4944090317031
 21
-777.54318406756056
 31
0.0
  0
LINE
  5
11B
  8
1
 62
     7
 10
-1070.8944090317029
 20
-777.26818406756092
 30
0.0
 11
-1071.8944090317029
 21
-776.26818406756092
 31
0.0
  0
LINE
  5
11C
  8
1
 62
     7
 10
-1071.8944090317029
 20
-776.26818406756092
 30
0.0
 11
-1071.8944090317029
 21
-754.04318406756067
 31
0.0
  0
LINE
  5
11D
  8
1
 62
     7
 10
-1080.8944090317041
 20
-816.5431840675609
 30
0.0
 11
-1080.8944090317041
 21
-761.92055466584395
 31
0.0
  0
LINE
  5
11E
  8
1
 62
     7
 10
-1091.9944090317031
 20
-666.04318406756056
 30
0.0
 11
-1091.9944090317031
 21
-671.79318406756056
 31
0.0
  0
LINE
  5
11F
  8
1
 62
     7
 10
-1091.9944090317031
 20
-666.04318406756056
 30
0.0
 11
-1088.7944090317039
 21
-666.04318406756056
 31
0.0
  0
LINE
  5
120
  8
1
 62
     7
 10
-1089.994409031704
 20
-671.79318406756056
 30
0.0
 11
-1089.994409031704
 21
-698.27381350766575
 31
0.0
  0
LINE
  5
121
  8
1
 62
     7
 10
-1125.994409031704
 20
-679.04318406756067
 30
0.0
 11
-1106.994409031704
 21
-679.04318406756067
 31
0.0
  0
LINE
  5
122
  8
1
 62
     7
 10
-1106.994409031704
 20
-679.04318406756067
 30
0.0
 11
-1101.9944090317031
 21
-684.04318406756067
 31
0.0
  0
LINE
  5
123
  8
1
 62
     7
 10
-1101.9944090317031
 20
-684.04318406756067
 30
0.0
 11
-1083.494409031704
 21
-684.04318406756067
 31
0.0
  0
LINE
  5
124
  8
1
 62
     7
 10
-1101.9944090317031
 20
-684.04318406756067
 30
0.0
 11
-1101.9944090317031
 21
-774.04318406756045
 31
0.0
  0
LINE
  5
125
  8
1
 62
     7
 10
-1106.994409031704
 20
-679.04318406756067
 30
0.0
 11
-1106.994409031704
 21
-779.04318406756045
 31
0.0
  0
LINE
  5
126
  8
1
 62
     7
 10
-1125.994409031704
 20
-648.54318406756056
 30
0.0
 11
-1125.994409031704
 21
-809.54318406756045
 31
0.0
  0
LINE
  5
127
  8
1
 62
     7
 10
-1125.994409031704
 20
-648.54318406756056
 30
0.0
 11
-1123.994409031704
 21
-646.54318406756067
 31
0.0
  0
LINE
  5
128
  8
1
 62
     7
 10
-1089.994409031704
 20
-646.54318406756067
 30
0.0
 11
-1089.994409031704
 21
-666.04318406756056
 31
0.0
  0
LINE
  5
129
  8
1
 62
     7
 10
-1129.2944090317039
 20
-659.04318406756067
 30
0.0
 11
-1129.2944090317039
 21
-799.04318406756045
 31
0.0
  0
LINE
  5
12A
  8
1
  6
DASHDOT
 62
     3
 10
-1130.951688564553
 20
-686.54318406756056
 30
0.0
 11
-1124.236551703628
 21
-686.54318406756056
 31
0.0
  0
LINE
  5
12B
  8
1
 62
     7
 10
-1129.2944090317039
 20
-683.29318406756056
 30
0.0
 11
-1125.994409031704
 21
-683.29318406756056
 31
0.0
  0
LINE
  5
12C
  8
1
 62
     7
 10
-1129.2944090317039
 20
-689.79318406756067
 30
0.0
 11
-1125.994409031704
 21
-689.79318406756067
 31
0.0
  0
LINE
  5
12D
  8
1
 62
     7
 10
-1129.2944090317039
 20
-693.04318406756056
 30
0.0
 11
-1125.994409031704
 21
-693.04318406756056
 31
0.0
  0
LINE
  5
12E
  8
1
 62
     7
 10
-1129.2944090317039
 20
-659.04318406756067
 30
0.0
 11
-1125.994409031704
 21
-659.04318406756067
 31
0.0
  0
LINE
  5
12F
  8
1
 62
     7
 10
-1125.994409031704
 20
-799.04318406756045
 30
0.0
 11
-1129.2944090317039
 21
-799.04318406756045
 31
0.0
  0
LINE
  5
130
  8
1
 62
     7
 10
-1125.994409031704
 20
-765.04318406756045
 30
0.0
 11
-1129.2944090317039
 21
-765.04318406756045
 31
0.0
  0
LINE
  5
131
  8
1
 62
     7
 10
-1123.994409031704
 20
-811.54318406756056
 30
0.0
 11
-1125.994409031704
 21
-809.54318406756045
 31
0.0
  0
LINE
  5
132
  8
1
 62
     7
 10
-1123.994409031704
 20
-811.54318406756056
 30
0.0
 11
-1089.994409031704
 21
-811.54318406756056
 31
0.0
  0
LINE
  5
133
  8
1
 62
     7
 10
-1101.9944090317031
 20
-774.04318406756045
 30
0.0
 11
-1083.494409031704
 21
-774.04318406756045
 31
0.0
  0
LINE
  5
134
  8
1
 62
     7
 10
-1101.9944090317031
 20
-774.04318406756045
 30
0.0
 11
-1106.994409031704
 21
-779.04318406756045
 31
0.0
  0
LINE
  5
135
  8
1
 62
     7
 10
-1106.994409031704
 20
-779.04318406756045
 30
0.0
 11
-1125.994409031704
 21
-779.04318406756045
 31
0.0
  0
LINE
  5
136
  8
1
 62
     7
 10
-1099.294409031703
 20
-753.04318406756056
 30
0.0
 11
-1098.294409031703
 21
-754.04318406756067
 31
0.0
  0
LINE
  5
137
  8
1
 62
     7
 10
-1100.2944090317039
 20
-816.54318406756045
 30
0.0
 11
-1102.294409031703
 21
-814.54318406756045
 31
0.0
  0
LINE
  5
138
  8
1
 62
     7
 10
-1083.494409031704
 20
-787.04318406756045
 30
0.0
 11
-1081.2944090317039
 21
-787.04318406756045
 31
0.0
  0
LINE
  5
139
  8
1
 62
     7
 10
-1102.294409031703
 20
-814.54318406756045
 30
0.0
 11
-1102.294409031703
 21
-811.94318406756042
 31
0.0
  0
LINE
  5
13A
  8
1
 62
     7
 10
-1123.994409031704
 20
-646.54318406756067
 30
0.0
 11
-1089.994409031704
 21
-646.54318406756067
 31
0.0
  0
LINE
  5
13B
  8
1
 62
     7
 10
-1048.194409031704
 20
-680.54318406756056
 30
0.0
 11
-1050.4944090317031
 21
-680.54318406756056
 31
0.0
  0
LINE
  5
13C
  8
1
 62
     7
 10
-1071.8944090317029
 20
-686.54318406756045
 30
0.0
 11
-1050.4944090317031
 21
-686.54318406756056
 31
0.0
  0
LINE
  5
13D
  8
1
 62
     7
 10
-1050.4944090317031
 20
-771.54318406756067
 30
0.0
 11
-1071.8944090317029
 21
-771.54318406756079
 31
0.0
  0
LINE
  5
13E
  8
1
 62
     7
 10
-1048.194409031704
 20
-777.54318406756056
 30
0.0
 11
-1050.4944090317031
 21
-777.54318406756056
 31
0.0
  0
LINE
  5
13F
  8
1
  6
DASHDOT
 62
     3
 10
-1177.1931362599501
 20
-729.04318406756067
 30
0.0
 11
-1171.29313625995
 21
-729.04318406756067
 31
0.0
  0
LINE
  5
140
  8
1
 62
     7
 10
-1177.1931362599501
 20
-777.54318406756056
 30
0.0
 11
-1177.1931362599501
 21
-680.54318406756056
 31
0.0
  0
LINE
  5
141
  8
1
 62
     7
 10
-1194.7931362599491
 20
-671.54318406756067
 30
0.0
 11
-1193.593136259949
 21
-671.54318406756067
 31
0.0
  0
LINE
  5
142
  8
1
 62
     7
 10
-1194.7931362599491
 20
-671.54318406756067
 30
0.0
 11
-1194.7931362599491
 21
-657.04318406756056
 31
0.0
  0
LINE
  5
143
  8
1
 62
     7
 10
-1195.7931362599491
 20
-816.5431840675609
 30
0.0
 11
-1195.7931362599491
 21
-641.54318406756067
 31
0.0
  0
LINE
  5
144
  8
1
 62
     7
 10
-1185.571884278598
 20
-657.04318406756056
 30
0.0
 11
-1193.593136259949
 21
-657.04318406756056
 31
0.0
  0
LINE
  5
145
  8
1
 62
     7
 10
-1193.593136259949
 20
-657.04318406756056
 30
0.0
 11
-1193.593136259949
 21
-671.54318406756067
 31
0.0
  0
LINE
  5
146
  8
1
 62
     7
 10
-1193.593136259949
 20
-671.04318406756067
 30
0.0
 11
-1192.5931362599499
 21
-671.04318406756067
 31
0.0
  0
LINE
  5
147
  8
1
 62
     7
 10
-1182.7931362599491
 20
-668.04318406756056
 30
0.0
 11
-1181.99313625995
 21
-667.24318406756061
 31
0.0
  0
LINE
  5
148
  8
1
 62
     7
 10
-1181.99313625995
 20
-667.24318406756061
 30
0.0
 11
-1181.99313625995
 21
-660.84318406756063
 31
0.0
  0
LINE
  5
149
  8
1
 62
     7
 10
-1181.99313625995
 20
-660.84318406756063
 30
0.0
 11
-1182.7931362599491
 21
-660.04318406756056
 31
0.0
  0
LINE
  5
14A
  8
1
 62
     7
 10
-1182.7931362599491
 20
-660.04318406756056
 30
0.0
 11
-1183.8931362599501
 21
-660.04318406756056
 31
0.0
  0
LINE
  5
14B
  8
1
 62
     7
 10
-1182.7931362599491
 20
-668.04318406756056
 30
0.0
 11
-1182.7931362599491
 21
-660.04318406756056
 31
0.0
  0
LINE
  5
14C
  8
1
 62
     3
 10
-1181.99313625995
 20
-667.24318406756061
 30
0.0
 11
-1183.8931362599501
 21
-667.24318406756061
 31
0.0
  0
LINE
  5
14D
  8
1
 62
     3
 10
-1181.99313625995
 20
-660.84318406756063
 30
0.0
 11
-1183.8931362599501
 21
-660.84318406756063
 31
0.0
  0
LINE
  5
14E
  8
1
 62
     7
 10
-1195.7931362599491
 20
-657.29318406756056
 30
0.0
 11
-1194.7931362599491
 21
-657.29318406756056
 31
0.0
  0
LINE
  5
14F
  8
1
 62
     7
 10
-1194.7931362599491
 20
-670.79318406756056
 30
0.0
 11
-1195.7931362599491
 21
-670.79318406756056
 31
0.0
  0
LINE
  5
150
  8
1
 62
     7
 10
-1194.7931362599491
 20
-657.04318406756056
 30
0.0
 11
-1193.593136259949
 21
-657.04318406756056
 31
0.0
  0
LINE
  5
151
  8
1
 62
     7
 10
-1209.8931362599501
 20
-641.54318406756067
 30
0.0
 11
-1202.893136259949
 21
-641.54318406756067
 31
0.0
  0
LINE
  5
152
  8
1
 62
     7
 10
-1202.893136259949
 20
-816.5431840675609
 30
0.0
 11
-1209.8931362599501
 21
-816.5431840675609
 31
0.0
  0
LINE
  5
153
  8
1
 62
     7
 10
-1179.49313625995
 20
-680.54318406756056
 30
0.0
 11
-1179.49313625995
 21
-777.54318406756056
 31
0.0
  0
LINE
  5
154
  8
1
 62
     7
 10
-1177.1931362599501
 20
-680.54318406756056
 30
0.0
 11
-1179.49313625995
 21
-680.54318406756056
 31
0.0
  0
LINE
  5
155
  8
1
 62
     7
 10
-1177.1931362599501
 20
-777.54318406756056
 30
0.0
 11
-1179.49313625995
 21
-777.54318406756056
 31
0.0
  0
LINE
  5
156
  8
1
 62
     7
 10
-1209.8931362599501
 20
-641.54318406756067
 30
0.0
 11
-1209.8931362599501
 21
-816.5431840675609
 31
0.0
  0
LINE
  5
157
  8
1
 62
     7
 10
-1180.49313625995
 20
-680.81818406756065
 30
0.0
 11
-1179.49313625995
 21
-680.81818406756065
 31
0.0
  0
LINE
  5
158
  8
1
 62
     7
 10
-1183.8931362599501
 20
-668.04318406756056
 30
0.0
 11
-1182.7931362599491
 21
-668.04318406756056
 31
0.0
  0
LINE
  5
159
  8
1
 62
     7
 10
-1193.593136259949
 20
-722.04318406756056
 30
0.0
 11
-1184.893136259949
 21
-722.04318406756056
 31
0.0
  0
LINE
  5
15A
  8
1
 62
     7
 10
-1184.893136259949
 20
-736.04318406756056
 30
0.0
 11
-1194.7931362599491
 21
-736.04318406756056
 31
0.0
  0
LINE
  5
15B
  8
1
 62
     7
 10
-1187.893136259949
 20
-722.04318406756056
 30
0.0
 11
-1187.893136259949
 21
-676.04318406756056
 31
0.0
  0
LINE
  5
15C
  8
1
 62
     7
 10
-1190.858698663028
 20
-658.67981918969406
 30
0.0
 11
-1192.057583725157
 21
-658.62810257917101
 31
0.0
  0
LINE
  5
15D
  8
1
 62
     7
 10
-1194.7931362599491
 20
-722.04318406756056
 30
0.0
 11
-1192.057583725157
 21
-658.62810257917101
 31
0.0
  0
LINE
  5
15E
  8
1
 62
     7
 10
-1193.593136259949
 20
-722.04318406756056
 30
0.0
 11
-1190.858698663028
 21
-658.67981918969406
 31
0.0
  0
LINE
  5
15F
  8
1
 62
     7
 10
-1191.39202028521
 20
-671.04318406756067
 30
0.0
 11
-1188.893136259949
 21
-671.04318406756067
 31
0.0
  0
LINE
  5
160
  8
1
 62
     7
 10
-1187.893136259949
 20
-736.04318406756056
 30
0.0
 11
-1187.893136259949
 21
-782.04318406756045
 31
0.0
  0
LINE
  5
161
  8
1
 62
     7
 10
-1181.99313625995
 20
-790.8431840675604
 30
0.0
 11
-1182.7931362599491
 21
-790.04318406756045
 31
0.0
  0
LINE
  5
162
  8
1
 62
     7
 10
-1181.99313625995
 20
-797.24318406756049
 30
0.0
 11
-1181.99313625995
 21
-790.8431840675604
 31
0.0
  0
LINE
  5
163
  8
1
 62
     7
 10
-1182.7931362599491
 20
-798.04318406756045
 30
0.0
 11
-1181.99313625995
 21
-797.24318406756049
 31
0.0
  0
LINE
  5
164
  8
1
 62
     7
 10
-1183.8931362599501
 20
-798.04318406756045
 30
0.0
 11
-1182.7931362599491
 21
-798.04318406756045
 31
0.0
  0
LINE
  5
165
  8
1
 62
     7
 10
-1182.7931362599491
 20
-798.04318406756045
 30
0.0
 11
-1182.7931362599491
 21
-790.04318406756045
 31
0.0
  0
LINE
  5
166
  8
1
 62
     3
 10
-1183.8931362599501
 20
-790.8431840675604
 30
0.0
 11
-1181.99313625995
 21
-790.8431840675604
 31
0.0
  0
LINE
  5
167
  8
1
 62
     3
 10
-1183.8931362599501
 20
-797.24318406756049
 30
0.0
 11
-1181.99313625995
 21
-797.24318406756049
 31
0.0
  0
LINE
  5
168
  8
1
 62
     7
 10
-1182.7931362599491
 20
-790.04318406756045
 30
0.0
 11
-1183.8931362599501
 21
-790.04318406756045
 31
0.0
  0
LINE
  5
169
  8
1
 62
     7
 10
-1194.7931362599491
 20
-800.79318406756056
 30
0.0
 11
-1195.7931362599491
 21
-800.79318406756056
 31
0.0
  0
LINE
  5
16A
  8
1
 62
     7
 10
-1195.7931362599491
 20
-787.29318406756045
 30
0.0
 11
-1194.7931362599491
 21
-787.29318406756045
 31
0.0
  0
LINE
  5
16B
  8
1
 62
     7
 10
-1194.7931362599491
 20
-801.04318406756056
 30
0.0
 11
-1185.571884278598
 21
-801.04318406756056
 31
0.0
  0
LINE
  5
16C
  8
1
 62
     7
 10
-1188.893136259949
 20
-787.04318406756045
 30
0.0
 11
-1193.593136259949
 21
-787.04318406756045
 31
0.0
  0
LINE
  5
16D
  8
1
 62
     7
 10
-1188.893136259949
 20
-783.04318406756045
 30
0.0
 11
-1188.893136259949
 21
-787.04318406756045
 31
0.0
  0
LINE
  5
16E
  8
1
 62
     7
 10
-1193.593136259949
 20
-722.04318406756056
 30
0.0
 11
-1193.593136259949
 21
-736.04318406756056
 31
0.0
  0
LINE
  5
16F
  8
1
 62
     7
 10
-1194.7931362599491
 20
-722.04318406756056
 30
0.0
 11
-1194.7931362599491
 21
-736.04318406756056
 31
0.0
  0
LINE
  5
170
  8
1
 62
     7
 10
-1190.858698663028
 20
-738.09490067808383
 30
0.0
 11
-1192.057583725157
 21
-738.04318406756067
 31
0.0
  0
LINE
  5
171
  8
1
 62
     7
 10
-1194.7931362599491
 20
-787.04318406756045
 30
0.0
 11
-1192.057583725157
 21
-738.04318406756067
 31
0.0
  0
LINE
  5
172
  8
1
 62
     7
 10
-1193.593136259949
 20
-787.04318406756045
 30
0.0
 11
-1190.858698663028
 21
-738.09490067808383
 31
0.0
  0
LINE
  5
173
  8
1
 62
     7
 10
-1193.593136259949
 20
-801.04318406756056
 30
0.0
 11
-1193.593136259949
 21
-787.04318406756045
 31
0.0
  0
LINE
  5
174
  8
1
 62
     7
 10
-1194.7931362599491
 20
-801.04318406756056
 30
0.0
 11
-1194.7931362599491
 21
-787.04318406756045
 31
0.0
  0
LINE
  5
175
  8
1
 62
     7
 10
-1194.7931362599491
 20
-722.29318406756056
 30
0.0
 11
-1195.7931362599491
 21
-722.29318406756056
 31
0.0
  0
LINE
  5
176
  8
1
 62
     7
 10
-1194.7931362599491
 20
-735.79318406756067
 30
0.0
 11
-1195.7931362599491
 21
-735.79318406756067
 31
0.0
  0
LINE
  5
177
  8
1
 62
     7
 10
-1183.6931362599501
 20
-716.35742862523193
 30
0.0
 11
-1180.6931362599501
 21
-716.35742862523193
 31
0.0
  0
LINE
  5
178
  8
1
 62
     7
 10
-1183.6931362599501
 20
-741.72893950988941
 30
0.0
 11
-1180.6931362599501
 21
-741.72893950988941
 31
0.0
  0
LINE
  5
179
  8
1
 62
     7
 10
-1188.893136259949
 20
-664.69057330381554
 30
0.0
 11
-1188.893136259949
 21
-675.04318406756067
 31
0.0
  0
LINE
  5
17A
  8
1
 62
     7
 10
-1188.893136259949
 20
-793.39579483130581
 30
0.0
 11
-1188.893136259949
 21
-787.04318406756045
 31
0.0
  0
LINE
  5
17B
  8
1
 62
     7
 10
-1188.3931362599501
 20
-793.39579483130581
 30
0.0
 11
-1184.393136259949
 21
-793.39579483130581
 31
0.0
  0
LINE
  5
17C
  8
1
 62
     7
 10
-1183.8931362599501
 20
-799.30028949945972
 30
0.0
 11
-1183.8931362599501
 21
-658.78607863566151
 31
0.0
  0
ARC
  5
17D
  8
1
 62
     7
 10
-1071.79232479336
 20
-783.64526830590421
 30
0.0
 40
3.033837252834501
 50
287.21553299494701
 51
342.7844670050423
  0
ARC
  5
17E
  8
1
 62
     7
 10
-1071.79232479336
 20
-814.44109982921725
 30
0.0
 40
3.0338372528342008
 50
17.215532994957709
 51
72.784467005053045
  0
ARC
  5
17F
  8
1
 62
     7
 10
-1184.893136259949
 20
-721.04318406756067
 30
0.0
 40
1.0
 50
270.0
 51
0.0
  0
ARC
  5
180
  8
1
 62
     7
 10
-1184.893136259949
 20
-737.04318406756067
 30
0.0
 40
1.0
 50
0.0
 51
90.0
  0
ARC
  5
181
  8
1
 62
     7
 10
-909.65056120950396
 20
-729.04318406756067
 30
0.0
 40
15.00000000000005
 50
103.49339882155159
 51
76.506601178448363
  0
ARC
  5
182
  8
1
  6
DASHDOT
 62
     3
 10
-909.65056120950396
 20
-729.04318406756067
 30
0.0
 40
31.000000000000089
 50
16.893466991613749
 51
41.552898025532997
  0
ARC
  5
183
  8
1
  6
DASHDOT
 62
     3
 10
-909.65056120950396
 20
-729.04318406756067
 30
0.0
 40
30.999999999999989
 50
256.89346699161348
 51
281.55289802553301
  0
ARC
  5
184
  8
1
  6
DASHDOT
 62
     3
 10
-909.65056120950396
 20
-729.04318406756067
 30
0.0
 40
31.00000000000005
 50
136.89346699161371
 51
161.55289802553301
  0
ARC
  5
185
  8
1
 62
     7
 10
-883.60902958051213
 20
-741.53792817923488
 30
0.0
 40
1.869999999999977
 50
239.9999999999975
 51
330.00000000000063
  0
ARC
  5
186
  8
1
 62
     7
 10
-879.79851780386059
 20
-743.73792817923493
 30
0.0
 40
1.869999999999977
 50
149.9999999999975
 51
240.0000000000006
  0
ARC
  5
187
  8
1
 62
     7
 10
-881.99851780386064
 20
-747.54843995588647
 30
0.0
 40
1.869999999999977
 50
59.999999999997527
 51
150.0000000000004
  0
ARC
  5
188
  8
1
 62
     7
 10
-885.80902958051229
 20
-745.34843995588642
 30
0.0
 40
1.869999999999977
 50
329.99999999999739
 51
60.00000000000054
  0
ARC
  5
189
  8
1
 62
     7
 10
-933.49209283849575
 20
-745.34843995588642
 30
0.0
 40
1.8700000000000769
 50
120.0000000000007
 51
210.00000000000071
  0
ARC
  5
18A
  8
1
 62
     7
 10
-937.3026046151474
 20
-747.54843995588647
 30
0.0
 40
1.870000000000019
 50
29.999999999997719
 51
119.9999999999977
  0
ARC
  5
18B
  8
1
 62
     7
 10
-939.50260461514745
 20
-743.73792817923481
 30
0.0
 40
1.8700000000000769
 50
300.00000000000068
 51
29.999999999997719
  0
ARC
  5
18C
  8
1
 62
     7
 10
-935.6920928384958
 20
-741.53792817923465
 30
0.0
 40
1.8700000000000769
 50
210.00000000000071
 51
299.99999999999761
  0
ARC
  5
18D
  8
1
 62
     7
 10
-911.85056120950378
 20
-700.24318406756061
 30
0.0
 40
1.8700000000000041
 50
0.0
 51
90.0
  0
ARC
  5
18E
  8
1
 62
     7
 10
-911.85056120950378
 20
-695.84318406756063
 30
0.0
 40
1.8700000000000041
 50
270.0
 51
0.0
  0
ARC
  5
18F
  8
1
 62
     7
 10
-907.45056120950392
 20
-695.84318406756063
 30
0.0
 40
1.8700000000000041
 50
180.0
 51
270.0
  0
ARC
  5
190
  8
1
 62
     7
 10
-907.45056120950392
 20
-700.24318406756061
 30
0.0
 40
1.8700000000000041
 50
90.0
 51
180.0
  0
ARC
  5
191
  8
1
 62
     7
 10
-909.65056120950396
 20
-729.04318406756067
 30
0.0
 40
64.000000000000455
 50
197.2842797452783
 51
252.71572025472159
  0
ARC
  5
192
  8
1
 62
     7
 10
-909.65056120950396
 20
-729.04318406756067
 30
0.0
 40
64.000000000000156
 50
287.28427974527852
 51
342.71572025472142
  0
ARC
  5
193
  8
1
 62
     7
 10
-909.65056120950396
 20
-729.04318406756067
 30
0.0
 40
64.000000000000185
 50
17.284279745278329
 51
72.715720254721418
  0
ARC
  5
194
  8
1
 62
     7
 10
-909.65056120950396
 20
-729.04318406756067
 30
0.0
 40
63.999999999999993
 50
107.2842797452784
 51
162.7157202547215
  0
ARC
  5
195
  8
1
 62
     7
 10
-834.19567454859975
 20
-705.56431295591085
 30
0.0
 40
15.02339722947449
 50
197.2842797452783
 51
225.9242226727813
  0
ARC
  5
196
  8
1
 62
     7
 10
-852.65056120950373
 20
-729.04318406756067
 30
0.0
 40
15.00000000000008
 50
302.25115877373139
 51
57.74884122626861
  0
ARC
  5
197
  8
1
 62
     7
 10
-834.19567454859975
 20
-752.52205517921084
 30
0.0
 40
15.023397229474361
 50
134.0757773272185
 51
162.71572025472139
  0
ARC
  5
198
  8
1
 62
     7
 10
-886.17169009785414
 20
-804.49807072846465
 30
0.0
 40
15.023397229474419
 50
107.2842797452776
 51
135.9242226727811
  0
ARC
  5
199
  8
1
 62
     7
 10
-909.65056120950396
 20
-786.04318406756056
 30
0.0
 40
15.00000000000011
 50
212.25115877373079
 51
327.74884122626861
  0
ARC
  5
19A
  8
1
 62
     7
 10
-933.12943232115367
 20
-804.49807072846465
 30
0.0
 40
15.02339722947427
 50
44.075777327219527
 51
72.715720254721703
  0
ARC
  5
19B
  8
1
 62
     7
 10
-985.1054478704076
 20
-752.52205517921061
 30
0.0
 40
15.02339722947405
 50
17.284279745278969
 51
45.924222672780772
  0
ARC
  5
19C
  8
1
 62
     7
 10
-966.65056120950396
 20
-729.04318406756067
 30
0.0
 40
14.999999999999959
 50
122.25115877373059
 51
237.74884122626929
  0
ARC
  5
19D
  8
1
 62
     7
 10
-985.1054478704076
 20
-705.56431295591085
 30
0.0
 40
15.02339722947452
 50
314.07577732721938
 51
342.71572025472108
  0
ARC
  5
19E
  8
1
 62
     7
 10
-886.17169009785368
 20
-653.58829740665658
 30
0.0
 40
15.02339722947444
 50
224.07577732721879
 51
252.71572025472139
  0
ARC
  5
19F
  8
1
 62
     7
 10
-909.65056120950396
 20
-672.04318406756056
 30
0.0
 40
15.00000000000011
 50
32.251158773730779
 51
147.74884122626929
  0
ARC
  5
1A0
  8
1
 62
     7
 10
-933.12943232115367
 20
-653.58829740665658
 30
0.0
 40
15.02339722947449
 50
287.2842797452783
 51
315.9242226727805
  0
ARC
  5
1A1
  8
1
 62
     7
 10
-892.30968518763495
 20
-664.32615370619305
 30
0.0
 40
4.0
 50
180.0
 51
185.22717432092841
  0
ARC
  5
1A2
  8
1
 62
     7
 10
-892.30968518763495
 20
-664.32615370619305
 30
0.0
 40
4.0000000000000044
 50
295.26531800623582
 51
180.0
  0
ARC
  5
1A3
  8
1
 62
     7
 10
-862.27440687000455
 20
-681.66702972806172
 30
0.0
 40
4.0000000000000888
 50
149.99999999999889
 51
184.7346819937753
  0
ARC
  5
1A4
  8
1
 62
     7
 10
-862.27440687000455
 20
-681.66702972806172
 30
0.0
 40
4.0000000000000817
 50
265.2653180062249
 51
149.99999999999889
  0
ARC
  5
1A5
  8
1
 62
     7
 10
-844.93353084813566
 20
-711.70230804569178
 30
0.0
 40
3.999999999999948
 50
264.77282567906332
 51
119.9999999999997
  0
ARC
  5
1A6
  8
1
 62
     7
 10
-844.93353084813566
 20
-711.70230804569178
 30
0.0
 40
4.0000000000000329
 50
119.9999999999997
 51
149.5634180947921
  0
ARC
  5
1A7
  8
1
 62
     7
 10
-844.93353084813566
 20
-746.38406008942991
 30
0.0
 40
3.9999999999998859
 50
90.0
 51
95.227174320939923
  0
ARC
  5
1A8
  8
1
 62
     7
 10
-844.93353084813566
 20
-746.38406008942991
 30
0.0
 40
3.9999999999999258
 50
205.265318006222
 51
90.0
  0
ARC
  5
1A9
  8
1
 62
     7
 10
-862.27440687000501
 20
-776.41933840705985
 30
0.0
 40
3.9999999999998361
 50
59.999999999998643
 51
94.734681993772028
  0
ARC
  5
1AA
  8
1
 62
     7
 10
-862.27440687000501
 20
-776.41933840705985
 30
0.0
 40
3.9999999999998561
 50
175.26531800622459
 51
59.999999999998643
  0
ARC
  5
1AB
  8
1
 62
     7
 10
-892.30968518763495
 20
-793.76021442892863
 30
0.0
 40
4.0000000000001634
 50
174.77282567906531
 51
30.00000000000054
  0
ARC
  5
1AC
  8
1
 62
     7
 10
-892.30968518763495
 20
-793.76021442892863
 30
0.0
 40
3.9999999999999352
 50
30.00000000000054
 51
68.90501109105368
  0
ARC
  5
1AD
  8
1
 62
     7
 10
-926.99143723137297
 20
-793.76021442892852
 30
0.0
 40
4.0000000000000604
 50
121.0080223677476
 51
0.0
  0
ARC
  5
1AE
  8
1
 62
     7
 10
-957.02671554900269
 20
-776.41933840705917
 30
0.0
 40
4.0000000000000728
 50
330.0000000000025
 51
4.7346819937650233
  0
ARC
  5
1AF
  8
1
 62
     7
 10
-957.02671554900269
 20
-776.41933840705917
 30
0.0
 40
4.0000000000000258
 50
85.265318006234565
 51
330.0000000000025
  0
ARC
  5
1B0
  8
1
 62
     7
 10
-974.36759157087204
 20
-746.38406008942945
 30
0.0
 40
4.0000000000001306
 50
299.99999999999892
 51
339.41381313052602
  0
ARC
  5
1B1
  8
1
 62
     7
 10
-974.36759157087204
 20
-746.38406008942945
 30
0.0
 40
4.000000000000111
 50
80.506394255825015
 51
299.99999999999892
  0
ARC
  5
1B2
  8
1
 62
     7
 10
-974.36759157087351
 20
-711.70230804569167
 30
0.0
 40
4.0
 50
270.0
 51
275.22717432096277
  0
ARC
  5
1B3
  8
1
 62
     7
 10
-974.36759157087204
 20
-711.70230804569167
 30
0.0
 40
4.0000000000000906
 50
22.49750096326121
 51
270.0
  0
ARC
  5
1B4
  8
1
 62
     7
 10
-957.02671554900269
 20
-681.66702972806172
 30
0.0
 40
3.9999999999997802
 50
239.99999999999989
 51
274.73468199376538
  0
ARC
  5
1B5
  8
1
 62
     7
 10
-957.02671554900269
 20
-681.66702972806172
 30
0.0
 40
3.9999999999998082
 50
355.26531800623269
 51
239.99999999999989
  0
ARC
  5
1B6
  8
1
 62
     7
 10
-926.99143723137297
 20
-664.32615370619305
 30
0.0
 40
3.9999999999998961
 50
354.77282567907127
 51
210.0000000000004
  0
ARC
  5
1B7
  8
1
 62
     7
 10
-926.99143723137297
 20
-664.32615370619305
 30
0.0
 40
3.9999999999999352
 50
210.0000000000004
 51
247.8922076166746
  0
ARC
  5
1B8
  8
1
 62
     7
 10
-1059.8944090317029
 20
-676.04318406756056
 30
0.0
 40
1.0
 50
0.0
 51
90.0
  0
ARC
  5
1B9
  8
1
 62
     7
 10
-1059.8944090317029
 20
-782.0431840675609
 30
0.0
 40
1.0
 50
270.0
 51
0.0
  0
ARC
  5
1BA
  8
1
 62
     7
 10
-1073.2379625420431
 20
-796.09049774201446
 30
0.0
 40
3.5746153000599601
 50
304.30845462059108
 51
58.48322685867241
  0
ARC
  5
1BB
  8
1
 62
     7
 10
-1073.405196086321
 20
-807.47333621281075
 30
0.0
 40
3.596013098522068
 50
301.38568480336301
 51
54.570907738955789
  0
ARC
  5
1BC
  8
1
 62
     7
 10
-1185.571884278598
 20
-658.72311253047712
 30
0.0
 40
1.6799284629162721
 50
357.85196964707768
 51
90.0
  0
ARC
  5
1BD
  8
1
 62
     7
 10
-1188.893136259949
 20
-676.04318406756056
 30
0.0
 40
1.0
 50
0.0
 51
90.0
  0
ARC
  5
1BE
  8
1
 62
     7
 10
-1185.571884278598
 20
-799.36325560464411
 30
0.0
 40
1.679928462916449
 50
270.0
 51
2.1480303529222509
  0
ARC
  5
1BF
  8
1
 62
     7
 10
-1188.893136259949
 20
-782.04318406756045
 30
0.0
 40
1.0
 50
270.0
 51
0.0
  0
CIRCLE
  5
1C0
  8
1
 62
     7
 10
-936.49734872682154
 20
-713.54318406756056
 30
0.0
 40
4.0
  0
CIRCLE
  5
1C1
  8
1
 62
     7
 10
-882.80377369218638
 20
-713.54318406756056
 30
0.0
 40
4.0
  0
CIRCLE
  5
1C2
  8
1
 62
     7
 10
-909.65056120950396
 20
-760.04318406756056
 30
0.0
 40
4.0
  0
CIRCLE
  5
1C3
  8
1
 62
     7
 10
-909.65056120950396
 20
-729.04318406756067
 30
0.0
 40
25.0
  0
CIRCLE
  5
1C4
  8
1
 62
     7
 10
-909.65056120950396
 20
-729.04318406756067
 30
0.0
 40
48.5
  0
CIRCLE
  5
1C5
  8
1
 62
     7
 10
-882.80377369218638
 20
-744.54318406756056
 30
0.0
 40
4.0
  0
CIRCLE
  5
1C6
  8
1
 62
     7
 10
-936.49734872682154
 20
-744.54318406756056
 30
0.0
 40
3.9999999999998859
  0
CIRCLE
  5
1C7
  8
1
 62
     7
 10
-909.65056120950396
 20
-698.04318406756056
 30
0.0
 40
4.0
  0
CIRCLE
  5
1C8
  8
1
 62
     3
 10
-936.49734872682154
 20
-713.54318406756056
 30
0.0
 40
3.0
  0
CIRCLE
  5
1C9
  8
1
 62
     7
 10
-936.49734872682154
 20
-713.54318406756056
 30
0.0
 40
2.3999999999999768
  0
CIRCLE
  5
1CA
  8
1
 62
     3
 10
-882.80377369218638
 20
-713.54318406756056
 30
0.0
 40
3.0
  0
CIRCLE
  5
1CB
  8
1
 62
     7
 10
-882.80377369218638
 20
-713.54318406756056
 30
0.0
 40
2.3999999999999768
  0
CIRCLE
  5
1CC
  8
1
 62
     3
 10
-909.65056120950396
 20
-760.04318406756056
 30
0.0
 40
3.0
  0
CIRCLE
  5
1CD
  8
1
 62
     7
 10
-909.65056120950396
 20
-760.04318406756056
 30
0.0
 40
2.3999999999999768
  0
CIRCLE
  5
1CE
  8
1
 62
     7
 10
-909.65056120950396
 20
-729.04318406756067
 30
0.0
 40
60.0
  0
CIRCLE
  5
1CF
  8
1
 62
     7
 10
-844.65056120950373
 20
-729.04318406756067
 30
0.0
 40
4.0
  0
CIRCLE
  5
1D0
  8
1
 62
     7
 10
-844.65056120950373
 20
-729.04318406756067
 30
0.0
 40
3.0
  0
CIRCLE
  5
1D1
  8
1
 62
     7
 10
-909.65056120950396
 20
-794.04318406756056
 30
0.0
 40
4.0
  0
CIRCLE
  5
1D2
  8
1
 62
     7
 10
-909.65056120950396
 20
-794.04318406756056
 30
0.0
 40
3.0
  0
CIRCLE
  5
1D3
  8
1
 62
     7
 10
-974.65056120950396
 20
-729.04318406756067
 30
0.0
 40
4.0
  0
CIRCLE
  5
1D4
  8
1
 62
     7
 10
-974.65056120950396
 20
-729.04318406756067
 30
0.0
 40
3.0
  0
CIRCLE
  5
1D5
  8
1
 62
     7
 10
-909.65056120950396
 20
-664.04318406756056
 30
0.0
 40
3.0
  0
CIRCLE
  5
1D6
  8
1
 62
     7
 10
-909.65056120950396
 20
-664.04318406756056
 30
0.0
 40
4.0
  0
CIRCLE
  5
1D7
  8
1
 62
     7
 10
-909.65056120950396
 20
-729.04318406756067
 30
0.0
 40
72.0
  0
CIRCLE
  5
1D8
  8
1
 62
     7
 10
-892.30968518763495
 20
-664.32615370619305
 30
0.0
 40
2.5999999999999091
  0
CIRCLE
  5
1D9
  8
1
 62
     7
 10
-926.99143723137297
 20
-664.32615370619305
 30
0.0
 40
2.5999999999993402
  0
CIRCLE
  5
1DA
  8
1
 62
     7
 10
-957.02671554900269
 20
-681.66702972806172
 30
0.0
 40
2.5999999999999091
  0
CIRCLE
  5
1DB
  8
1
 62
     7
 10
-974.36759157087204
 20
-711.70230804569167
 30
0.0
 40
2.6000000000000218
  0
CIRCLE
  5
1DC
  8
1
 62
     7
 10
-974.36759157087204
 20
-746.38406008942945
 30
0.0
 40
2.6000000000000218
  0
CIRCLE
  5
1DD
  8
1
 62
     7
 10
-957.02671554900269
 20
-776.41933840705917
 30
0.0
 40
2.6000000000003638
  0
CIRCLE
  5
1DE
  8
1
 62
     7
 10
-926.99143723137297
 20
-793.76021442892852
 30
0.0
 40
2.6000000000001351
  0
CIRCLE
  5
1DF
  8
1
 62
     7
 10
-892.30968518763495
 20
-793.76021442892863
 30
0.0
 40
2.6000000000000218
  0
CIRCLE
  5
1E0
  8
1
 62
     7
 10
-862.27440687000501
 20
-776.41933840705985
 30
0.0
 40
2.5999999999999091
  0
CIRCLE
  5
1E1
  8
1
 62
     7
 10
-844.93353084813566
 20
-746.38406008942991
 30
0.0
 40
2.6000000000000218
  0
CIRCLE
  5
1E2
  8
1
 62
     7
 10
-844.93353084813566
 20
-711.70230804569178
 30
0.0
 40
2.6000000000000218
  0
CIRCLE
  5
1E3
  8
1
 62
     7
 10
-862.27440687000455
 20
-681.66702972806172
 30
0.0
 40
2.6000000000000218
  0
CIRCLE
  5
1E4
  8
1
 62
     7
 10
-909.65056120950396
 20
-729.04318406756067
 30
0.0
 40
87.5
  0
CIRCLE
  5
1E5
  8
1
 62
     7
 10
-909.65056120950396
 20
-729.04318406756067
 30
0.0
 40
85.5
  0
ARC
  5
1E6
  8
1
 62
     7
 10
-1200.791052021606
 20
-814.44109982921725
 30
0.0
 40
0.999999999999
 50
12.972239886198061
 51
77.027760113872233
  0
ARC
  5
1E7
  8
1
 62
     7
 10
-1199.8931362599501
 20
-810.54318406756079
 30
0.0
 40
3.0
 50
180.0
 51
257.0277601138045
  0
ARC
  5
1E8
  8
1
 62
     7
 10
-1196.893136259949
 20
-813.5431840675609
 30
0.0
 40
3.000000000000544
 50
192.97223988618251
 51
270.0
  0
ARC
  5
1E9
  8
1
 62
     7
 10
-1200.791052021606
 20
-643.64526830590421
 30
0.0
 40
0.9999999999997671
 50
282.97223988612762
 51
347.027760113802
  0
ARC
  5
1EA
  8
1
 62
     7
 10
-1199.8931362599501
 20
-647.54318406756056
 30
0.0
 40
3.0000000000001181
 50
102.9722398861955
 51
180.0
  0
ARC
  5
1EB
  8
1
 62
     7
 10
-1196.893136259949
 20
-644.54318406756056
 30
0.0
 40
3.0
 50
90.0
 51
167.02776011381761
  0
ARC
  5
1EC
  8
1
 62
     7
 10
-1061.594409031703
 20
-780.46818406756108
 30
0.0
 40
3.2000000000001578
 50
90.0
 51
180.0
  0
ARC
  5
1ED
  8
1
 62
     7
 10
-1061.594409031703
 20
-780.46818406756108
 30
0.0
 40
2.0
 50
90.0
 51
180.0
  0
ARC
  5
1EE
  8
1
 62
     7
 10
-1066.7944090317039
 20
-783.34318406756063
 30
0.0
 40
3.2000000000000459
 50
270.0
 51
0.0
  0
ARC
  5
1EF
  8
1
 62
     7
 10
-1066.7944090317039
 20
-783.34318406756063
 30
0.0
 40
2.0
 50
270.0
 51
0.0
  0
ARC
  5
1F0
  8
1
 62
     7
 10
-1061.594409031703
 20
-677.61818406756049
 30
0.0
 40
3.2000000000000459
 50
180.0
 51
270.0
  0
ARC
  5
1F1
  8
1
 62
     7
 10
-1061.594409031703
 20
-677.61818406756049
 30
0.0
 40
2.0
 50
180.0
 51
270.0
  0
ARC
  5
1F2
  8
1
 62
     7
 10
-1066.7944090317039
 20
-674.74318406756072
 30
0.0
 40
3.2000000000000459
 50
0.0
 51
90.0
  0
ARC
  5
1F3
  8
1
 62
     7
 10
-1066.7944090317039
 20
-674.74318406756072
 30
0.0
 40
2.0
 50
0.0
 51
90.0
  0
ARC
  5
1F4
  8
1
 62
     7
 10
-1070.8944090317029
 20
-787.54318406756067
 30
0.0
 40
1.0
 50
90.0
 51
180.0
  0
ARC
  5
1F5
  8
1
 62
     7
 10
-1071.79232479336
 20
-783.64526830590421
 30
0.0
 40
0.9999999999999715
 50
282.97223988617861
 51
347.02776011381371
  0
ARC
  5
1F6
  8
1
 62
     7
 10
-1070.8944090317029
 20
-787.54318406756067
 30
0.0
 40
2.9999999999999138
 50
102.9722398861785
 51
180.0
  0
ARC
  5
1F7
  8
1
 62
     7
 10
-1067.8944090317029
 20
-784.54318406756056
 30
0.0
 40
3.0
 50
90.0
 51
167.0277601138136
  0
ARC
  5
1F8
  8
1
 62
     7
 10
-1067.8944090317029
 20
-784.54318406756056
 30
0.0
 40
1.0
 50
90.0
 51
180.0
  0
ARC
  5
1F9
  8
1
 62
     7
 10
-1070.8944090317029
 20
-810.54318406756079
 30
0.0
 40
1.0
 50
180.0
 51
270.0
  0
ARC
  5
1FA
  8
1
 62
     7
 10
-1071.79232479336
 20
-814.44109982921725
 30
0.0
 40
0.9999999999998861
 50
12.972239886186349
 51
77.027760113821444
  0
ARC
  5
1FB
  8
1
 62
     7
 10
-1070.8944090317029
 20
-810.54318406756079
 30
0.0
 40
3.0
 50
180.0
 51
257.02776011382127
  0
ARC
  5
1FC
  8
1
 62
     7
 10
-1067.8944090317029
 20
-813.5431840675609
 30
0.0
 40
2.9999999999996581
 50
192.9722398861864
 51
270.0
  0
ARC
  5
1FD
  8
1
 62
     7
 10
-1067.8944090317029
 20
-813.5431840675609
 30
0.0
 40
1.0
 50
180.0
 51
270.0
  0
ARC
  5
1FE
  8
1
 62
     7
 10
-1056.8944090317041
 20
-659.04318406756067
 30
0.0
 40
2.0
 50
0.0
 51
90.0
  0
ARC
  5
1FF
  8
1
 62
     7
 10
-1071.79232479336
 20
-674.44109982921702
 30
0.0
 40
0.9999999999998861
 50
12.972239886186349
 51
77.027760113821444
  0
ARC
  5
200
  8
1
 62
     7
 10
-1070.8944090317029
 20
-670.54318406756067
 30
0.0
 40
3.0
 50
180.0
 51
257.02776011382127
  0
ARC
  5
201
  8
1
 62
     7
 10
-1067.8944090317029
 20
-673.54318406756056
 30
0.0
 40
2.9999999999996581
 50
192.9722398861864
 51
270.0
  0
ARC
  5
202
  8
1
 62
     7
 10
-1067.8944090317029
 20
-673.54318406756056
 30
0.0
 40
1.0
 50
180.0
 51
270.0
  0
ARC
  5
203
  8
1
 62
     7
 10
-1071.79232479336
 20
-643.64526830590421
 30
0.0
 40
0.9999999999999715
 50
282.97223988617861
 51
347.02776011381371
  0
ARC
  5
204
  8
1
 62
     7
 10
-1070.8944090317029
 20
-647.54318406756056
 30
0.0
 40
2.9999999999999138
 50
102.9722398861785
 51
180.0
  0
ARC
  5
205
  8
1
 62
     7
 10
-1067.8944090317029
 20
-644.54318406756056
 30
0.0
 40
3.0
 50
90.0
 51
167.0277601138136
  0
ARC
  5
206
  8
1
 62
     7
 10
-1067.8944090317029
 20
-644.54318406756056
 30
0.0
 40
1.0
 50
90.0
 51
180.0
  0
TEXT
  5
208
  8
1
 62
     7
 10
-1240.9603659021391
 20
-572.72565295790901
 30
0.0
 40
6.0
  1
MSB 10
 41
0.9
  7
SIMPLEX
  0
ENDSEC
  0
EOF
