  0
SECTION
  2
HEADER
  9
$ACADVER
  1
AC1009
  9
$INSBASE
 10
0.0
 20
0.0
 30
0.0
  9
$EXTMIN
 10
-5.0
 20
-190.6213203435596
 30
0.0
  9
$EXTMAX
 10
935.21741579264824
 20
356.4225520120799
 30
0.0
  9
$LIMMIN
 10
-5.0
 20
-190.1999999999999
  9
$LIMMAX
 10
935.21741579264835
 20
356.42255201208002
  9
$ORTHOMODE
 70
     0
  9
$REGENMODE
 70
     1
  9
$FILLMODE
 70
     1
  9
$QTEXTMODE
 70
     0
  9
$MIRRTEXT
 70
     1
  9
$DRAGMODE
 70
     2
  9
$LTSCALE
 40
1.0
  9
$OSMODE
 70
    37
  9
$ATTMODE
 70
     1
  9
$TEXTSIZE
 40
3.5
  9
$TRACEWID
 40
0.5
  9
$TEXTSTYLE
  7
STANDARD
  9
$CLAYER
  8
0
  9
$CELTYPE
  6
BYLAYER
  9
$CECOLOR
 62
   256
  9
$DIMSCALE
 40
1.0
  9
$DIMASZ
 40
0.18
  9
$DIMEXO
 40
0.0625
  9
$DIMDLI
 40
0.38
  9
$DIMRND
 40
0.0
  9
$DIMDLE
 40
0.0
  9
$DIMEXE
 40
0.18
  9
$DIMTP
 40
0.0
  9
$DIMTM
 40
0.0
  9
$DIMTXT
 40
0.18
  9
$DIMCEN
 40
0.09
  9
$DIMTSZ
 40
0.0
  9
$DIMTOL
 70
     0
  9
$DIMLIM
 70
     0
  9
$DIMTIH
 70
     1
  9
$DIMTOH
 70
     1
  9
$DIMSE1
 70
     0
  9
$DIMSE2
 70
     0
  9
$DIMTAD
 70
     0
  9
$DIMZIN
 70
     0
  9
$DIMBLK
  1

  9
$DIMASO
 70
     1
  9
$DIMSHO
 70
     1
  9
$DIMPOST
  1

  9
$DIMAPOST
  1

  9
$DIMALT
 70
     0
  9
$DIMALTD
 70
     2
  9
$DIMALTF
 40
25.399999999999999
  9
$DIMLFAC
 40
1.0
  9
$DIMTOFL
 70
     0
  9
$DIMTVP
 40
0.0
  9
$DIMTIX
 70
     0
  9
$DIMSOXD
 70
     0
  9
$DIMSAH
 70
     0
  9
$DIMBLK1
  1

  9
$DIMBLK2
  1

  9
$DIMSTYLE
  2
STANDARD
  9
$DIMCLRD
 70
     0
  9
$DIMCLRE
 70
     0
  9
$DIMCLRT
 70
     0
  9
$DIMTFAC
 40
1.0
  9
$DIMGAP
 40
0.09
  9
$LUNITS
 70
     2
  9
$LUPREC
 70
     4
  9
$SKETCHINC
 40
0.1
  9
$FILLETRAD
 40
2.0
  9
$AUNITS
 70
     0
  9
$AUPREC
 70
     0
  9
$MENU
  1
ACAD
  9
$ELEVATION
 40
0.0
  9
$PELEVATION
 40
0.0
  9
$THICKNESS
 40
0.0
  9
$LIMCHECK
 70
     0
  9
$BLIPMODE
 70
     0
  9
$CHAMFERA
 40
0.0
  9
$CHAMFERB
 40
0.0
  9
$SKPOLY
 70
     0
  9
$TDCREATE
 40
2452094.7594479169
  9
$TDUPDATE
 40
2452094.7615342592
  9
$TDINDWG
 40
0.0020895833
  9
$TDUSRTIMER
 40
0.0020895833
  9
$USRTIMER
 70
     1
  9
$ANGBASE
 50
0.0
  9
$ANGDIR
 70
     0
  9
$PDMODE
 70
     0
  9
$PDSIZE
 40
0.0
  9
$PLINEWID
 40
0.0
  9
$COORDS
 70
     1
  9
$SPLFRAME
 70
     0
  9
$SPLINETYPE
 70
     6
  9
$SPLINESEGS
 70
     8
  9
$ATTDIA
 70
     0
  9
$ATTREQ
 70
     1
  9
$HANDLING
 70
 10241
  9
$HANDSEED
  5
237
  9
$SURFTAB1
 70
     6
  9
$SURFTAB2
 70
     6
  9
$SURFTYPE
 70
     6
  9
$SURFU
 70
     6
  9
$SURFV
 70
     6
  9
$UCSNAME
  2

  9
$UCSORG
 10
0.0
 20
0.0
 30
0.0
  9
$UCSXDIR
 10
1.0
 20
0.0
 30
0.0
  9
$UCSYDIR
 10
0.0
 20
1.0
 30
0.0
  9
$PUCSNAME
  2

  9
$PUCSORG
 10
0.0
 20
0.0
 30
0.0
  9
$PUCSXDIR
 10
1.0
 20
0.0
 30
0.0
  9
$PUCSYDIR
 10
0.0
 20
1.0
 30
0.0
  9
$USERI1
 70
     0
  9
$USERI2
 70
     0
  9
$USERI3
 70
     0
  9
$USERI4
 70
     0
  9
$USERI5
 70
     0
  9
$USERR1
 40
0.0
  9
$USERR2
 40
0.0
  9
$USERR3
 40
0.0
  9
$USERR4
 40
0.0
  9
$USERR5
 40
0.0
  9
$WORLDVIEW
 70
     1
  9
$SHADEDGE
 70
     3
  9
$SHADEDIF
 70
    70
  9
$TILEMODE
 70
     1
  9
$MAXACTVP
 70
    64
  9
$PLIMCHECK
 70
     0
  9
$PEXTMIN
 10
1.0000000000000000E+020
 20
1.0000000000000000E+020
 30
1.0000000000000000E+020
  9
$PEXTMAX
 10
-1.0000000000000000E+020
 20
-1.0000000000000000E+020
 30
-1.0000000000000000E+020
  9
$PLIMMIN
 10
0.0
 20
0.0
  9
$PLIMMAX
 10
12.0
 20
9.0
  9
$UNITMODE
 70
     0
  9
$VISRETAIN
 70
     1
  9
$PLINEGEN
 70
     0
  9
$PSLTSCALE
 70
     1
  0
ENDSEC
  0
SECTION
  2
TABLES
  0
TABLE
  2
VPORT
 70
     2
  0
VPORT
  2
*ACTIVE
 70
     0
 10
0.0
 20
0.0
 11
1.0
 21
1.0
 12
8.9258256117964265
 22
329.49152698900679
 13
0.0
 23
0.0
 14
1.0
 24
1.0
 15
0.0
 25
0.0
 16
0.0
 26
0.0
 36
1.0
 17
0.0
 27
0.0
 37
0.0
 40
8.9999994988289398
 41
2.418918918918918
 42
50.0
 43
0.0
 44
0.0
 50
0.0
 51
0.0
 71
     0
 72
   100
 73
     1
 74
     1
 75
     0
 76
     0
 77
     0
 78
     0
  0
ENDTAB
  0
TABLE
  2
LTYPE
 70
     9
  0
LTYPE
  2
CONTINUOUS
 70
     0
  3
Solid line
 72
    65
 73
     0
 40
0.0
  0
LTYPE
  2
BORDER
 70
     0
  3
__ __ . __ __ .
 72
    65
 73
     6
 40
43.299486253608798
 49
12.37128178674536
 49
-6.1856408933726836
 49
12.37128178674536
 49
-6.1856408933726836
 49
0.0
 49
-6.1856408933726836
  0
LTYPE
  2
CENTER
 70
     0
  3
____ _ ____ _
 72
    65
 73
     4
 40
49.485127146981469
 49
30.928204466863431
 49
-6.1856408933726836
 49
6.1856408933726836
 49
-6.1856408933726836
  0
LTYPE
  2
DASHDOT
 70
     0
  3
__ . __ . __ .
 72
    65
 73
     4
 40
24.742563573490731
 49
12.37128178674536
 49
-6.1856408933726836
 49
0.0
 49
-6.1856408933726836
  0
LTYPE
  2
DASHED
 70
     0
  3
__ __ __ __ __
 72
    65
 73
     2
 40
18.556922680118049
 49
12.37128178674536
 49
-6.1856408933726836
  0
LTYPE
  2
DIVIDE
 70
     0
  3
__ . . __ . . 
 72
    65
 73
     6
 40
30.928204466863431
 49
12.37128178674536
 49
-6.1856408933726836
 49
0.0
 49
-6.1856408933726836
 49
0.0
 49
-6.1856408933726836
  0
LTYPE
  2
DOT
 70
     0
  3
..............
 72
    65
 73
     4
 40
12.37128178674536
 49
0.0
 49
-6.1856408933726836
 49
0.0
 49
-6.1856408933726836
  0
LTYPE
  2
HIDDEN
 70
     0
  3
_ _ _ _ _ _ _
 72
    65
 73
     2
 40
9.2784613400590281
 49
6.1856408933726836
 49
-3.0928204466863431
  0
LTYPE
  2
PHANTOM
 70
     0
  3
_____ _ _ _____ _ _ 
 72
    65
 73
     6
 40
61.856408933726847
 49
30.928204466863431
 49
-6.1856408933726836
 49
6.1856408933726836
 49
-6.1856408933726836
 49
6.1856408933726836
 49
-6.1856408933726836
  0
ENDTAB
  0
TABLE
  2
LAYER
 70
     2
  0
LAYER
  2
0
 70
     0
 62
     7
  6
CONTINUOUS
  0
LAYER
  2
1
 70
     0
 62
     7
  6
CONTINUOUS
  0
ENDTAB
  0
TABLE
  2
STYLE
 70
     4
  0
STYLE
  2
STANDARD
 70
     0
 40
0.0
 41
1.0
 50
0.0
 71
     0
 42
3.5
  3
txt
  4

  0
STYLE
  2
SIMPLEX
 70
     0
 40
0.0
 41
1.0
 50
0.0
 71
     0
 42
3.5
  3
simplex
  4

  0
STYLE
  2
COMPLEX
 70
     0
 40
0.0
 41
1.0
 50
0.0
 71
     0
 42
3.5
  3
complex
  4

  0
STYLE
  2
ITALIC
 70
     0
 40
0.0
 41
1.0
 50
0.0
 71
     0
 42
3.5
  3
italic
  4

  0
ENDTAB
  0
TABLE
  2
VIEW
 70
     0
  0
ENDTAB
  0
TABLE
  2
UCS
 70
     0
  0
ENDTAB
  0
TABLE
  2
APPID
 70
     1
  0
APPID
  2
ACAD
 70
     0
  0
ENDTAB
  0
TABLE
  2
DIMSTYLE
 70
     1
  0
DIMSTYLE
  2
STANDARD
 70
     0
  3

  4

  5

  6

  7

 40
1.0
 41
0.18
 42
0.0625
 43
0.38
 44
0.18
 45
0.0
 46
0.0
 47
0.0
 48
0.0
140
0.18
141
0.09
142
0.0
143
25.399999999999999
144
1.0
145
0.0
146
1.0
147
0.09
 71
     0
 72
     0
 73
     1
 74
     1
 75
     0
 76
     0
 77
     0
 78
     0
170
     0
171
     2
172
     0
173
     0
174
     0
175
     0
176
     0
177
     0
178
     0
  0
ENDTAB
  0
ENDSEC
  0
SECTION
  2
BLOCKS
  0
BLOCK
  8
0
  2
$MODEL_SPACE
 70
     0
 10
0.0
 20
0.0
 30
0.0
  3
$MODEL_SPACE
  1

  0
ENDBLK
  5
20
  8
0
  0
BLOCK
 67
     1
  8
0
  2
$PAPER_SPACE
 70
     0
 10
0.0
 20
0.0
 30
0.0
  3
$PAPER_SPACE
  1

  0
ENDBLK
  5
1C
 67
     1
  8
0
  0
ENDSEC
  0
SECTION
  2
ENTITIES
  0
LINE
  5
33
  8
1
 62
     7
 10
114.09999999999999
 20
-91.349999999999966
 30
0.0
 11
113.39999999999969
 21
-91.349999999999966
 31
0.0
  0
LINE
  5
34
  8
1
 62
     7
 10
114.09999999999999
 20
0.0
 30
0.0
 11
114.09999999999999
 21
-91.349999999999966
 31
0.0
  0
LINE
  5
35
  8
1
 62
     7
 10
114.09999999999999
 20
91.349999999999966
 30
0.0
 11
114.09999999999999
 21
0.0
 31
0.0
  0
LINE
  5
36
  8
1
 62
     7
 10
113.39999999999969
 20
91.349999999999966
 30
0.0
 11
114.09999999999999
 21
91.349999999999966
 31
0.0
  0
LINE
  5
37
  8
1
 62
     7
 10
113.39999999999969
 20
-102.0307700441676
 30
0.0
 11
109.2715728752535
 21
-106.15919716891371
 31
0.0
  0
LINE
  5
38
  8
1
 62
     7
 10
109.2715728752535
 20
106.15919716891371
 30
0.0
 11
113.39999999999969
 21
102.0307700441676
 31
0.0
  0
LINE
  5
39
  8
1
 62
     7
 10
401.40000000000009
 20
-102.0307700441676
 30
0.0
 11
397.27157287525392
 21
-106.15919716891371
 31
0.0
  0
LINE
  5
3A
  8
1
 62
     7
 10
402.10000000000008
 20
-72.5
 30
0.0
 11
402.10000000000008
 21
-91.350000000000037
 31
0.0
  0
LINE
  5
3B
  8
1
 62
     7
 10
397.27157287525392
 20
106.15919716891371
 30
0.0
 11
401.40000000000009
 21
102.0307700441676
 31
0.0
  0
LINE
  5
3C
  8
1
 62
     7
 10
401.40000000000009
 20
84.299999999999969
 30
0.0
 11
401.40000000000009
 21
102.0307700441676
 31
0.0
  0
LINE
  5
3D
  8
1
 62
     7
 10
402.10000000000008
 20
91.349999999999966
 30
0.0
 11
402.10000000000008
 21
72.5
 31
0.0
  0
LINE
  5
3E
  8
1
 62
     7
 10
785.93873321777482
 20
-71.521390731459292
 30
0.0
 11
786.79609836752149
 21
-71.026390731459287
 31
0.0
  0
LINE
  5
3F
  8
1
 62
     7
 10
781.61203196015947
 20
-69.637324324097392
 30
0.0
 11
782.10703196015959
 21
-70.494689473843991
 31
0.0
  0
LINE
  5
40
  8
1
 62
     7
 10
783.49609836752154
 20
-65.310623066482066
 30
0.0
 11
782.63873321777487
 21
-65.80562306648207
 31
0.0
  0
LINE
  5
41
  8
1
 62
     7
 10
787.82279962513689
 20
-67.194689473843965
 30
0.0
 11
787.32779962513689
 21
-66.337324324097381
 31
0.0
  0
LINE
  5
42
  8
1
 62
     7
 10
703.63873321777487
 20
-71.026390731459145
 30
0.0
 11
704.49609836752165
 21
-71.521390731459164
 31
0.0
  0
LINE
  5
43
  8
1
 62
     7
 10
703.10703196015959
 20
-66.33732432409721
 30
0.0
 11
702.61203196015947
 21
-67.194689473843823
 31
0.0
  0
LINE
  5
44
  8
1
 62
     7
 10
707.79609836752172
 20
-65.805623066481928
 30
0.0
 11
706.93873321777482
 21
-65.310623066481924
 31
0.0
  0
LINE
  5
45
  8
1
 62
     7
 10
708.32779962513689
 20
-70.494689473843835
 30
0.0
 11
708.82279962513689
 21
-69.63732432409725
 31
0.0
  0
LINE
  5
46
  8
1
 62
     7
 10
662.91741579264851
 20
0.4950000000000899
 30
0.0
 11
662.9174157926484
 21
-0.4949999999999193
 31
0.0
  0
LINE
  5
47
  8
1
 62
     7
 10
666.71241579264836
 20
3.3000000000000962
 30
0.0
 11
665.72241579264835
 21
3.3000000000000962
 31
0.0
  0
LINE
  5
48
  8
1
 62
     7
 10
669.51741579264819
 20
-0.4949999999999193
 30
0.0
 11
669.51741579264842
 21
0.4950000000000899
 31
0.0
  0
LINE
  5
49
  8
1
 62
     7
 10
665.72241579264835
 20
-3.2999999999999261
 30
0.0
 11
666.71241579264824
 21
-3.2999999999999261
 31
0.0
  0
LINE
  5
4A
  8
1
 62
     7
 10
704.49609836752165
 20
71.521390731459277
 30
0.0
 11
703.63873321777533
 21
71.026390731459287
 31
0.0
  0
LINE
  5
4B
  8
1
 62
     7
 10
708.82279962513712
 20
69.637324324097392
 30
0.0
 11
708.32779962513723
 21
70.494689473843991
 31
0.0
  0
LINE
  5
4C
  8
1
 62
     7
 10
706.93873321777517
 20
65.310623066482066
 30
0.0
 11
707.79609836752184
 21
65.80562306648207
 31
0.0
  0
LINE
  5
4D
  8
1
 62
     7
 10
702.61203196015981
 20
67.194689473843965
 30
0.0
 11
703.10703196015982
 21
66.337324324097366
 31
0.0
  0
LINE
  5
4E
  8
1
 62
     7
 10
786.79609836752172
 20
71.02639073145923
 30
0.0
 11
785.93873321777505
 21
71.521390731459235
 31
0.0
  0
LINE
  5
4F
  8
1
 62
     7
 10
787.327799625137
 20
66.33732432409731
 30
0.0
 11
787.82279962513701
 21
67.194689473843908
 31
0.0
  0
LINE
  5
50
  8
1
 62
     7
 10
782.6387332177751
 20
65.805623066482013
 30
0.0
 11
783.49609836752165
 21
65.310623066482009
 31
0.0
  0
LINE
  5
51
  8
1
 62
     7
 10
782.10703196015982
 20
70.49468947384392
 30
0.0
 11
781.61203196015981
 21
69.637324324097321
 31
0.0
  0
LINE
  5
52
  8
1
 62
     7
 10
827.51741579264819
 20
-0.4950000000000045
 30
0.0
 11
827.51741579264819
 21
0.4950000000000045
 31
0.0
  0
LINE
  5
53
  8
1
 62
     7
 10
823.72241579264835
 20
-3.3000000000000109
 30
0.0
 11
824.71241579264824
 21
-3.3000000000000109
 31
0.0
  0
LINE
  5
54
  8
1
 62
     7
 10
820.91741579264828
 20
0.4950000000000045
 30
0.0
 11
820.91741579264828
 21
-0.4950000000000045
 31
0.0
  0
LINE
  5
55
  8
1
 62
     7
 10
824.71241579264824
 20
3.3000000000000109
 30
0.0
 11
823.72241579264835
 21
3.3000000000000109
 31
0.0
  0
LINE
  5
56
  8
1
 62
     7
 10
736.21741579264835
 20
40.999999999999993
 30
0.0
 11
736.21741579264835
 21
33.823069050575512
 31
0.0
  0
LINE
  5
57
  8
1
 62
     7
 10
754.21741579264835
 20
40.999999999999993
 30
0.0
 11
736.21741579264835
 21
40.999999999999993
 31
0.0
  0
LINE
  5
58
  8
1
 62
     7
 10
754.21741579264835
 20
33.823069050575512
 30
0.0
 11
754.21741579264835
 21
40.999999999999993
 31
0.0
  0
LINE
  5
59
  8
1
  6
DASHDOT
 62
     3
 10
405.00000000000011
 20
0.0
 30
0.0
 11
410.83509905592609
 21
0.0
 31
0.0
  0
LINE
  5
5A
  8
1
 62
     7
 10
92.590419323828598
 20
-107.4999999999999
 30
0.0
 11
94.099999999999923
 21
-107.4999999999999
 31
0.0
  0
LINE
  5
5B
  8
1
 62
     7
 10
93.299999999999883
 20
-102.4778931105633
 30
0.0
 11
93.299999999999883
 21
-71.000000000000099
 31
0.0
  0
LINE
  5
5C
  8
1
 62
     7
 10
92.741174090906895
 20
-102.4778931105633
 30
0.0
 11
93.299999999999883
 21
-102.4778931105633
 31
0.0
  0
LINE
  5
5D
  8
1
 62
     7
 10
89.899999999999807
 20
-107.4999999999999
 30
0.0
 11
91.299999999999898
 21
-83.861676174656708
 31
0.0
  0
LINE
  5
5E
  8
1
 62
     7
 10
93.299999999999883
 20
-83.861676174656708
 30
0.0
 11
91.899999999999793
 21
-130.49999999999989
 31
0.0
  0
LINE
  5
5F
  8
1
 62
     7
 10
91.299999999999898
 20
-83.861676174656708
 30
0.0
 11
93.299999999999883
 21
-83.861676174656708
 31
0.0
  0
LINE
  5
60
  8
1
 62
     7
 10
91.299999999999898
 20
-71.000000000000099
 30
0.0
 11
91.299999999999898
 21
-83.861676174656708
 31
0.0
  0
LINE
  5
61
  8
1
 62
     7
 10
91.899999999999864
 20
-48.000000000000107
 30
0.0
 11
94.099999999999923
 21
-47.999999999999901
 31
0.0
  0
LINE
  5
62
  8
1
 62
     7
 10
93.299999999999883
 20
-47.999999999999901
 30
0.0
 11
93.299999999999883
 21
47.999999999999851
 31
0.0
  0
LINE
  5
63
  8
1
 62
     7
 10
93.299999999999883
 20
44.655735593436461
 30
0.0
 11
91.899999999999864
 21
-48.000000000000107
 31
0.0
  0
LINE
  5
64
  8
1
 62
     7
 10
91.299999999999898
 20
44.655735593436461
 30
0.0
 11
89.899999999999892
 21
-48.000000000000107
 31
0.0
  0
LINE
  5
65
  8
1
 62
     7
 10
91.899999999999864
 20
71.000000000000043
 30
0.0
 11
94.099999999999923
 21
71.000000000000043
 31
0.0
  0
LINE
  5
66
  8
1
 62
     7
 10
93.299999999999883
 20
71.000000000000043
 30
0.0
 11
93.299999999999883
 21
128.5395186575299
 31
0.0
  0
LINE
  5
67
  8
1
 62
     7
 10
91.899999999999793
 20
128.5395186575299
 30
0.0
 11
91.899999999999793
 21
130.49999999999989
 31
0.0
  0
LINE
  5
68
  8
1
 62
     7
 10
90.788085288028498
 20
107.4999999999999
 30
0.0
 11
85.299999999999898
 21
107.4999999999999
 31
0.0
  0
LINE
  5
69
  8
1
 62
     7
 10
91.299999999999898
 20
128.5395186575299
 30
0.0
 11
93.299999999999883
 21
128.5395186575299
 31
0.0
  0
LINE
  5
6A
  8
1
 62
     7
 10
91.299999999999898
 20
128.5395186575299
 30
0.0
 11
89.899999999999892
 21
71.000000000000043
 31
0.0
  0
LINE
  5
6B
  8
1
 62
     7
 10
93.299999999999883
 20
128.5395186575299
 30
0.0
 11
91.899999999999864
 21
71.000000000000043
 31
0.0
  0
LINE
  5
6C
  8
1
 62
     7
 10
91.299999999999898
 20
44.655735593436461
 30
0.0
 11
93.299999999999883
 21
44.655735593436461
 31
0.0
  0
LINE
  5
6D
  8
1
 62
     7
 10
97.099999999999923
 20
-130.49999999999989
 30
0.0
 11
97.099999999999923
 21
-74.000000000000099
 31
0.0
  0
LINE
  5
6E
  8
1
 62
     7
 10
106.09999999999989
 20
-130.49999999999989
 30
0.0
 11
85.299999999999898
 21
-130.49999999999989
 31
0.0
  0
LINE
  5
6F
  8
1
 62
     7
 10
85.299999999999898
 20
-107.4999999999999
 30
0.0
 11
89.899999999999807
 21
-107.4999999999999
 31
0.0
  0
LINE
  5
70
  8
1
 62
     7
 10
89.899999999999807
 20
-107.4999999999999
 30
0.0
 11
89.899999999999807
 21
-130.49999999999989
 31
0.0
  0
LINE
  5
71
  8
1
 62
     7
 10
97.099999999999923
 20
44.999999999999858
 30
0.0
 11
97.099999999999923
 21
-44.999999999999908
 31
0.0
  0
LINE
  5
72
  8
1
 62
     7
 10
85.300000000000026
 20
-47.999999999999901
 30
0.0
 11
89.899999999999892
 21
-48.000000000000107
 31
0.0
  0
LINE
  5
73
  8
1
 62
     7
 10
91.899999999999864
 20
-71.000000000000099
 30
0.0
 11
91.899999999999864
 21
-48.000000000000107
 31
0.0
  0
LINE
  5
74
  8
1
 62
     7
 10
94.099999999999923
 20
-71.000000000000099
 30
0.0
 11
85.300000000000026
 21
-71.000000000000099
 31
0.0
  0
LINE
  5
75
  8
1
 62
     7
 10
89.899999999999892
 20
-48.000000000000107
 30
0.0
 11
89.899999999999892
 21
-71.000000000000099
 31
0.0
  0
LINE
  5
76
  8
1
 62
     7
 10
94.099999999999923
 20
47.999999999999858
 30
0.0
 11
85.300000000000026
 21
47.999999999999858
 31
0.0
  0
LINE
  5
77
  8
1
 62
     7
 10
97.099999999999923
 20
74.000000000000043
 30
0.0
 11
97.099999999999923
 21
130.49999999999989
 31
0.0
  0
LINE
  5
78
  8
1
 62
     7
 10
91.899999999999864
 20
48.000000000000028
 30
0.0
 11
91.899999999999864
 21
71.000000000000043
 31
0.0
  0
LINE
  5
79
  8
1
 62
     7
 10
85.300000000000026
 20
71.000000000000043
 30
0.0
 11
89.899999999999892
 21
71.000000000000043
 31
0.0
  0
LINE
  5
7A
  8
1
 62
     7
 10
89.899999999999892
 20
71.000000000000043
 30
0.0
 11
89.899999999999892
 21
48.000000000000028
 31
0.0
  0
LINE
  5
7B
  8
1
 62
     7
 10
365.60000000000008
 20
186.99999999999989
 30
0.0
 11
365.60000000000008
 21
60.0
 31
0.0
  0
LINE
  5
7C
  8
1
 62
     7
 10
370.00000000000011
 20
-89.350000000000023
 30
0.0
 11
370.00000000000011
 21
-60.0
 31
0.0
  0
LINE
  5
7D
  8
1
 62
     7
 10
361.60000000000008
 20
-130.0
 30
0.0
 11
347.80000000000013
 21
-130.0
 31
0.0
  0
LINE
  5
7E
  8
1
 62
     7
 10
378.08582618673302
 20
104.618821315066
 30
0.0
 11
377.90000000000009
 21
107.4999999999999
 31
0.0
  0
LINE
  5
7F
  8
1
 62
     7
 10
379.90000000000009
 20
107.4999999999999
 30
0.0
 11
380.22248292635408
 21
102.4999999999999
 31
0.0
  0
LINE
  5
80
  8
1
 62
     7
 10
381.30000000000013
 20
95.999999999999957
 30
0.0
 11
379.53469788728711
 21
95.999999999999957
 31
0.0
  0
LINE
  5
81
  8
1
 62
     7
 10
381.30000000000013
 20
102.4999999999999
 30
0.0
 11
381.30000000000013
 21
95.999999999999957
 31
0.0
  0
LINE
  5
82
  8
1
 62
     7
 10
379.30000000000013
 20
102.4999999999999
 30
0.0
 11
381.30000000000013
 21
102.4999999999999
 31
0.0
  0
LINE
  5
83
  8
1
 62
     7
 10
381.30000000000013
 20
-96.0
 30
0.0
 11
381.30000000000013
 21
-130.49999999999989
 31
0.0
  0
LINE
  5
84
  8
1
 62
     7
 10
379.53469788728711
 20
-96.0
 30
0.0
 11
381.30000000000013
 21
-96.0
 31
0.0
  0
LINE
  5
85
  8
1
 62
     7
 10
379.30000000000013
 20
-130.49999999999989
 30
0.0
 11
381.30000000000013
 21
-130.49999999999989
 31
0.0
  0
LINE
  5
86
  8
1
 62
     7
 10
388.30000000000013
 20
93.349999999999923
 30
0.0
 11
388.30000000000013
 21
91.349999999999937
 31
0.0
  0
LINE
  5
87
  8
1
 62
     7
 10
383.30000000000013
 20
93.349999999999966
 30
0.0
 11
388.30000000000013
 21
93.349999999999923
 31
0.0
  0
LINE
  5
88
  8
1
 62
     7
 10
379.30000000000013
 20
97.349999999999966
 30
0.0
 11
379.30000000000013
 21
102.4999999999999
 31
0.0
  0
LINE
  5
89
  8
1
 62
     7
 10
373.30000000000013
 20
-91.350000000000037
 30
0.0
 11
373.30000000000013
 21
-190.0
 31
0.0
  0
LINE
  5
8A
  8
1
 62
     7
 10
388.30000000000013
 20
-93.350000000000023
 30
0.0
 11
388.30000000000013
 21
-91.350000000000037
 31
0.0
  0
LINE
  5
8B
  8
1
 62
     7
 10
383.30000000000013
 20
-93.350000000000023
 30
0.0
 11
388.30000000000013
 21
-93.350000000000023
 31
0.0
  0
LINE
  5
8C
  8
1
 62
     7
 10
377.30000000000013
 20
-101.0
 30
0.0
 11
377.30000000000013
 21
-91.350000000000037
 31
0.0
  0
LINE
  5
8D
  8
1
 62
     7
 10
379.30000000000013
 20
-97.350000000000023
 30
0.0
 11
379.30000000000013
 21
-130.49999999999989
 31
0.0
  0
LINE
  5
8E
  8
1
 62
     7
 10
377.30000000000013
 20
101.0
 30
0.0
 11
377.30000000000013
 21
91.349999999999966
 31
0.0
  0
LINE
  5
8F
  8
1
 62
     7
 10
373.30000000000013
 20
91.349999999999966
 30
0.0
 11
373.30000000000013
 21
112.0
 31
0.0
  0
LINE
  5
90
  8
1
 62
     7
 10
389.10000000000008
 20
-91.850000000000023
 30
0.0
 11
401.40000000000009
 21
-91.850000000000023
 31
0.0
  0
LINE
  5
91
  8
1
 62
     7
 10
389.10000000000008
 20
-84.800000000000026
 30
0.0
 11
402.10000000000008
 21
-84.800000000000026
 31
0.0
  0
LINE
  5
92
  8
1
 62
     7
 10
389.10000000000008
 20
-84.300000000000026
 30
0.0
 11
389.10000000000008
 21
-96.0
 31
0.0
  0
LINE
  5
93
  8
1
 62
     7
 10
389.10000000000008
 20
84.799999999999955
 30
0.0
 11
402.10000000000008
 21
84.799999999999955
 31
0.0
  0
LINE
  5
94
  8
1
 62
     7
 10
389.10000000000008
 20
91.849999999999966
 30
0.0
 11
401.40000000000009
 21
91.849999999999966
 31
0.0
  0
LINE
  5
95
  8
1
 62
     7
 10
389.10000000000008
 20
84.299999999999969
 30
0.0
 11
389.10000000000008
 21
95.999999999999957
 31
0.0
  0
LINE
  5
96
  8
1
 62
     7
 10
385.10000000000008
 20
-128.49999999999989
 30
0.0
 11
387.10000000000008
 21
-130.49999999999989
 31
0.0
  0
LINE
  5
97
  8
1
 62
     7
 10
385.10000000000008
 20
-128.49999999999989
 30
0.0
 11
385.10000000000008
 21
-93.350000000000023
 31
0.0
  0
LINE
  5
98
  8
1
 62
     7
 10
387.10000000000008
 20
-98.0
 30
0.0
 11
385.10000000000008
 21
-98.0
 31
0.0
  0
LINE
  5
99
  8
1
 62
     7
 10
394.10000000000008
 20
-130.49999999999989
 30
0.0
 11
396.10000000000008
 21
-128.49999999999989
 31
0.0
  0
LINE
  5
9A
  8
1
 62
     7
 10
396.10000000000008
 20
-128.49999999999989
 30
0.0
 11
396.10000000000008
 21
-108.98762429366001
 31
0.0
  0
LINE
  5
9B
  8
1
 62
     7
 10
394.10000000000008
 20
-130.49999999999989
 30
0.0
 11
387.10000000000008
 21
-130.49999999999989
 31
0.0
  0
LINE
  5
9C
  8
1
 62
     7
 10
385.10000000000008
 20
97.999999999999972
 30
0.0
 11
387.10000000000008
 21
97.999999999999972
 31
0.0
  0
LINE
  5
9D
  8
1
 62
     7
 10
385.10000000000008
 20
104.4999999999999
 30
0.0
 11
385.10000000000008
 21
93.349999999999966
 31
0.0
  0
LINE
  5
9E
  8
1
 62
     7
 10
379.90000000000009
 20
107.4999999999999
 30
0.0
 11
379.90000000000009
 21
112.0
 31
0.0
  0
LINE
  5
9F
  8
1
 62
     7
 10
382.10000000000008
 20
107.4999999999999
 30
0.0
 11
373.30000000000013
 21
107.4999999999999
 31
0.0
  0
LINE
  5
A0
  8
1
 62
     7
 10
396.10000000000008
 20
113.40000000000001
 30
0.0
 11
396.10000000000008
 21
108.98762429366001
 31
0.0
  0
LINE
  5
A1
  8
1
 62
     7
 10
396.10000000000008
 20
128.49999999999989
 30
0.0
 11
394.10000000000008
 21
130.49999999999989
 31
0.0
  0
LINE
  5
A2
  8
1
 62
     7
 10
396.10000000000008
 20
128.49999999999989
 30
0.0
 11
396.10000000000008
 21
124.59999999999989
 31
0.0
  0
LINE
  5
A3
  8
1
 62
     7
 10
379.90000000000009
 20
130.49999999999989
 30
0.0
 11
394.10000000000008
 21
130.49999999999989
 31
0.0
  0
LINE
  5
A4
  8
1
 62
     7
 10
379.90000000000009
 20
130.49999999999989
 30
0.0
 11
379.90000000000009
 21
126.0
 31
0.0
  0
LINE
  5
A5
  8
1
 62
     7
 10
379.90000000000009
 20
130.49999999999989
 30
0.0
 11
373.30000000000013
 21
130.49999999999989
 31
0.0
  0
LINE
  5
A6
  8
1
 62
     7
 10
377.90000000000009
 20
112.0
 30
0.0
 11
377.90000000000009
 21
107.4999999999999
 31
0.0
  0
LINE
  5
A7
  8
1
 62
     7
 10
377.90000000000009
 20
130.49999999999989
 30
0.0
 11
377.90000000000009
 21
126.0
 31
0.0
  0
LINE
  5
A8
  8
1
 62
     7
 10
373.30000000000013
 20
126.0
 30
0.0
 11
373.30000000000013
 21
189.99999999999989
 31
0.0
  0
LINE
  5
A9
  8
1
 62
     7
 10
368.50000000000011
 20
126.0
 30
0.0
 11
368.50000000000011
 21
185.09999999999991
 31
0.0
  0
LINE
  5
AA
  8
1
 62
     7
 10
399.19999999999987
 20
112.0
 30
0.0
 11
365.60000000000008
 21
112.0
 31
0.0
  0
LINE
  5
AB
  8
1
 62
     7
 10
361.60000000000008
 20
129.49999999999989
 30
0.0
 11
361.60000000000008
 21
189.99999999999989
 31
0.0
  0
LINE
  5
AC
  8
1
 62
     3
 10
368.52487113059613
 20
112.0
 30
0.0
 11
368.52487113059613
 21
126.0
 31
0.0
  0
LINE
  5
AD
  8
1
 62
     3
 10
368.52487113059613
 20
124.59999999999989
 30
0.0
 11
366.10000000000008
 21
126.0
 31
0.0
  0
LINE
  5
AE
  8
1
 62
     3
 10
400.60000000000008
 20
124.59999999999989
 30
0.0
 11
368.52487113059613
 21
124.59999999999989
 31
0.0
  0
LINE
  5
AF
  8
1
 62
     3
 10
368.52487113059613
 20
113.40000000000001
 30
0.0
 11
366.10000000000008
 21
112.0
 31
0.0
  0
LINE
  5
B0
  8
1
 62
     3
 10
400.60000000000008
 20
113.40000000000001
 30
0.0
 11
368.52487113059613
 21
113.40000000000001
 31
0.0
  0
LINE
  5
B1
  8
1
 62
     7
 10
399.19999999999987
 20
112.0
 30
0.0
 11
399.19999999999987
 21
126.0
 31
0.0
  0
LINE
  5
B2
  8
1
 62
     7
 10
399.19999999999987
 20
126.0
 30
0.0
 11
365.60000000000008
 21
126.0
 31
0.0
  0
LINE
  5
B3
  8
1
 62
     7
 10
400.60000000000008
 20
124.59999999999989
 30
0.0
 11
399.19999999999987
 21
126.0
 31
0.0
  0
LINE
  5
B4
  8
1
 62
     7
 10
400.60000000000008
 20
113.40000000000001
 30
0.0
 11
400.60000000000008
 21
124.59999999999989
 31
0.0
  0
LINE
  5
B5
  8
1
 62
     7
 10
399.19999999999987
 20
112.0
 30
0.0
 11
400.60000000000008
 21
113.40000000000001
 31
0.0
  0
LINE
  5
B6
  8
1
 62
     7
 10
352.40000000000009
 20
108.4999999999999
 30
0.0
 11
352.40000000000009
 21
129.49999999999989
 31
0.0
  0
LINE
  5
B7
  8
1
 62
     7
 10
352.40000000000009
 20
129.49999999999989
 30
0.0
 11
365.60000000000008
 21
129.49999999999989
 31
0.0
  0
LINE
  5
B8
  8
1
 62
     7
 10
351.60000000000008
 20
128.11435935394491
 30
0.0
 11
352.40000000000009
 21
129.49999999999989
 31
0.0
  0
LINE
  5
B9
  8
1
 62
     7
 10
351.60000000000008
 20
109.88564064605509
 30
0.0
 11
351.60000000000008
 21
128.11435935394491
 31
0.0
  0
LINE
  5
BA
  8
1
 62
     7
 10
352.40000000000009
 20
108.4999999999999
 30
0.0
 11
351.60000000000008
 21
109.88564064605509
 31
0.0
  0
LINE
  5
BB
  8
1
 62
     7
 10
365.60000000000008
 20
108.4999999999999
 30
0.0
 11
352.40000000000009
 21
108.4999999999999
 31
0.0
  0
LINE
  5
BC
  8
1
 62
     7
 10
347.80000000000013
 20
130.0
 30
0.0
 11
361.60000000000008
 21
130.0
 31
0.0
  0
LINE
  5
BD
  8
1
 62
     7
 10
370.00000000000011
 20
-84.300000000000026
 30
0.0
 11
402.10000000000008
 21
-84.300000000000026
 31
0.0
  0
LINE
  5
BE
  8
1
 62
     7
 10
370.00000000000011
 20
84.299999999999969
 30
0.0
 11
402.10000000000008
 21
84.299999999999969
 31
0.0
  0
LINE
  5
BF
  8
1
 62
     7
 10
370.00000000000011
 20
-89.350000000000023
 30
0.0
 11
372.00000000000011
 21
-91.350000000000037
 31
0.0
  0
LINE
  5
C0
  8
1
 62
     7
 10
370.00000000000011
 20
89.349999999999966
 30
0.0
 11
372.00000000000011
 21
91.349999999999966
 31
0.0
  0
LINE
  5
C1
  8
1
 62
     7
 10
372.00000000000011
 20
-91.350000000000037
 30
0.0
 11
402.10000000000008
 21
-91.350000000000037
 31
0.0
  0
LINE
  5
C2
  8
1
 62
     7
 10
373.30000000000013
 20
-145.0
 30
0.0
 11
368.69999999999987
 21
-145.0
 31
0.0
  0
LINE
  5
C3
  8
1
 62
     7
 10
373.30000000000013
 20
-104.0
 30
0.0
 11
368.71394289005121
 21
-104.0
 31
0.0
  0
LINE
  5
C4
  8
1
 62
     7
 10
368.50000000000011
 20
145.0
 30
0.0
 11
373.30000000000013
 21
145.0
 31
0.0
  0
LINE
  5
C5
  8
1
 62
     7
 10
373.30000000000013
 20
104.0
 30
0.0
 11
368.71394289005121
 21
104.0
 31
0.0
  0
LINE
  5
C6
  8
1
 62
     7
 10
364.60000000000008
 20
130.0
 30
0.0
 11
364.10000000000008
 21
130.0
 31
0.0
  0
LINE
  5
C7
  8
1
 62
     7
 10
373.30000000000013
 20
102.89999999999969
 30
0.0
 11
370.50000000000011
 21
102.89999999999969
 31
0.0
  0
LINE
  5
C8
  8
1
 62
     7
 10
373.30000000000013
 20
99.999999999999943
 30
0.0
 11
368.60000000000008
 21
99.999999999999844
 31
0.0
  0
LINE
  5
C9
  8
1
 62
     7
 10
368.50000000000011
 20
104.89999999999969
 30
0.0
 11
368.50000000000011
 21
112.0
 31
0.0
  0
LINE
  5
CA
  8
1
 62
     7
 10
364.10000000000008
 20
184.99999999999989
 30
0.0
 11
364.60000000000008
 21
184.99999999999989
 31
0.0
  0
LINE
  5
CB
  8
1
 62
     7
 10
370.50000000000011
 20
187.09999999999991
 30
0.0
 11
373.30000000000013
 21
187.09999999999991
 31
0.0
  0
LINE
  5
CC
  8
1
 62
     7
 10
368.60000000000008
 20
189.99999999999989
 30
0.0
 11
373.30000000000013
 21
189.99999999999989
 31
0.0
  0
LINE
  5
CD
  8
1
 62
     7
 10
364.50000000000011
 20
-181.09999999999991
 30
0.0
 11
364.50000000000011
 21
-133.90000000000001
 31
0.0
  0
LINE
  5
CE
  8
1
 62
     7
 10
366.00000000000011
 20
-132.90000000000001
 30
0.0
 11
365.50000000000011
 21
-132.90000000000001
 31
0.0
  0
LINE
  5
CF
  8
1
 62
     7
 10
364.10000000000008
 20
-130.0
 30
0.0
 11
364.60000000000008
 21
-130.0
 31
0.0
  0
LINE
  5
D0
  8
1
 62
     7
 10
370.50000000000011
 20
-102.89999999999991
 30
0.0
 11
373.30000000000013
 21
-102.89999999999991
 31
0.0
  0
LINE
  5
D1
  8
1
 62
     7
 10
368.60000000000008
 20
-99.999999999999915
 30
0.0
 11
373.30000000000013
 21
-100.0
 31
0.0
  0
LINE
  5
D2
  8
1
 62
     7
 10
365.50000000000011
 20
-182.09999999999991
 30
0.0
 11
366.00000000000011
 21
-182.09999999999991
 31
0.0
  0
LINE
  5
D3
  8
1
 62
     7
 10
368.50000000000011
 20
-185.09999999999991
 30
0.0
 11
368.50000000000011
 21
-176.4108423691101
 31
0.0
  0
LINE
  5
D4
  8
1
 62
     7
 10
364.60000000000008
 20
-185.0
 30
0.0
 11
364.10000000000008
 21
-185.0
 31
0.0
  0
LINE
  5
D5
  8
1
 62
     7
 10
373.30000000000013
 20
-187.09999999999999
 30
0.0
 11
370.50000000000011
 21
-187.09999999999999
 31
0.0
  0
LINE
  5
D6
  8
1
 62
     7
 10
365.60000000000008
 20
-186.0
 30
0.0
 11
365.60000000000008
 21
-187.0
 31
0.0
  0
LINE
  5
D7
  8
1
 62
     7
 10
373.30000000000013
 20
-190.0
 30
0.0
 11
368.60000000000008
 21
-190.0
 31
0.0
  0
LINE
  5
D8
  8
1
 62
     7
 10
361.60000000000008
 20
189.99999999999989
 30
0.0
 11
347.80000000000013
 21
189.99999999999989
 31
0.0
  0
LINE
  5
D9
  8
1
 62
     7
 10
361.60000000000008
 20
-190.0
 30
0.0
 11
361.60000000000008
 21
-178.0
 31
0.0
  0
LINE
  5
DA
  8
1
 62
     7
 10
347.80000000000013
 20
-190.0
 30
0.0
 11
361.60000000000008
 21
-190.0
 31
0.0
  0
LINE
  5
DB
  8
1
 62
     7
 10
364.50000000000011
 20
-178.0
 30
0.0
 11
352.60000000000008
 21
-178.0
 31
0.0
  0
LINE
  5
DC
  8
1
 62
     7
 10
364.50000000000011
 20
-148.0
 30
0.0
 11
352.60000000000008
 21
-148.0
 31
0.0
  0
LINE
  5
DD
  8
1
 62
     7
 10
368.50000000000011
 20
-143.5891576308899
 30
0.0
 11
368.50000000000011
 21
-104.89999999999991
 31
0.0
  0
LINE
  5
DE
  8
1
 62
     7
 10
368.50000000000011
 20
-173.5891576308899
 30
0.0
 11
368.50000000000011
 21
-146.4108423691101
 31
0.0
  0
LINE
  5
DF
  8
1
 62
     7
 10
347.80000000000013
 20
-170.0
 30
0.0
 11
352.60000000000008
 21
-170.0
 31
0.0
  0
LINE
  5
E0
  8
1
 62
     7
 10
352.60000000000008
 20
-170.0
 30
0.0
 11
352.60000000000008
 21
-180.0
 31
0.0
  0
LINE
  5
E1
  8
1
 62
     7
 10
352.60000000000008
 20
-180.0
 30
0.0
 11
347.80000000000013
 21
-180.0
 31
0.0
  0
LINE
  5
E2
  8
1
 62
     7
 10
352.60000000000008
 20
-172.0
 30
0.0
 11
364.50000000000011
 21
-172.0
 31
0.0
  0
LINE
  5
E3
  8
1
 62
     7
 10
361.60000000000008
 20
-172.0
 30
0.0
 11
361.60000000000008
 21
-148.0
 31
0.0
  0
LINE
  5
E4
  8
1
 62
     7
 10
361.60000000000008
 20
-142.0
 30
0.0
 11
361.60000000000008
 21
-60.0
 31
0.0
  0
LINE
  5
E5
  8
1
 62
     7
 10
347.80000000000013
 20
-140.0
 30
0.0
 11
352.60000000000008
 21
-140.0
 31
0.0
  0
LINE
  5
E6
  8
1
 62
     7
 10
352.60000000000008
 20
-150.0
 30
0.0
 11
347.80000000000013
 21
-150.0
 31
0.0
  0
LINE
  5
E7
  8
1
 62
     7
 10
352.60000000000008
 20
-142.0
 30
0.0
 11
364.50000000000011
 21
-142.0
 31
0.0
  0
LINE
  5
E8
  8
1
 62
     7
 10
352.60000000000008
 20
-150.0
 30
0.0
 11
352.60000000000008
 21
-140.0
 31
0.0
  0
LINE
  5
E9
  8
1
 62
     7
 10
747.81741579264894
 20
240.2175401864028
 30
0.0
 11
742.61741579264913
 21
240.2175401864028
 31
0.0
  0
LINE
  5
EA
  8
1
 62
     7
 10
746.91741579264908
 20
240.2175401864028
 30
0.0
 11
746.91741579264885
 21
245.217540186403
 31
0.0
  0
LINE
  5
EB
  8
1
 62
     7
 10
746.71741579264892
 20
240.217540186403
 30
0.0
 11
746.71741579264869
 21
245.217540186403
 31
0.0
  0
LINE
  5
EC
  8
1
 62
     7
 10
746.51741579264876
 20
240.217540186403
 30
0.0
 11
746.51741579264933
 21
245.2175401864028
 31
0.0
  0
LINE
  5
ED
  8
1
 62
     7
 10
746.31741579264838
 20
240.21754018640311
 30
0.0
 11
746.31741579264917
 21
245.2175401864028
 31
0.0
  0
LINE
  5
EE
  8
1
 62
     7
 10
746.11741579264947
 20
240.2175401864028
 30
0.0
 11
746.1174157926489
 21
245.2175401864028
 31
0.0
  0
LINE
  5
EF
  8
1
 62
     7
 10
744.3174157926486
 20
240.217540186403
 30
0.0
 11
744.31741579264849
 21
245.217540186403
 31
0.0
  0
LINE
  5
F0
  8
1
 62
     7
 10
744.11741579264867
 20
240.21754018640311
 30
0.0
 11
744.11741579264924
 21
245.2175401864028
 31
0.0
  0
LINE
  5
F1
  8
1
 62
     7
 10
743.91741579264817
 20
240.21754018640311
 30
0.0
 11
743.91741579264897
 21
245.2175401864028
 31
0.0
  0
LINE
  5
F2
  8
1
 62
     7
 10
743.71741579264915
 20
240.2175401864028
 30
0.0
 11
743.71741579264881
 21
245.217540186403
 31
0.0
  0
LINE
  5
F3
  8
1
 62
     7
 10
743.5174157926491
 20
240.2175401864028
 30
0.0
 11
743.51741579264865
 21
245.217540186403
 31
0.0
  0
LINE
  5
F4
  8
1
 62
     7
 10
745.21741579264881
 20
240.217540186403
 30
0.0
 11
745.21741579264835
 21
189.99999999999989
 31
0.0
  0
LINE
  5
F5
  8
1
 62
     7
 10
747.81741579264894
 20
240.2175401864028
 30
0.0
 11
747.81741579264929
 21
189.9822096934341
 31
0.0
  0
LINE
  5
F6
  8
1
 62
     7
 10
742.61741579264913
 20
240.2175401864028
 30
0.0
 11
742.61741579264924
 21
189.9822096934341
 31
0.0
  0
LINE
  5
F7
  8
1
  6
DASHDOT
 62
     3
 10
762.95118588585058
 20
0.0
 30
0.0
 11
727.48364569944727
 21
0.0
 31
0.0
  0
LINE
  5
F8
  8
1
  6
DASHDOT
 62
     3
 10
745.21741579264835
 20
17.733770093201571
 30
0.0
 11
745.21741579264835
 21
-17.73377009320151
 31
0.0
  0
LINE
  5
F9
  8
1
 62
     7
 10
77.59999999999998
 20
186.99999999999989
 30
0.0
 11
77.59999999999998
 21
-187.0
 31
0.0
  0
LINE
  5
FA
  8
1
 62
     7
 10
90.085826186733286
 20
104.618821315066
 30
0.0
 11
89.899999999999807
 21
107.4999999999999
 31
0.0
  0
LINE
  5
FB
  8
1
 62
     7
 10
95.299999999999898
 20
93.349999999999966
 30
0.0
 11
97.099999999999923
 21
93.349999999999966
 31
0.0
  0
LINE
  5
FC
  8
1
 62
     7
 10
85.300000000000026
 20
-190.0
 30
0.0
 11
85.300000000000026
 21
189.99999999999989
 31
0.0
  0
LINE
  5
FD
  8
1
 62
     7
 10
95.299999999999898
 20
-93.350000000000023
 30
0.0
 11
97.099999999999923
 21
-93.350000000000023
 31
0.0
  0
LINE
  5
FE
  8
1
 62
     7
 10
113.39999999999969
 20
102.0307700441676
 30
0.0
 11
113.39999999999969
 21
-102.0307700441676
 31
0.0
  0
LINE
  5
FF
  8
1
 62
     7
 10
106.09999999999989
 20
-130.49999999999989
 30
0.0
 11
108.09999999999989
 21
-128.49999999999989
 31
0.0
  0
LINE
  5
100
  8
1
 62
     7
 10
108.09999999999989
 20
-128.49999999999989
 30
0.0
 11
108.09999999999989
 21
128.49999999999989
 31
0.0
  0
LINE
  5
101
  8
1
 62
     7
 10
94.099999999999923
 20
107.4999999999999
 30
0.0
 11
93.299999999999883
 21
107.4999999999999
 31
0.0
  0
LINE
  5
102
  8
1
 62
     7
 10
108.09999999999989
 20
128.49999999999989
 30
0.0
 11
106.09999999999989
 21
130.49999999999989
 31
0.0
  0
LINE
  5
103
  8
1
 62
     7
 10
91.899999999999793
 20
130.49999999999989
 30
0.0
 11
106.09999999999989
 21
130.49999999999989
 31
0.0
  0
LINE
  5
104
  8
1
 62
     7
 10
91.899999999999793
 20
130.49999999999989
 30
0.0
 11
85.299999999999898
 21
130.49999999999989
 31
0.0
  0
LINE
  5
105
  8
1
 62
     7
 10
89.899999999999807
 20
130.49999999999989
 30
0.0
 11
89.899999999999807
 21
107.4999999999999
 31
0.0
  0
LINE
  5
106
  8
1
 62
     7
 10
111.2
 20
112.0
 30
0.0
 11
108.09999999999989
 21
112.0
 31
0.0
  0
LINE
  5
107
  8
1
 62
     3
 10
112.59999999999989
 20
124.59999999999989
 30
0.0
 11
108.09999999999989
 21
124.59999999999989
 31
0.0
  0
LINE
  5
108
  8
1
 62
     3
 10
112.59999999999989
 20
113.40000000000001
 30
0.0
 11
108.09999999999989
 21
113.40000000000001
 31
0.0
  0
LINE
  5
109
  8
1
 62
     7
 10
111.2
 20
112.0
 30
0.0
 11
111.2
 21
126.0
 31
0.0
  0
LINE
  5
10A
  8
1
 62
     7
 10
111.2
 20
126.0
 30
0.0
 11
108.09999999999989
 21
126.0
 31
0.0
  0
LINE
  5
10B
  8
1
 62
     7
 10
112.59999999999989
 20
124.59999999999989
 30
0.0
 11
111.2
 21
126.0
 31
0.0
  0
LINE
  5
10C
  8
1
 62
     7
 10
112.59999999999989
 20
113.40000000000001
 30
0.0
 11
112.59999999999989
 21
124.59999999999989
 31
0.0
  0
LINE
  5
10D
  8
1
 62
     7
 10
111.2
 20
112.0
 30
0.0
 11
112.59999999999989
 21
113.40000000000001
 31
0.0
  0
LINE
  5
10E
  8
1
 62
     7
 10
76.09999999999998
 20
184.99999999999989
 30
0.0
 11
76.59999999999998
 21
184.99999999999989
 31
0.0
  0
LINE
  5
10F
  8
1
 62
     7
 10
80.59999999999998
 20
189.99999999999989
 30
0.0
 11
85.300000000000026
 21
189.99999999999989
 31
0.0
  0
LINE
  5
110
  8
1
 62
     7
 10
76.59999999999998
 20
-185.0
 30
0.0
 11
76.09999999999998
 21
-185.0
 31
0.0
  0
LINE
  5
111
  8
1
 62
     7
 10
85.300000000000026
 20
-190.0
 30
0.0
 11
80.59999999999998
 21
-190.0
 31
0.0
  0
LINE
  5
112
  8
1
 62
     7
 10
73.59999999999998
 20
189.99999999999989
 30
0.0
 11
59.800000000000011
 21
189.99999999999989
 31
0.0
  0
LINE
  5
113
  8
1
 62
     7
 10
59.800000000000011
 20
-190.0
 30
0.0
 11
73.59999999999998
 21
-190.0
 31
0.0
  0
LINE
  5
114
  8
1
 62
     7
 10
73.59999999999998
 20
-190.0
 30
0.0
 11
73.59999999999998
 21
189.99999999999989
 31
0.0
  0
LINE
  5
115
  8
1
 62
     7
 10
347.80000000000013
 20
189.99999999999989
 30
0.0
 11
347.80000000000013
 21
60.0
 31
0.0
  0
LINE
  5
116
  8
1
 62
     7
 10
336.70000000000022
 20
138.0
 30
0.0
 11
336.70000000000022
 21
60.0
 31
0.0
  0
LINE
  5
117
  8
1
 62
     7
 10
336.70000000000022
 20
-138.0
 30
0.0
 11
333.70000000000022
 21
-138.0
 31
0.0
  0
LINE
  5
118
  8
1
 62
     7
 10
333.70000000000022
 20
-138.0
 30
0.0
 11
333.70000000000022
 21
-180.0
 31
0.0
  0
LINE
  5
119
  8
1
 62
     7
 10
333.70000000000022
 20
-180.0
 30
0.0
 11
294.70000000000022
 21
-180.0
 31
0.0
  0
LINE
  5
11A
  8
1
 62
     7
 10
291.7000000000001
 20
-177.0
 30
0.0
 11
291.7000000000001
 21
177.0
 31
0.0
  0
LINE
  5
11B
  8
1
 62
     7
 10
294.70000000000022
 20
180.0
 30
0.0
 11
333.70000000000022
 21
180.0
 31
0.0
  0
LINE
  5
11C
  8
1
 62
     7
 10
333.70000000000022
 20
180.0
 30
0.0
 11
333.70000000000022
 21
138.0
 31
0.0
  0
LINE
  5
11D
  8
1
 62
     7
 10
343.7000000000001
 20
114.0
 30
0.0
 11
319.70000000000022
 21
114.0
 31
0.0
  0
LINE
  5
11E
  8
1
 62
     7
 10
319.70000000000022
 20
114.0
 30
0.0
 11
314.70000000000022
 21
119.0
 31
0.0
  0
LINE
  5
11F
  8
1
 62
     7
 10
291.7000000000001
 20
124.0
 30
0.0
 11
314.70000000000022
 21
124.0
 31
0.0
  0
LINE
  5
120
  8
1
 62
     7
 10
319.70000000000022
 20
-114.0
 30
0.0
 11
343.7000000000001
 21
-114.0
 31
0.0
  0
LINE
  5
121
  8
1
 62
     7
 10
314.70000000000022
 20
-119.0
 30
0.0
 11
319.70000000000022
 21
-114.0
 31
0.0
  0
LINE
  5
122
  8
1
 62
     7
 10
314.70000000000022
 20
-124.0
 30
0.0
 11
291.7000000000001
 21
-124.0
 31
0.0
  0
LINE
  5
123
  8
1
 62
     7
 10
314.70000000000022
 20
124.0
 30
0.0
 11
314.70000000000022
 21
60.0
 31
0.0
  0
LINE
  5
124
  8
1
 62
     7
 10
319.70000000000022
 20
-114.0
 30
0.0
 11
319.70000000000022
 21
-60.0
 31
0.0
  0
LINE
  5
125
  8
1
 62
     7
 10
294.70000000000022
 20
180.0
 30
0.0
 11
291.7000000000001
 21
177.0
 31
0.0
  0
LINE
  5
126
  8
1
 62
     7
 10
291.7000000000001
 20
-177.0
 30
0.0
 11
294.70000000000022
 21
-180.0
 31
0.0
  0
LINE
  5
127
  8
1
 62
     7
 10
291.7000000000001
 20
165.0
 30
0.0
 11
288.00000000000011
 21
165.0
 31
0.0
  0
LINE
  5
128
  8
1
 62
     7
 10
288.00000000000011
 20
165.0
 30
0.0
 11
288.00000000000011
 21
-165.0
 31
0.0
  0
LINE
  5
129
  8
1
 62
     7
 10
288.00000000000011
 20
-165.0
 30
0.0
 11
291.7000000000001
 21
-165.0
 31
0.0
  0
LINE
  5
12A
  8
1
 62
     7
 10
288.00000000000011
 20
95.0
 30
0.0
 11
291.7000000000001
 21
95.0
 31
0.0
  0
LINE
  5
12B
  8
1
 62
     7
 10
288.00000000000011
 20
-95.0
 30
0.0
 11
291.7000000000001
 21
-95.0
 31
0.0
  0
LINE
  5
12C
  8
1
 62
     7
 10
312.80000000000013
 20
180.0
 30
0.0
 11
312.80000000000013
 21
188.1999999999999
 31
0.0
  0
LINE
  5
12D
  8
1
 62
     7
 10
314.80000000000013
 20
190.1999999999999
 30
0.0
 11
347.00000000000011
 21
190.1999999999999
 31
0.0
  0
LINE
  5
12E
  8
1
 62
     7
 10
312.80000000000013
 20
-180.0
 30
0.0
 11
312.80000000000013
 21
-188.1999999999999
 31
0.0
  0
LINE
  5
12F
  8
1
 62
     7
 10
314.80000000000013
 20
-190.1999999999999
 30
0.0
 11
347.00000000000011
 21
-190.1999999999999
 31
0.0
  0
LINE
  5
130
  8
1
 62
     7
 10
314.80000000000013
 20
-190.1999999999999
 30
0.0
 11
312.80000000000013
 21
-188.1999999999999
 31
0.0
  0
LINE
  5
131
  8
1
 62
     7
 10
314.80000000000013
 20
190.1999999999999
 30
0.0
 11
312.80000000000013
 21
188.1999999999999
 31
0.0
  0
LINE
  5
132
  8
1
 62
     7
 10
333.70000000000022
 20
148.0
 30
0.0
 11
335.80000000000013
 21
148.0
 31
0.0
  0
LINE
  5
133
  8
1
 62
     7
 10
335.80000000000013
 20
148.0
 30
0.0
 11
335.80000000000013
 21
181.05000000000001
 31
0.0
  0
LINE
  5
134
  8
1
 62
     7
 10
335.80000000000013
 20
181.05000000000001
 30
0.0
 11
312.80000000000013
 21
181.05000000000001
 31
0.0
  0
LINE
  5
135
  8
1
 62
     7
 10
333.70000000000022
 20
-148.0
 30
0.0
 11
335.80000000000013
 21
-148.0
 31
0.0
  0
LINE
  5
136
  8
1
 62
     7
 10
335.80000000000013
 20
-148.0
 30
0.0
 11
335.80000000000013
 21
-181.05000000000001
 31
0.0
  0
LINE
  5
137
  8
1
 62
     7
 10
335.80000000000013
 20
-181.05000000000001
 30
0.0
 11
312.80000000000013
 21
-181.05000000000001
 31
0.0
  0
LINE
  5
138
  8
1
 62
     7
 10
347.00000000000011
 20
190.1999999999999
 30
0.0
 11
347.00000000000011
 21
60.0
 31
0.0
  0
LINE
  5
139
  8
1
 62
     7
 10
347.00000000000011
 20
130.0
 30
0.0
 11
343.7000000000001
 21
130.0
 31
0.0
  0
LINE
  5
13A
  8
1
 62
     7
 10
343.7000000000001
 20
130.0
 30
0.0
 11
343.7000000000001
 21
60.0
 31
0.0
  0
LINE
  5
13B
  8
1
 62
     7
 10
343.7000000000001
 20
-130.0
 30
0.0
 11
347.00000000000011
 21
-130.0
 31
0.0
  0
LINE
  5
13C
  8
1
  6
DASHDOT
 62
     3
 10
288.00000000000011
 20
0.0
 30
0.0
 11
283.00000000000011
 21
0.0
 31
0.0
  0
LINE
  5
13D
  8
1
 62
     7
 10
402.10000000000008
 20
72.5
 30
0.0
 11
405.00000000000011
 21
72.5
 31
0.0
  0
LINE
  5
13E
  8
1
 62
     7
 10
402.10000000000008
 20
91.349999999999966
 30
0.0
 11
372.00000000000011
 21
91.349999999999966
 31
0.0
  0
LINE
  5
13F
  8
1
 62
     7
 10
405.00000000000011
 20
-72.5
 30
0.0
 11
402.10000000000008
 21
-72.5
 31
0.0
  0
LINE
  5
140
  8
1
 62
     7
 10
370.00000000000011
 20
60.0
 30
0.0
 11
306.00000000000011
 21
60.0
 31
0.0
  0
LINE
  5
141
  8
1
 62
     7
 10
305.00000000000011
 20
59.0
 30
0.0
 11
305.00000000000011
 21
-59.0
 31
0.0
  0
LINE
  5
142
  8
1
 62
     7
 10
306.00000000000011
 20
-60.0
 30
0.0
 11
370.00000000000011
 21
-60.0
 31
0.0
  0
LINE
  5
143
  8
1
 62
     7
 10
314.70000000000022
 20
-60.0
 30
0.0
 11
314.70000000000022
 21
-124.0
 31
0.0
  0
LINE
  5
144
  8
1
 62
     7
 10
336.70000000000022
 20
-60.0
 30
0.0
 11
336.70000000000022
 21
-138.0
 31
0.0
  0
LINE
  5
145
  8
1
 62
     7
 10
343.7000000000001
 20
-60.0
 30
0.0
 11
343.7000000000001
 21
-130.0
 31
0.0
  0
LINE
  5
146
  8
1
 62
     7
 10
347.80000000000013
 20
-60.0
 30
0.0
 11
347.80000000000013
 21
-190.0
 31
0.0
  0
LINE
  5
147
  8
1
 62
     7
 10
347.00000000000011
 20
-60.0
 30
0.0
 11
347.00000000000011
 21
-190.1999999999999
 31
0.0
  0
LINE
  5
148
  8
1
 62
     7
 10
365.60000000000008
 20
-60.0
 30
0.0
 11
365.60000000000008
 21
-129.0
 31
0.0
  0
LINE
  5
149
  8
1
 62
     7
 10
319.70000000000022
 20
60.0
 30
0.0
 11
319.70000000000022
 21
114.0
 31
0.0
  0
LINE
  5
14A
  8
1
 62
     7
 10
361.60000000000008
 20
60.0
 30
0.0
 11
361.60000000000008
 21
108.4999999999999
 31
0.0
  0
LINE
  5
14B
  8
1
 62
     7
 10
370.00000000000011
 20
89.349999999999966
 30
0.0
 11
370.00000000000011
 21
60.0
 31
0.0
  0
LINE
  5
14C
  8
1
 62
     7
 10
305.00000000000011
 20
59.0
 30
0.0
 11
306.00000000000011
 21
60.0
 31
0.0
  0
LINE
  5
14D
  8
1
 62
     7
 10
306.00000000000011
 20
-60.0
 30
0.0
 11
305.00000000000011
 21
-59.0
 31
0.0
  0
LINE
  5
14E
  8
1
 62
     7
 10
405.00000000000011
 20
-90.0
 30
0.0
 11
402.10000000000008
 21
-90.0
 31
0.0
  0
LINE
  5
14F
  8
1
 62
     7
 10
401.40000000000009
 20
-102.0307700441676
 30
0.0
 11
401.40000000000009
 21
-84.300000000000026
 31
0.0
  0
LINE
  5
150
  8
1
 62
     7
 10
405.00000000000011
 20
90.0
 30
0.0
 11
405.00000000000011
 21
-90.0
 31
0.0
  0
LINE
  5
151
  8
1
 62
     7
 10
405.00000000000011
 20
90.0
 30
0.0
 11
402.10000000000008
 21
90.0
 31
0.0
  0
LINE
  5
152
  8
1
 62
     7
 10
305.00000000000011
 20
40.999999999999993
 30
0.0
 11
405.00000000000011
 21
40.999999999999993
 31
0.0
  0
LINE
  5
153
  8
1
 62
     7
 10
305.00000000000011
 20
34.999999999999993
 30
0.0
 11
405.00000000000011
 21
34.999999999999993
 31
0.0
  0
LINE
  5
154
  8
1
 62
     7
 10
305.00000000000011
 20
-35.0
 30
0.0
 11
405.00000000000011
 21
-35.0
 31
0.0
  0
LINE
  5
155
  8
1
 62
     7
 10
333.70000000000022
 20
138.0
 30
0.0
 11
336.70000000000022
 21
138.0
 31
0.0
  0
LINE
  5
156
  8
1
 62
     7
 10
303.4000000000002
 20
230.0
 30
0.0
 11
303.4000000000002
 21
180.0
 31
0.0
  0
LINE
  5
157
  8
1
 62
     7
 10
306.00000000000011
 20
230.0
 30
0.0
 11
306.00000000000011
 21
180.0
 31
0.0
  0
LINE
  5
158
  8
1
 62
     7
 10
303.4000000000002
 20
230.0
 30
0.0
 11
306.00000000000011
 21
230.0
 31
0.0
  0
LINE
  5
159
  8
1
 62
     7
 10
305.10000000000002
 20
230.0
 30
0.0
 11
305.10000000000002
 21
235.0
 31
0.0
  0
LINE
  5
15A
  8
1
 62
     7
 10
304.9000000000002
 20
230.0
 30
0.0
 11
304.9000000000002
 21
235.0
 31
0.0
  0
LINE
  5
15B
  8
1
 62
     7
 10
304.70000000000022
 20
230.0
 30
0.0
 11
304.70000000000022
 21
235.0
 31
0.0
  0
LINE
  5
15C
  8
1
 62
     7
 10
304.50000000000011
 20
230.0
 30
0.0
 11
304.50000000000011
 21
235.0
 31
0.0
  0
LINE
  5
15D
  8
1
 62
     7
 10
304.30000000000013
 20
230.0
 30
0.0
 11
304.30000000000013
 21
235.0
 31
0.0
  0
LINE
  5
15E
  8
1
 62
     7
 10
59.800000000000011
 20
189.99999999999989
 30
0.0
 11
59.800000000000011
 21
-190.0
 31
0.0
  0
LINE
  5
15F
  8
1
 62
     7
 10
3.6999999999999882
 20
-177.0
 30
0.0
 11
3.6999999999999882
 21
177.0
 31
0.0
  0
LINE
  5
160
  8
1
 62
     7
 10
6.6999999999999869
 20
180.0
 30
0.0
 11
24.800000000000001
 21
180.0
 31
0.0
  0
LINE
  5
161
  8
1
 62
     7
 10
6.6999999999999869
 20
180.0
 30
0.0
 11
3.6999999999999882
 21
177.0
 31
0.0
  0
LINE
  5
162
  8
1
 62
     7
 10
3.6999999999999882
 20
-177.0
 30
0.0
 11
6.6999999999999869
 21
-180.0
 31
0.0
  0
LINE
  5
163
  8
1
 62
     7
 10
3.6999999999999882
 20
165.0
 30
0.0
 11
0.0
 21
165.0
 31
0.0
  0
LINE
  5
164
  8
1
 62
     7
 10
0.0
 20
165.0
 30
0.0
 11
0.0
 21
-165.0
 31
0.0
  0
LINE
  5
165
  8
1
 62
     7
 10
0.0
 20
-165.0
 30
0.0
 11
3.6999999999999882
 21
-165.0
 31
0.0
  0
LINE
  5
166
  8
1
 62
     7
 10
26.800000000000011
 20
190.1999999999999
 30
0.0
 11
59.0
 21
190.1999999999999
 31
0.0
  0
LINE
  5
167
  8
1
 62
     7
 10
24.800000000000001
 20
-188.1999999999999
 30
0.0
 11
24.800000000000001
 21
188.1999999999999
 31
0.0
  0
LINE
  5
168
  8
1
 62
     7
 10
26.800000000000011
 20
-190.1999999999999
 30
0.0
 11
59.0
 21
-190.1999999999999
 31
0.0
  0
LINE
  5
169
  8
1
 62
     7
 10
26.800000000000011
 20
-190.1999999999999
 30
0.0
 11
24.800000000000001
 21
-188.1999999999999
 31
0.0
  0
LINE
  5
16A
  8
1
 62
     7
 10
26.800000000000011
 20
190.1999999999999
 30
0.0
 11
24.800000000000001
 21
188.1999999999999
 31
0.0
  0
LINE
  5
16B
  8
1
  6
DASHDOT
 62
     3
 10
0.0
 20
0.0
 30
0.0
 11
-5.0
 21
0.0
 31
0.0
  0
LINE
  5
16C
  8
1
 62
     7
 10
59.0
 20
-190.1999999999999
 30
0.0
 11
59.0
 21
190.1999999999999
 31
0.0
  0
LINE
  5
16D
  8
1
 62
     7
 10
15.39999999999989
 20
230.0
 30
0.0
 11
15.39999999999989
 21
180.0
 31
0.0
  0
LINE
  5
16E
  8
1
 62
     7
 10
18.0
 20
230.0
 30
0.0
 11
18.0
 21
180.0
 31
0.0
  0
LINE
  5
16F
  8
1
 62
     7
 10
15.39999999999989
 20
230.0
 30
0.0
 11
18.0
 21
230.0
 31
0.0
  0
LINE
  5
170
  8
1
 62
     7
 10
17.099999999999788
 20
230.0
 30
0.0
 11
17.099999999999788
 21
235.0
 31
0.0
  0
LINE
  5
171
  8
1
 62
     7
 10
16.899999999999888
 20
230.0
 30
0.0
 11
16.899999999999888
 21
235.0
 31
0.0
  0
LINE
  5
172
  8
1
 62
     7
 10
16.6999999999999
 20
230.0
 30
0.0
 11
16.6999999999999
 21
235.0
 31
0.0
  0
LINE
  5
173
  8
1
 62
     7
 10
16.5
 20
230.0
 30
0.0
 11
16.5
 21
235.0
 31
0.0
  0
LINE
  5
174
  8
1
 62
     7
 10
16.299999999999901
 20
230.0
 30
0.0
 11
16.299999999999901
 21
235.0
 31
0.0
  0
LINE
  5
175
  8
1
  6
DASHDOT
 62
     3
 10
117.0000000000001
 20
0.0
 30
0.0
 11
122.83509905592589
 21
0.0
 31
0.0
  0
LINE
  5
176
  8
1
 62
     7
 10
117.0
 20
-90.0
 30
0.0
 11
114.09999999999999
 21
-89.999999999999986
 31
0.0
  0
LINE
  5
177
  8
1
 62
     7
 10
117.0
 20
90.0
 30
0.0
 11
117.0
 21
-90.0
 31
0.0
  0
LINE
  5
178
  8
1
 62
     7
 10
117.0
 20
90.0
 30
0.0
 11
114.09999999999999
 21
90.0
 31
0.0
  0
LINE
  5
179
  8
1
 62
     7
 10
24.800000000000001
 20
-180.0
 30
0.0
 11
6.6999999999999869
 21
-180.0
 31
0.0
  0
LINE
  5
17A
  8
1
 62
     7
 10
288.00000000000011
 20
115.25
 30
0.0
 11
291.7000000000001
 21
115.25
 31
0.0
  0
LINE
  5
17B
  8
1
 62
     7
 10
291.7000000000001
 20
102.75
 30
0.0
 11
288.00000000000011
 21
102.75
 31
0.0
  0
LINE
  5
17C
  8
1
  6
DASHDOT
 62
     3
 10
285.00000000000011
 20
109.0
 30
0.0
 11
294.70000000000022
 21
109.0
 31
0.0
  0
LINE
  5
17D
  8
1
 62
     7
 10
288.00000000000011
 20
-102.75
 30
0.0
 11
291.7000000000001
 21
-102.75
 31
0.0
  0
LINE
  5
17E
  8
1
 62
     7
 10
291.7000000000001
 20
-115.25
 30
0.0
 11
288.00000000000011
 21
-115.25
 31
0.0
  0
LINE
  5
17F
  8
1
  6
DASHDOT
 62
     3
 10
285.00000000000011
 20
-109.0
 30
0.0
 11
294.70000000000022
 21
-109.0
 31
0.0
  0
LINE
  5
180
  8
1
 62
     7
 10
111.2
 20
52.5
 30
0.0
 11
108.09999999999989
 21
52.5
 31
0.0
  0
LINE
  5
181
  8
1
 62
     3
 10
112.59999999999989
 20
65.100000000000009
 30
0.0
 11
108.09999999999989
 21
65.100000000000009
 31
0.0
  0
LINE
  5
182
  8
1
 62
     3
 10
112.59999999999989
 20
53.899999999999991
 30
0.0
 11
108.09999999999989
 21
53.899999999999991
 31
0.0
  0
LINE
  5
183
  8
1
 62
     7
 10
111.2
 20
52.5
 30
0.0
 11
111.2
 21
66.5
 31
0.0
  0
LINE
  5
184
  8
1
 62
     7
 10
111.2
 20
66.5
 30
0.0
 11
108.09999999999989
 21
66.5
 31
0.0
  0
LINE
  5
185
  8
1
 62
     7
 10
112.59999999999989
 20
65.100000000000009
 30
0.0
 11
111.2
 21
66.5
 31
0.0
  0
LINE
  5
186
  8
1
 62
     7
 10
112.59999999999989
 20
53.899999999999991
 30
0.0
 11
112.59999999999989
 21
65.100000000000009
 31
0.0
  0
LINE
  5
187
  8
1
 62
     7
 10
111.2
 20
52.5
 30
0.0
 11
112.59999999999989
 21
53.899999999999991
 31
0.0
  0
LINE
  5
188
  8
1
 62
     7
 10
111.2
 20
-66.5
 30
0.0
 11
108.09999999999989
 21
-66.5
 31
0.0
  0
LINE
  5
189
  8
1
 62
     3
 10
112.59999999999989
 20
-53.900000000000013
 30
0.0
 11
108.09999999999989
 21
-53.900000000000013
 31
0.0
  0
LINE
  5
18A
  8
1
 62
     3
 10
112.59999999999989
 20
-65.100000000000023
 30
0.0
 11
108.09999999999989
 21
-65.100000000000023
 31
0.0
  0
LINE
  5
18B
  8
1
 62
     7
 10
111.2
 20
-66.5
 30
0.0
 11
111.2
 21
-52.5
 31
0.0
  0
LINE
  5
18C
  8
1
 62
     7
 10
111.2
 20
-52.5
 30
0.0
 11
108.09999999999989
 21
-52.5
 31
0.0
  0
LINE
  5
18D
  8
1
 62
     7
 10
112.59999999999989
 20
-53.900000000000013
 30
0.0
 11
111.2
 21
-52.5
 31
0.0
  0
LINE
  5
18E
  8
1
 62
     7
 10
112.59999999999989
 20
-65.100000000000023
 30
0.0
 11
112.59999999999989
 21
-53.900000000000013
 31
0.0
  0
LINE
  5
18F
  8
1
 62
     7
 10
111.2
 20
-66.5
 30
0.0
 11
112.59999999999989
 21
-65.100000000000023
 31
0.0
  0
LINE
  5
190
  8
1
 62
     7
 10
111.2
 20
-126.0
 30
0.0
 11
108.09999999999989
 21
-126.0
 31
0.0
  0
LINE
  5
191
  8
1
 62
     3
 10
112.59999999999989
 20
-113.40000000000001
 30
0.0
 11
108.09999999999989
 21
-113.40000000000001
 31
0.0
  0
LINE
  5
192
  8
1
 62
     3
 10
112.59999999999989
 20
-124.59999999999989
 30
0.0
 11
108.09999999999989
 21
-124.59999999999989
 31
0.0
  0
LINE
  5
193
  8
1
 62
     7
 10
111.2
 20
-126.0
 30
0.0
 11
111.2
 21
-112.0
 31
0.0
  0
LINE
  5
194
  8
1
 62
     7
 10
111.2
 20
-112.0
 30
0.0
 11
108.09999999999989
 21
-112.0
 31
0.0
  0
LINE
  5
195
  8
1
 62
     7
 10
112.59999999999989
 20
-113.40000000000001
 30
0.0
 11
111.2
 21
-112.0
 31
0.0
  0
LINE
  5
196
  8
1
 62
     7
 10
112.59999999999989
 20
-124.59999999999989
 30
0.0
 11
112.59999999999989
 21
-113.40000000000001
 31
0.0
  0
LINE
  5
197
  8
1
 62
     7
 10
111.2
 20
-126.0
 30
0.0
 11
112.59999999999989
 21
-124.59999999999989
 31
0.0
  0
LINE
  5
198
  8
1
  6
DASHDOT
 62
     3
 10
745.21741579264835
 20
-57.438495551769989
 30
0.0
 11
745.21741579264835
 21
-73.671899198030701
 31
0.0
  0
LINE
  5
199
  8
1
  6
DASHDOT
 62
     3
 10
794.96601901910287
 20
28.722369467570552
 30
0.0
 11
812.00264692239205
 21
38.558471173617953
 31
0.0
  0
LINE
  5
19A
  8
1
  6
DASHDOT
 62
     3
 10
694.71516254826929
 20
29.157489505845941
 30
0.0
 11
679.79892858497919
 21
37.769381199846933
 31
0.0
  0
LINE
  5
19B
  8
1
 62
     7
 10
405.00000000000011
 20
-70.0
 30
0.0
 11
377.00000000000011
 21
-70.0
 31
0.0
  0
LINE
  5
19C
  8
1
 62
     7
 10
377.00000000000011
 20
-70.0
 30
0.0
 11
377.00000000000011
 21
-62.0
 31
0.0
  0
LINE
  5
19D
  8
1
 62
     7
 10
377.00000000000011
 20
-62.0
 30
0.0
 11
405.00000000000011
 21
-62.0
 31
0.0
  0
LINE
  5
19E
  8
1
 62
     7
 10
377.00000000000011
 20
-70.0
 30
0.0
 11
374.11324865405209
 21
-66.0
 31
0.0
  0
LINE
  5
19F
  8
1
 62
     7
 10
374.11324865405209
 20
-66.0
 30
0.0
 11
377.00000000000011
 21
-62.0
 31
0.0
  0
LINE
  5
1A0
  8
1
 62
     3
 10
405.00000000000011
 20
-71.0
 30
0.0
 11
385.00000000000011
 21
-71.0
 31
0.0
  0
LINE
  5
1A1
  8
1
 62
     3
 10
385.00000000000011
 20
-71.0
 30
0.0
 11
385.00000000000011
 21
-61.0
 31
0.0
  0
LINE
  5
1A2
  8
1
 62
     3
 10
385.00000000000011
 20
-61.0
 30
0.0
 11
405.00000000000011
 21
-61.0
 31
0.0
  0
LINE
  5
1A3
  8
1
 62
     3
 10
385.00000000000011
 20
-71.0
 30
0.0
 11
383.26794919243127
 21
-70.0
 31
0.0
  0
LINE
  5
1A4
  8
1
 62
     3
 10
385.00000000000011
 20
-61.0
 30
0.0
 11
383.26794919243127
 21
-62.0
 31
0.0
  0
LINE
  5
1A5
  8
1
  6
DASHDOT
 62
     3
 10
408.00000000000011
 20
-66.0
 30
0.0
 11
369.69059892324162
 21
-66.0
 31
0.0
  0
ARC
  5
1A6
  8
1
 62
     7
 10
94.099999999999923
 20
-104.4999999999999
 30
0.0
 40
3.0
 50
270.0
 51
0.0
  0
ARC
  5
1A7
  8
1
 62
     7
 10
94.099999999999923
 20
-44.999999999999908
 30
0.0
 40
3.0
 50
270.0
 51
0.0
  0
ARC
  5
1A8
  8
1
 62
     7
 10
94.099999999999923
 20
44.999999999999858
 30
0.0
 40
3.0
 50
0.0
 51
90.0
  0
ARC
  5
1A9
  8
1
 62
     7
 10
94.099999999999923
 20
-74.000000000000099
 30
0.0
 40
3.0
 50
0.0
 51
90.0
  0
ARC
  5
1AA
  8
1
 62
     7
 10
94.099999999999923
 20
74.000000000000043
 30
0.0
 40
3.0
 50
270.0
 51
0.0
  0
ARC
  5
1AB
  8
1
 62
     7
 10
94.099999999999923
 20
104.4999999999999
 30
0.0
 40
3.0
 50
0.0
 51
90.0
  0
ARC
  5
1AC
  8
1
 62
     7
 10
382.10000000000008
 20
104.4999999999999
 30
0.0
 40
3.0
 50
0.0
 51
90.0
  0
ARC
  5
1AD
  8
1
 62
     7
 10
387.10000000000008
 20
-96.0
 30
0.0
 40
2.0
 50
270.0
 51
0.0
  0
ARC
  5
1AE
  8
1
 62
     7
 10
387.10000000000008
 20
95.999999999999957
 30
0.0
 40
2.0
 50
0.0
 51
90.0
  0
ARC
  5
1AF
  8
1
 62
     7
 10
370.50000000000011
 20
104.89999999999969
 30
0.0
 40
2.0
 50
180.0
 51
270.0
  0
ARC
  5
1B0
  8
1
 62
     7
 10
368.60000000000008
 20
102.9999999999997
 30
0.0
 40
3.0
 50
180.0
 51
270.0
  0
ARC
  5
1B1
  8
1
 62
     7
 10
364.10000000000008
 20
132.49999999999989
 30
0.0
 40
2.5
 50
180.0
 51
270.0
  0
ARC
  5
1B2
  8
1
 62
     7
 10
370.50000000000011
 20
185.09999999999991
 30
0.0
 40
2.0
 50
90.0
 51
180.0
  0
ARC
  5
1B3
  8
1
 62
     7
 10
368.60000000000008
 20
186.99999999999989
 30
0.0
 40
3.0
 50
90.0
 51
180.0
  0
ARC
  5
1B4
  8
1
 62
     7
 10
364.10000000000008
 20
182.49999999999989
 30
0.0
 40
2.5
 50
90.0
 51
180.0
  0
ARC
  5
1B5
  8
1
 62
     7
 10
366.00000000000011
 20
-130.40000000000001
 30
0.0
 40
2.5
 50
270.0
 51
0.0
  0
ARC
  5
1B6
  8
1
 62
     7
 10
365.50000000000011
 20
-133.90000000000001
 30
0.0
 40
1.0
 50
90.0
 51
180.0
  0
ARC
  5
1B7
  8
1
 62
     7
 10
370.50000000000011
 20
-104.89999999999991
 30
0.0
 40
2.0
 50
90.0
 51
180.0
  0
ARC
  5
1B8
  8
1
 62
     7
 10
368.60000000000008
 20
-102.9999999999998
 30
0.0
 40
2.9999999999999858
 50
90.0
 51
180.0
  0
ARC
  5
1B9
  8
1
 62
     7
 10
364.10000000000008
 20
-132.5
 30
0.0
 40
2.5
 50
90.0
 51
180.0
  0
ARC
  5
1BA
  8
1
 62
     7
 10
366.00000000000011
 20
-184.59999999999999
 30
0.0
 40
2.5
 50
0.0
 51
90.0
  0
ARC
  5
1BB
  8
1
 62
     7
 10
365.50000000000011
 20
-181.09999999999991
 30
0.0
 40
1.0
 50
180.0
 51
270.0
  0
ARC
  5
1BC
  8
1
 62
     7
 10
370.50000000000011
 20
-185.09999999999991
 30
0.0
 40
2.0
 50
180.0
 51
270.0
  0
ARC
  5
1BD
  8
1
 62
     7
 10
368.60000000000008
 20
-187.0
 30
0.0
 40
3.0
 50
180.0
 51
270.0
  0
ARC
  5
1BE
  8
1
 62
     7
 10
364.10000000000008
 20
-182.5
 30
0.0
 40
2.5
 50
180.0
 51
270.0
  0
ARC
  5
1BF
  8
1
 62
     7
 10
80.59999999999998
 20
186.99999999999989
 30
0.0
 40
3.0
 50
90.0
 51
180.0
  0
ARC
  5
1C0
  8
1
 62
     7
 10
76.09999999999998
 20
182.49999999999989
 30
0.0
 40
2.5
 50
90.0
 51
180.0
  0
ARC
  5
1C1
  8
1
 62
     7
 10
80.59999999999998
 20
-187.0
 30
0.0
 40
3.0
 50
180.0
 51
270.0
  0
ARC
  5
1C2
  8
1
 62
     7
 10
76.09999999999998
 20
-182.5
 30
0.0
 40
2.5
 50
180.0
 51
270.0
  0
ARC
  5
1C3
  8
1
 62
     7
 10
783.50953196015939
 20
-72.923890731459295
 30
0.0
 40
2.804999999999974
 50
30.000000000000391
 51
119.99999999999881
  0
ARC
  5
1C4
  8
1
 62
     7
 10
780.20953196015955
 20
-67.208123066482074
 30
0.0
 40
2.8049999999999882
 50
300.0000000000008
 51
29.999999999999229
  0
ARC
  5
1C5
  8
1
 62
     7
 10
785.92529962513686
 20
-63.908123066482069
 30
0.0
 40
2.804999999999974
 50
210.0000000000004
 51
300.0000000000008
  0
ARC
  5
1C6
  8
1
 62
     7
 10
789.22529962513659
 20
-69.623890731459284
 30
0.0
 40
2.80499999999993
 50
119.99999999999881
 51
210.0000000000004
  0
ARC
  5
1C7
  8
1
 62
     7
 10
701.20953196015978
 20
-69.623890731459142
 30
0.0
 40
2.804999999999974
 50
329.9999999999996
 51
60.000000000001137
  0
ARC
  5
1C8
  8
1
 62
     7
 10
704.50953196015962
 20
-63.908123066481927
 30
0.0
 40
2.804999999999962
 50
239.99999999999869
 51
329.9999999999996
  0
ARC
  5
1C9
  8
1
 62
     7
 10
710.22529962513693
 20
-67.208123066481932
 30
0.0
 40
2.804999999999974
 50
149.9999999999996
 51
239.99999999999909
  0
ARC
  5
1CA
  8
1
 62
     7
 10
706.92529962513686
 20
-72.923890731459153
 30
0.0
 40
2.80499999999993
 50
60.000000000001137
 51
149.9999999999996
  0
ARC
  5
1CB
  8
1
 62
     7
 10
662.91741579264851
 20
3.3000000000000962
 30
0.0
 40
2.8050000000000059
 50
270.0
 51
0.0
  0
ARC
  5
1CC
  8
1
 62
     7
 10
669.51741579264842
 20
3.3000000000000962
 30
0.0
 40
2.8049999999999491
 50
180.0
 51
270.0
  0
ARC
  5
1CD
  8
1
 62
     7
 10
669.51741579264819
 20
-3.2999999999999261
 30
0.0
 40
2.8050000000000059
 50
90.0
 51
180.0
  0
ARC
  5
1CE
  8
1
 62
     7
 10
662.9174157926484
 20
-3.2999999999999261
 30
0.0
 40
2.8049999999999491
 50
0.0
 51
90.0
  0
ARC
  5
1CF
  8
1
 62
     7
 10
706.92529962513709
 20
72.923890731459281
 30
0.0
 40
2.804999999999974
 50
210.0000000000004
 51
299.99999999999898
  0
ARC
  5
1D0
  8
1
 62
     7
 10
710.22529962513715
 20
67.208123066482074
 30
0.0
 40
2.8049999999999762
 50
120.00000000000099
 51
210.0000000000004
  0
ARC
  5
1D1
  8
1
 62
     7
 10
704.50953196015996
 20
63.908123066482069
 30
0.0
 40
2.804999999999974
 50
30.000000000000391
 51
120.00000000000099
  0
ARC
  5
1D2
  8
1
 62
     7
 10
701.20953196015978
 20
69.623890731459284
 30
0.0
 40
2.80499999999993
 50
299.99999999999892
 51
30.000000000000391
  0
ARC
  5
1D3
  8
1
 62
     7
 10
789.22529962513704
 20
69.623890731459227
 30
0.0
 40
2.805000000000073
 50
150.0000000000008
 51
239.99999999999909
  0
ARC
  5
1D4
  8
1
 62
     7
 10
785.92529962513709
 20
63.908123066482013
 30
0.0
 40
2.8049999999999131
 50
60.000000000000888
 51
150.00000000000091
  0
ARC
  5
1D5
  8
1
 62
     7
 10
780.20953196015978
 20
67.208123066482017
 30
0.0
 40
2.804999999999974
 50
329.9999999999996
 51
60.000000000000973
  0
ARC
  5
1D6
  8
1
 62
     7
 10
783.50953196015973
 20
72.923890731459224
 30
0.0
 40
2.8049999999999882
 50
239.99999999999909
 51
329.9999999999996
  0
ARC
  5
1D7
  8
1
 62
     7
 10
827.51741579264819
 20
-3.3000000000000109
 30
0.0
 40
2.805000000000005
 50
90.0
 51
180.0
  0
ARC
  5
1D8
  8
1
 62
     7
 10
820.91741579264828
 20
-3.3000000000000109
 30
0.0
 40
2.8049999999999491
 50
0.0
 51
90.0
  0
ARC
  5
1D9
  8
1
 62
     7
 10
820.91741579264828
 20
3.3000000000000109
 30
0.0
 40
2.805000000000005
 50
270.0
 51
0.0
  0
ARC
  5
1DA
  8
1
 62
     7
 10
827.51741579264819
 20
3.3000000000000109
 30
0.0
 40
2.8049999999999491
 50
180.0
 51
270.0
  0
ARC
  5
1DB
  8
1
 62
     7
 10
745.21741579264835
 20
0.0
 30
0.0
 40
34.999999999999993
 50
104.9005966878299
 51
75.099403312170125
  0
ARC
  5
1DC
  8
1
 62
     7
 10
745.21741579085779
 20
-0.0000000021654216
 30
0.0
 40
145.00000000282091
 50
47.176706568596529
 51
72.826621823821284
  0
ARC
  5
1DD
  8
1
 62
     7
 10
847.74674236247245
 20
102.5352828162614
 30
0.0
 40
5.504158344200599
 50
136.11599490860041
 51
313.8873334844169
  0
ARC
  5
1DE
  8
1
 62
     7
 10
745.21741579003765
 20
-0.0000000009861196
 30
0.0
 40
145.00000000282131
 50
17.176706568596511
 51
42.826621823821277
  0
ARC
  5
1DF
  8
1
 62
     7
 10
885.27805864318009
 20
37.533496418186282
 30
0.0
 40
5.5041583442004649
 50
106.115994908594
 51
283.88733348441713
  0
ARC
  5
1E0
  8
1
 62
     7
 10
745.21741578991714
 20
0.0000000004452829
 30
0.0
 40
145.0000000028206
 50
347.17670656859673
 51
12.8266218238213
  0
ARC
  5
1E1
  8
1
 62
     7
 10
885.28023878070417
 20
-37.525360034270307
 30
0.0
 40
5.5041583442005191
 50
76.115994908602801
 51
253.8873334844161
  0
ARC
  5
1E2
  8
1
 62
     7
 10
745.21741579052821
 20
0.000000001745093
 30
0.0
 40
145.00000000282091
 50
317.1767065685965
 51
342.82662182382131
  0
ARC
  5
1E3
  8
1
 62
     7
 10
847.7526986089548
 20
-102.5293265698692
 30
0.0
 40
5.5041583442005972
 50
46.115994908599362
 51
223.8873334844186
  0
ARC
  5
1E4
  8
1
 62
     7
 10
745.21741579170759
 20
0.0000000025652866
 30
0.0
 40
145.0000000028208
 50
287.17670656859661
 51
312.82662182382131
  0
ARC
  5
1E5
  8
1
 62
     7
 10
782.75091221088007
 20
-140.06064285057701
 30
0.0
 40
5.5041583442006061
 50
16.11599490860122
 51
193.88733348441681
  0
ARC
  5
1E6
  8
1
 62
     7
 10
745.21741579313891
 20
0.0000000026859936
 30
0.0
 40
145.00000000282091
 50
257.17670656859661
 51
282.8266218238212
  0
ARC
  5
1E7
  8
1
 62
     7
 10
707.69205575842329
 20
-140.06282298810089
 30
0.0
 40
5.5041583442006008
 50
346.11599490860061
 51
163.88733348441829
  0
ARC
  5
1E8
  8
1
 62
     7
 10
745.21741579443881
 20
0.0000000020748985
 30
0.0
 40
145.00000000282091
 50
227.17670656859659
 51
252.8266218238212
  0
ARC
  5
1E9
  8
1
 62
     7
 10
642.68808922282415
 20
-102.5352828163519
 30
0.0
 40
5.5041583442006683
 50
316.11599490859959
 51
133.8873334844175
  0
ARC
  5
1EA
  8
1
 62
     7
 10
745.21741579525883
 20
0.0000000008956818
 30
0.0
 40
145.0000000028208
 50
197.1767065685965
 51
222.82662182382131
  0
ARC
  5
1EB
  8
1
 62
     7
 10
605.1567729421165
 20
-37.533496418276833
 30
0.0
 40
5.5041583442005919
 50
286.11599490860101
 51
103.8873334844169
  0
ARC
  5
1EC
  8
1
 62
     7
 10
745.21741579537968
 20
-0.0000000005357208
 30
0.0
 40
145.000000002821
 50
167.17670656859659
 51
192.8266218238212
  0
ARC
  5
1ED
  8
1
 62
     7
 10
605.15459280459277
 20
37.525360034179783
 30
0.0
 40
5.5041583442006088
 50
256.11599490859942
 51
73.887333484418761
  0
ARC
  5
1EE
  8
1
 62
     7
 10
745.21741579476827
 20
-0.0000000018356161
 30
0.0
 40
145.0000000028208
 50
137.1767065685965
 51
162.82662182382131
  0
ARC
  5
1EF
  8
1
 62
     7
 10
642.68213297634156
 20
102.5293265697788
 30
0.0
 40
5.504158344200599
 50
226.11599490860101
 51
43.887333484416963
  0
ARC
  5
1F0
  8
1
 62
     7
 10
745.21741579358934
 20
-0.0000000026558098
 30
0.0
 40
145.0000000028208
 50
107.1767065685965
 51
132.82662182382131
  0
ARC
  5
1F1
  8
1
 62
     7
 10
707.68391937441675
 20
140.06064285048649
 30
0.0
 40
5.5041583442005768
 50
196.11599490859999
 51
13.887333484418241
  0
ARC
  5
1F2
  8
1
 62
     7
 10
745.21741579215791
 20
-0.0000000027765168
 30
0.0
 40
145.00000000282091
 50
77.176706568596586
 51
102.8266218238212
  0
ARC
  5
1F3
  8
1
 62
     7
 10
782.7427758268733
 20
140.0628229880104
 30
0.0
 40
5.5041583442006221
 50
166.11599490859959
 51
343.88733348441832
  0
ARC
  5
1F4
  8
1
 62
     7
 10
85.299999999999898
 20
-101.0
 30
0.0
 40
6.0
 50
270.0
 51
322.64512428570578
  0
ARC
  5
1F5
  8
1
 62
     7
 10
95.299999999999898
 20
-97.350000000000023
 30
0.0
 40
4.0
 50
90.0
 51
119.9999999999995
  0
ARC
  5
1F6
  8
1
 62
     7
 10
383.30000000000013
 20
97.349999999999966
 30
0.0
 40
6.0
 50
180.0
 51
270.0
  0
ARC
  5
1F7
  8
1
 62
     7
 10
383.30000000000013
 20
97.349999999999966
 30
0.0
 40
4.0
 50
180.0
 51
270.0
  0
ARC
  5
1F8
  8
1
 62
     7
 10
383.30000000000013
 20
-97.350000000000023
 30
0.0
 40
6.0
 50
90.0
 51
180.0
  0
ARC
  5
1F9
  8
1
 62
     7
 10
383.30000000000013
 20
-97.350000000000023
 30
0.0
 40
4.0
 50
90.0
 51
180.0
  0
ARC
  5
1FA
  8
1
 62
     7
 10
373.30000000000013
 20
-101.0
 30
0.0
 40
4.0
 50
270.0
 51
0.0
  0
ARC
  5
1FB
  8
1
 62
     7
 10
373.30000000000013
 20
-101.0
 30
0.0
 40
6.0
 50
270.0
 51
0.0
  0
ARC
  5
1FC
  8
1
 62
     7
 10
373.30000000000013
 20
101.0
 30
0.0
 40
6.0
 50
0.0
 51
90.0
  0
ARC
  5
1FD
  8
1
 62
     7
 10
373.30000000000013
 20
101.0
 30
0.0
 40
4.0
 50
0.0
 51
90.0
  0
ARC
  5
1FE
  8
1
 62
     7
 10
364.60000000000008
 20
129.0
 30
0.0
 40
1.0
 50
0.0
 51
90.0
  0
ARC
  5
1FF
  8
1
 62
     7
 10
364.60000000000008
 20
185.99999999999989
 30
0.0
 40
1.0
 50
270.0
 51
0.0
  0
ARC
  5
200
  8
1
 62
     7
 10
364.60000000000008
 20
-129.0
 30
0.0
 40
1.0
 50
270.0
 51
0.0
  0
ARC
  5
201
  8
1
 62
     7
 10
364.60000000000008
 20
-186.0
 30
0.0
 40
1.0
 50
0.0
 51
90.0
  0
ARC
  5
202
  8
1
 62
     7
 10
363.62380952381022
 20
-175.0
 30
0.0
 40
5.0761904761903933
 50
279.93948145621528
 51
80.060518543784653
  0
ARC
  5
203
  8
1
 62
     7
 10
363.62380952381022
 20
-145.0
 30
0.0
 40
5.0761904761903933
 50
279.93948145621528
 51
80.060518543784653
  0
ARC
  5
204
  8
1
 62
     7
 10
95.299999999999898
 20
97.349999999999966
 30
0.0
 40
4.000000000000008
 50
240.0
 51
270.0
  0
ARC
  5
205
  8
1
 62
     7
 10
85.299999999999898
 20
101.0
 30
0.0
 40
5.9999999999999591
 50
25.975814822508749
 51
90.0
  0
ARC
  5
206
  8
1
 62
     7
 10
76.59999999999998
 20
185.99999999999989
 30
0.0
 40
1.0
 50
270.0
 51
0.0
  0
ARC
  5
207
  8
1
 62
     7
 10
76.59999999999998
 20
-186.0
 30
0.0
 40
1.0
 50
0.0
 51
90.0
  0
ARC
  5
208
  8
1
  6
DASHDOT
 62
     3
 10
745.21741579313891
 20
0.0000000026859936
 30
0.0
 40
66.000000000000028
 50
22.468356641186229
 51
37.09683170924189
  0
ARC
  5
209
  8
1
  6
DASHDOT
 62
     3
 10
745.21741579313891
 20
0.0000000026859936
 30
0.0
 40
66.000000000000028
 50
261.63488724249459
 51
278.89046670083712
  0
ARC
  5
20A
  8
1
  6
DASHDOT
 62
     3
 10
745.21741579313891
 20
0.0000000026859936
 30
0.0
 40
66.0
 50
140.88737709189951
 51
159.08827263456431
  0
CIRCLE
  5
20B
  8
1
 62
     7
 10
784.71741579264835
 20
-68.41600689897065
 30
0.0
 40
6.0
  0
CIRCLE
  5
20C
  8
1
 62
     7
 10
705.71741579264835
 20
-68.416006898970522
 30
0.0
 40
6.0
  0
CIRCLE
  5
20D
  8
1
 62
     7
 10
666.21741579264835
 20
0.0000000000000853
 30
0.0
 40
6.0
  0
CIRCLE
  5
20E
  8
1
 62
     7
 10
705.71741579264847
 20
68.416006898970679
 30
0.0
 40
6.0
  0
CIRCLE
  5
20F
  8
1
 62
     7
 10
784.71741579264835
 20
68.416006898970593
 30
0.0
 40
6.0
  0
CIRCLE
  5
210
  8
1
 62
     7
 10
824.21741579264824
 20
0.0
 30
0.0
 40
6.0
  0
CIRCLE
  5
211
  8
1
 62
     3
 10
688.0597391428754
 20
33.0
 30
0.0
 40
5.0
  0
CIRCLE
  5
212
  8
1
 62
     7
 10
688.0597391428754
 20
33.0
 30
0.0
 40
4.0
  0
CIRCLE
  5
213
  8
1
 62
     3
 10
802.37509244242131
 20
33.0
 30
0.0
 40
5.0
  0
CIRCLE
  5
214
  8
1
 62
     7
 10
802.37509244242131
 20
33.0
 30
0.0
 40
4.0
  0
CIRCLE
  5
215
  8
1
 62
     3
 10
745.21741579264835
 20
-66.0
 30
0.0
 40
5.0
  0
CIRCLE
  5
216
  8
1
 62
     7
 10
745.21741579264835
 20
-66.0
 30
0.0
 40
4.0
  0
CIRCLE
  5
217
  8
1
 62
     7
 10
745.21741579264835
 20
0.0
 30
0.0
 40
72.5
  0
CIRCLE
  5
218
  8
1
 62
     7
 10
745.21741579264835
 20
0.0
 30
0.0
 40
189.99999999999989
  0
CIRCLE
  5
219
  8
1
 62
     7
 10
745.21741579264835
 20
0.0
 30
0.0
 40
187.09999999999991
  0
CIRCLE
  5
21A
  8
1
 62
     7
 10
745.21741579264835
 20
0.0
 30
0.0
 40
130.49999999999989
  0
CIRCLE
  5
21B
  8
1
 62
     7
 10
745.21741579264835
 20
0.0
 30
0.0
 40
105.0
  0
CIRCLE
  5
21C
  8
1
 62
     7
 10
745.21741579264835
 20
0.0
 30
0.0
 40
91.349999999999923
  0
CIRCLE
  5
21D
  8
1
 62
     7
 10
745.21741579264835
 20
119.0
 30
0.0
 40
5.600000000001045
  0
CIRCLE
  5
21E
  8
1
 62
     7
 10
745.21741579264835
 20
119.0
 30
0.0
 40
7.0
  0
CIRCLE
  5
21F
  8
1
 62
     7
 10
642.16039274230047
 20
59.5
 30
0.0
 40
5.5999999999999091
  0
CIRCLE
  5
220
  8
1
 62
     7
 10
642.16039274230047
 20
59.5
 30
0.0
 40
7.0
  0
CIRCLE
  5
221
  8
1
 62
     7
 10
642.16039274230047
 20
-59.5
 30
0.0
 40
5.5999999999999091
  0
CIRCLE
  5
222
  8
1
 62
     7
 10
642.16039274230047
 20
-59.5
 30
0.0
 40
7.0
  0
CIRCLE
  5
223
  8
1
 62
     7
 10
745.21741579264835
 20
-119.0
 30
0.0
 40
5.600000000001045
  0
CIRCLE
  5
224
  8
1
 62
     7
 10
745.21741579264835
 20
-119.0
 30
0.0
 40
7.0
  0
CIRCLE
  5
225
  8
1
 62
     7
 10
848.27443884299737
 20
-59.5
 30
0.0
 40
5.5999999999999091
  0
CIRCLE
  5
226
  8
1
 62
     7
 10
848.27443884299737
 20
-59.5
 30
0.0
 40
7.0
  0
CIRCLE
  5
227
  8
1
 62
     7
 10
848.27443884299737
 20
59.5
 30
0.0
 40
5.5999999999999091
  0
CIRCLE
  5
228
  8
1
 62
     7
 10
848.27443884299737
 20
59.5
 30
0.0
 40
7.0
  0
CIRCLE
  5
229
  8
1
 62
     7
 10
745.21741579264835
 20
0.0
 30
0.0
 40
90.0
  0
ARC
  5
22A
  8
1
 62
     7
 10
112.0999999999997
 20
-108.98762429366001
 30
0.0
 40
4.0000000000000107
 50
135.0
 51
180.0
  0
ARC
  5
22B
  8
1
 62
     7
 10
112.0999999999997
 20
108.98762429366001
 30
0.0
 40
4.0
 50
180.0
 51
225.0
  0
ARC
  5
22C
  8
1
 62
     7
 10
400.10000000000008
 20
-108.98762429366001
 30
0.0
 40
3.9999999999999818
 50
134.9999999999996
 51
180.0
  0
ARC
  5
22D
  8
1
 62
     7
 10
400.10000000000008
 20
108.98762429366001
 30
0.0
 40
4.0
 50
180.0
 51
225.0000000000004
  0
TEXT
  5
22F
  8
1
 62
     7
 10
1.1007373350320999
 20
342.4225520120799
 30
0.0
 40
14.0
  1
MSB 100
 41
0.9
  7
SIMPLEX
  0
ENDSEC
  0
EOF
