  0
SECTION
  2
HEADER
  9
$ACADVER
  1
AC1009
  9
$INSBASE
 10
0.0
 20
0.0
 30
0.0
  9
$EXTMIN
 10
102.89246801488299
 20
-433.36120857547849
 30
0.0
  9
$EXTMAX
 10
399.10710452166262
 20
-288.66905034670089
 30
0.0
  9
$LIMMIN
 10
102.89246801488299
 20
-433.36120857547849
  9
$LIMMAX
 10
394.61572649301422
 20
-288.669050346701
  9
$ORTHOMODE
 70
     0
  9
$REGENMODE
 70
     1
  9
$FILLMODE
 70
     1
  9
$QTEXTMODE
 70
     0
  9
$MIRRTEXT
 70
     1
  9
$DRAGMODE
 70
     2
  9
$LTSCALE
 40
1.0
  9
$OSMODE
 70
    37
  9
$ATTMODE
 70
     1
  9
$TEXTSIZE
 40
3.5
  9
$TRACEWID
 40
0.5
  9
$TEXTSTYLE
  7
STANDARD
  9
$CLAYER
  8
0
  9
$CELTYPE
  6
BYLAYER
  9
$CECOLOR
 62
   256
  9
$DIMSCALE
 40
1.0
  9
$DIMASZ
 40
0.18
  9
$DIMEXO
 40
0.0625
  9
$DIMDLI
 40
0.38
  9
$DIMRND
 40
0.0
  9
$DIMDLE
 40
0.0
  9
$DIMEXE
 40
0.18
  9
$DIMTP
 40
0.0
  9
$DIMTM
 40
0.0
  9
$DIMTXT
 40
0.18
  9
$DIMCEN
 40
0.09
  9
$DIMTSZ
 40
0.0
  9
$DIMTOL
 70
     0
  9
$DIMLIM
 70
     0
  9
$DIMTIH
 70
     1
  9
$DIMTOH
 70
     1
  9
$DIMSE1
 70
     0
  9
$DIMSE2
 70
     0
  9
$DIMTAD
 70
     0
  9
$DIMZIN
 70
     0
  9
$DIMBLK
  1

  9
$DIMASO
 70
     1
  9
$DIMSHO
 70
     1
  9
$DIMPOST
  1

  9
$DIMAPOST
  1

  9
$DIMALT
 70
     0
  9
$DIMALTD
 70
     2
  9
$DIMALTF
 40
25.399999999999999
  9
$DIMLFAC
 40
1.0
  9
$DIMTOFL
 70
     0
  9
$DIMTVP
 40
0.0
  9
$DIMTIX
 70
     0
  9
$DIMSOXD
 70
     0
  9
$DIMSAH
 70
     0
  9
$DIMBLK1
  1

  9
$DIMBLK2
  1

  9
$DIMSTYLE
  2
STANDARD
  9
$DIMCLRD
 70
     0
  9
$DIMCLRE
 70
     0
  9
$DIMCLRT
 70
     0
  9
$DIMTFAC
 40
1.0
  9
$DIMGAP
 40
0.09
  9
$LUNITS
 70
     2
  9
$LUPREC
 70
     4
  9
$SKETCHINC
 40
0.1
  9
$FILLETRAD
 40
2.0
  9
$AUNITS
 70
     0
  9
$AUPREC
 70
     0
  9
$MENU
  1
ACAD
  9
$ELEVATION
 40
0.0
  9
$PELEVATION
 40
0.0
  9
$THICKNESS
 40
0.0
  9
$LIMCHECK
 70
     0
  9
$BLIPMODE
 70
     0
  9
$CHAMFERA
 40
0.0
  9
$CHAMFERB
 40
0.0
  9
$SKPOLY
 70
     0
  9
$TDCREATE
 40
2452094.745603356
  9
$TDUPDATE
 40
2452094.747016551
  9
$TDINDWG
 40
0.0014253472
  9
$TDUSRTIMER
 40
0.0014253472
  9
$USRTIMER
 70
     1
  9
$ANGBASE
 50
0.0
  9
$ANGDIR
 70
     0
  9
$PDMODE
 70
     0
  9
$PDSIZE
 40
0.0
  9
$PLINEWID
 40
0.0
  9
$COORDS
 70
     1
  9
$SPLFRAME
 70
     0
  9
$SPLINETYPE
 70
     6
  9
$SPLINESEGS
 70
     8
  9
$ATTDIA
 70
     0
  9
$ATTREQ
 70
     1
  9
$HANDLING
 70
 10241
  9
$HANDSEED
  5
1DB
  9
$SURFTAB1
 70
     6
  9
$SURFTAB2
 70
     6
  9
$SURFTYPE
 70
     6
  9
$SURFU
 70
     6
  9
$SURFV
 70
     6
  9
$UCSNAME
  2

  9
$UCSORG
 10
0.0
 20
0.0
 30
0.0
  9
$UCSXDIR
 10
1.0
 20
0.0
 30
0.0
  9
$UCSYDIR
 10
0.0
 20
1.0
 30
0.0
  9
$PUCSNAME
  2

  9
$PUCSORG
 10
0.0
 20
0.0
 30
0.0
  9
$PUCSXDIR
 10
1.0
 20
0.0
 30
0.0
  9
$PUCSYDIR
 10
0.0
 20
1.0
 30
0.0
  9
$USERI1
 70
     0
  9
$USERI2
 70
     0
  9
$USERI3
 70
     0
  9
$USERI4
 70
     0
  9
$USERI5
 70
     0
  9
$USERR1
 40
0.0
  9
$USERR2
 40
0.0
  9
$USERR3
 40
0.0
  9
$USERR4
 40
0.0
  9
$USERR5
 40
0.0
  9
$WORLDVIEW
 70
     1
  9
$SHADEDGE
 70
     3
  9
$SHADEDIF
 70
    70
  9
$TILEMODE
 70
     1
  9
$MAXACTVP
 70
    64
  9
$PLIMCHECK
 70
     0
  9
$PEXTMIN
 10
1.0000000000000000E+020
 20
1.0000000000000000E+020
 30
1.0000000000000000E+020
  9
$PEXTMAX
 10
-1.0000000000000000E+020
 20
-1.0000000000000000E+020
 30
-1.0000000000000000E+020
  9
$PLIMMIN
 10
0.0
 20
0.0
  9
$PLIMMAX
 10
12.0
 20
9.0
  9
$UNITMODE
 70
     0
  9
$VISRETAIN
 70
     1
  9
$PLINEGEN
 70
     0
  9
$PSLTSCALE
 70
     1
  0
ENDSEC
  0
SECTION
  2
TABLES
  0
TABLE
  2
VPORT
 70
     2
  0
VPORT
  2
*ACTIVE
 70
     0
 10
0.0
 20
0.0
 11
1.0
 21
1.0
 12
131.12837874910559
 22
-295.79509346061292
 13
0.0
 23
0.0
 14
1.0
 24
1.0
 15
0.0
 25
0.0
 16
0.0
 26
0.0
 36
1.0
 17
0.0
 27
0.0
 37
0.0
 40
9.0000005367594547
 41
2.5693779904306222
 42
50.0
 43
0.0
 44
0.0
 50
0.0
 51
0.0
 71
     0
 72
   100
 73
     1
 74
     1
 75
     0
 76
     0
 77
     0
 78
     0
  0
ENDTAB
  0
TABLE
  2
LTYPE
 70
     9
  0
LTYPE
  2
CONTINUOUS
 70
     0
  3
Solid line
 72
    65
 73
     0
 40
0.0
  0
LTYPE
  2
BORDER
 70
     0
  3
__ __ . __ __ .
 72
    65
 73
     6
 40
13.43462374570341
 49
3.8384639273438319
 49
-1.919231963671916
 49
3.8384639273438319
 49
-1.919231963671916
 49
0.0
 49
-1.919231963671916
  0
LTYPE
  2
CENTER
 70
     0
  3
____ _ ____ _
 72
    65
 73
     4
 40
15.353855709375329
 49
9.5961598183595793
 49
-1.919231963671916
 49
1.919231963671916
 49
-1.919231963671916
  0
LTYPE
  2
DASHDOT
 70
     0
  3
__ . __ . __ .
 72
    65
 73
     4
 40
7.6769278546876638
 49
3.8384639273438319
 49
-1.919231963671916
 49
0.0
 49
-1.919231963671916
  0
LTYPE
  2
DASHED
 70
     0
  3
__ __ __ __ __
 72
    65
 73
     2
 40
5.7576958910157456
 49
3.8384639273438319
 49
-1.919231963671916
  0
LTYPE
  2
DIVIDE
 70
     0
  3
__ . . __ . . 
 72
    65
 73
     6
 40
9.5961598183595793
 49
3.8384639273438319
 49
-1.919231963671916
 49
0.0
 49
-1.919231963671916
 49
0.0
 49
-1.919231963671916
  0
LTYPE
  2
DOT
 70
     0
  3
..............
 72
    65
 73
     4
 40
3.8384639273438319
 49
0.0
 49
-1.919231963671916
 49
0.0
 49
-1.919231963671916
  0
LTYPE
  2
HIDDEN
 70
     0
  3
_ _ _ _ _ _ _
 72
    65
 73
     2
 40
2.8788479455078728
 49
1.919231963671916
 49
-0.9596159818359579
  0
LTYPE
  2
PHANTOM
 70
     0
  3
_____ _ _ _____ _ _ 
 72
    65
 73
     6
 40
19.192319636719152
 49
9.5961598183595793
 49
-1.919231963671916
 49
1.919231963671916
 49
-1.919231963671916
 49
1.919231963671916
 49
-1.919231963671916
  0
ENDTAB
  0
TABLE
  2
LAYER
 70
     2
  0
LAYER
  2
0
 70
     0
 62
     7
  6
CONTINUOUS
  0
LAYER
  2
1
 70
     0
 62
     7
  6
CONTINUOUS
  0
ENDTAB
  0
TABLE
  2
STYLE
 70
     4
  0
STYLE
  2
STANDARD
 70
     0
 40
0.0
 41
1.0
 50
0.0
 71
     0
 42
3.5
  3
txt
  4

  0
STYLE
  2
SIMPLEX
 70
     0
 40
0.0
 41
1.0
 50
0.0
 71
     0
 42
3.5
  3
simplex
  4

  0
STYLE
  2
COMPLEX
 70
     0
 40
0.0
 41
1.0
 50
0.0
 71
     0
 42
3.5
  3
complex
  4

  0
STYLE
  2
ITALIC
 70
     0
 40
0.0
 41
1.0
 50
0.0
 71
     0
 42
3.5
  3
italic
  4

  0
ENDTAB
  0
TABLE
  2
VIEW
 70
     0
  0
ENDTAB
  0
TABLE
  2
UCS
 70
     0
  0
ENDTAB
  0
TABLE
  2
APPID
 70
     1
  0
APPID
  2
ACAD
 70
     0
  0
ENDTAB
  0
TABLE
  2
DIMSTYLE
 70
     1
  0
DIMSTYLE
  2
STANDARD
 70
     0
  3

  4

  5

  6

  7

 40
1.0
 41
0.18
 42
0.0625
 43
0.38
 44
0.18
 45
0.0
 46
0.0
 47
0.0
 48
0.0
140
0.18
141
0.09
142
0.0
143
25.399999999999999
144
1.0
145
0.0
146
1.0
147
0.09
 71
     0
 72
     0
 73
     1
 74
     1
 75
     0
 76
     0
 77
     0
 78
     0
170
     0
171
     2
172
     0
173
     0
174
     0
175
     0
176
     0
177
     0
178
     0
  0
ENDTAB
  0
ENDSEC
  0
SECTION
  2
BLOCKS
  0
BLOCK
  8
0
  2
$MODEL_SPACE
 70
     0
 10
0.0
 20
0.0
 30
0.0
  3
$MODEL_SPACE
  1

  0
ENDBLK
  5
20
  8
0
  0
BLOCK
 67
     1
  8
0
  2
$PAPER_SPACE
 70
     0
 10
0.0
 20
0.0
 30
0.0
  3
$PAPER_SPACE
  1

  0
ENDBLK
  5
1C
 67
     1
  8
0
  0
ENDSEC
  0
SECTION
  2
ENTITIES
  0
POINT
  5
33
  8
1
  6
DOT
 62
     7
 10
388.96970880955803
 20
-357.51863935971511
 30
0.0
  0
POINT
  5
34
  8
1
  6
DOT
 62
     7
 10
310.26174417647019
 20
-419.20377779124181
 30
0.0
  0
POINT
  5
35
  8
1
  6
DOT
 62
     7
 10
344.56400908491747
 20
-382.81773031460881
 30
0.0
  0
POINT
  5
36
  8
1
  6
DOT
 62
     7
 10
389.9209167371838
 20
-429.37025196082561
 30
0.0
  0
POINT
  5
37
  8
1
  6
DOT
 62
     7
 10
309.31053624884441
 20
-347.3521651901313
 30
0.0
  0
LINE
  5
38
  8
1
 62
     7
 10
258.78045243720487
 20
-395.86120857547849
 30
0.0
 11
230.78045243720501
 21
-395.86120857547849
 31
0.0
  0
LINE
  5
39
  8
1
 62
     7
 10
230.78045243720501
 20
-380.86120857547849
 30
0.0
 11
258.78045243720487
 21
-380.86120857547849
 31
0.0
  0
LINE
  5
3A
  8
1
 62
     7
 10
258.78045243720487
 20
-378.86120857547849
 30
0.0
 11
230.78045243720501
 21
-378.86120857547849
 31
0.0
  0
LINE
  5
3B
  8
1
 62
     7
 10
352.11572649301422
 20
-378.86120857547849
 30
0.0
 11
352.11572649301422
 21
-381.2901407636129
 31
0.0
  0
LINE
  5
3C
  8
1
 62
     7
 10
347.11572649301422
 20
-378.86120857547849
 30
0.0
 11
352.11572649301422
 21
-378.86120857547849
 31
0.0
  0
LINE
  5
3D
  8
1
 62
     7
 10
347.11572649301422
 20
-381.2901407636129
 30
0.0
 11
347.11572649301422
 21
-378.86120857547849
 31
0.0
  0
LINE
  5
3E
  8
1
 62
     7
 10
155.63158425699851
 20
-362.36120857547849
 30
0.0
 11
155.63158425699851
 21
-414.36120857547849
 31
0.0
  0
LINE
  5
3F
  8
1
 62
     7
 10
155.63158425699851
 20
-414.36120857547849
 30
0.0
 11
154.0315842569986
 21
-414.36120857547849
 31
0.0
  0
LINE
  5
40
  8
1
 62
     7
 10
154.0315842569986
 20
-362.36120857547849
 30
0.0
 11
155.63158425699851
 21
-362.36120857547849
 31
0.0
  0
LINE
  5
41
  8
1
  6
DASHDOT
 62
     3
 10
261.18045243720502
 20
-406.36120857547849
 30
0.0
 11
244.78045243720501
 21
-406.36120857547849
 31
0.0
  0
LINE
  5
42
  8
1
 62
     7
 10
247.78045243720501
 20
-404.46120857547851
 30
0.0
 11
258.18045243720502
 21
-404.46120857547851
 31
0.0
  0
LINE
  5
43
  8
1
 62
     7
 10
258.18045243720502
 20
-408.26120857547852
 30
0.0
 11
247.78045243720501
 21
-408.26120857547852
 31
0.0
  0
LINE
  5
44
  8
1
 62
     3
 10
247.78045243720501
 20
-403.86120857547849
 30
0.0
 11
258.18045243720502
 21
-403.86120857547849
 31
0.0
  0
LINE
  5
45
  8
1
 62
     3
 10
258.18045243720502
 20
-408.86120857547849
 30
0.0
 11
247.78045243720501
 21
-408.86120857547849
 31
0.0
  0
LINE
  5
46
  8
1
 62
     7
 10
233.68045243720499
 20
-418.36120857547849
 30
0.0
 11
233.68045243720499
 21
-430.91120857547833
 31
0.0
  0
LINE
  5
47
  8
1
 62
     7
 10
245.48045243720489
 20
-359.36120857547849
 30
0.0
 11
247.480452437205
 21
-359.36120857547849
 31
0.0
  0
LINE
  5
48
  8
1
 62
     7
 10
144.13158425699851
 20
-412.460262269753
 30
0.0
 11
144.13158425699851
 21
-404.460262269753
 31
0.0
  0
LINE
  5
49
  8
1
 62
     7
 10
145.7315842569985
 20
-412.460262269753
 30
0.0
 11
143.33158425699861
 21
-412.460262269753
 31
0.0
  0
LINE
  5
4A
  8
1
 62
     7
 10
143.33158425699861
 20
-404.460262269753
 30
0.0
 11
144.9315842569986
 21
-404.460262269753
 31
0.0
  0
LINE
  5
4B
  8
1
 62
     7
 10
140.33158425699861
 20
-372.19727563107563
 30
0.0
 11
141.33158425699861
 21
-372.19727563107563
 31
0.0
  0
LINE
  5
4C
  8
1
 62
     7
 10
140.33158425699861
 20
-344.19564301184153
 30
0.0
 11
141.33158425699861
 21
-344.19564301184153
 31
0.0
  0
LINE
  5
4D
  8
1
 62
     7
 10
140.33158425699861
 20
-348.98392501840078
 30
0.0
 11
141.33158425699861
 21
-348.98392501840078
 31
0.0
  0
LINE
  5
4E
  8
1
 62
     7
 10
140.33158425699861
 20
-360.07291997809358
 30
0.0
 11
141.33158425699861
 21
-360.07291997809358
 31
0.0
  0
LINE
  5
4F
  8
1
 62
     7
 10
140.33158425699861
 20
-389.18660156836978
 30
0.0
 11
141.33158425699861
 21
-389.18660156836978
 31
0.0
  0
LINE
  5
50
  8
1
 62
     7
 10
140.33158425699861
 20
-402.9739101105406
 30
0.0
 11
141.33158425699861
 21
-402.9739101105406
 31
0.0
  0
LINE
  5
51
  8
1
 62
     7
 10
140.33158425699861
 20
-417.91407260405032
 30
0.0
 11
141.33158425699861
 21
-417.91407260405032
 31
0.0
  0
LINE
  5
52
  8
1
 62
     7
 10
140.33158425699861
 20
-426.91309913966182
 30
0.0
 11
141.33158425699861
 21
-426.91309913966182
 31
0.0
  0
LINE
  5
53
  8
1
 62
     7
 10
140.33158425699861
 20
-432.85887750263572
 30
0.0
 11
141.33158425699861
 21
-432.85887750263572
 31
0.0
  0
LINE
  5
54
  8
1
 62
     7
 10
140.33158425699861
 20
-433.36120857547837
 30
0.0
 11
136.9315842569986
 21
-433.36120857547837
 31
0.0
  0
LINE
  5
55
  8
1
 62
     7
 10
140.33158425699861
 20
-354.85887750263572
 30
0.0
 11
140.33158425699861
 21
-433.36120857547837
 31
0.0
  0
LINE
  5
56
  8
1
 62
     7
 10
140.33158425699861
 20
-354.85887750263572
 30
0.0
 11
140.33158425699861
 21
-343.36120857547849
 31
0.0
  0
LINE
  5
57
  8
1
 62
     7
 10
146.4315842569986
 20
-404.09039386621009
 30
0.0
 11
146.4315842569986
 21
-379.11130661329599
 31
0.0
  0
LINE
  5
58
  8
1
 62
     7
 10
148.33158425699861
 20
-414.23387750263578
 30
0.0
 11
148.68164664005459
 21
-414.23387750263578
 31
0.0
  0
LINE
  5
59
  8
1
  6
DASHDOT
 62
     3
 10
349.61572649301422
 20
-382.38557794012178
 30
0.0
 11
349.61572649301422
 21
-394.33683921083531
 31
0.0
  0
LINE
  5
5A
  8
1
  6
DASHDOT
 62
     3
 10
355.59135712837087
 20
-388.36120857547849
 30
0.0
 11
343.6400958576574
 21
-388.36120857547849
 31
0.0
  0
LINE
  5
5B
  8
1
 62
     7
 10
136.9315842569986
 20
-433.36120857547837
 30
0.0
 11
136.9315842569986
 21
-343.36120857547849
 31
0.0
  0
LINE
  5
5C
  8
1
 62
     7
 10
143.33158425699861
 20
-433.36120857547837
 30
0.0
 11
141.33158425699861
 21
-433.36120857547837
 31
0.0
  0
LINE
  5
5D
  8
1
 62
     7
 10
148.33158425699861
 20
-415.03387750263579
 30
0.0
 11
146.4315842569986
 21
-415.03387750263579
 31
0.0
  0
LINE
  5
5E
  8
1
 62
     7
 10
148.33158425699861
 20
-414.23387750263578
 30
0.0
 11
148.33158425699861
 21
-415.03387750263579
 31
0.0
  0
LINE
  5
5F
  8
1
 62
     7
 10
136.9315842569986
 20
-343.36120857547849
 30
0.0
 11
140.33158425699861
 21
-343.36120857547849
 31
0.0
  0
LINE
  5
60
  8
1
 62
     7
 10
141.33158425699861
 20
-343.36120857547849
 30
0.0
 11
143.33158425699861
 21
-343.36120857547849
 31
0.0
  0
LINE
  5
61
  8
1
 62
     7
 10
380.15573666855607
 20
-377.24555391739432
 30
0.0
 11
381.56527559973512
 21
-376.73252370240567
 31
0.0
  0
LINE
  5
62
  8
1
 62
     7
 10
324.71928209164741
 20
-367.47061126066592
 30
0.0
 11
323.57021542696901
 21
-366.50642984613631
 31
0.0
  0
LINE
  5
63
  8
1
 62
     7
 10
343.97216071883878
 20
-420.36746054837511
 30
0.0
 11
343.71168845233842
 21
-421.84467217789359
 31
0.0
  0
LINE
  5
64
  8
1
 62
     7
 10
339.00414564381077
 20
-348.7582496976267
 30
0.0
 11
340.88869915560912
 21
-355.50030484700233
 31
0.0
  0
LINE
  5
65
  8
1
 62
     7
 10
320.62434846436582
 20
-417.35258660412683
 30
0.0
 11
325.52086274154141
 21
-412.34948781343058
 31
0.0
  0
LINE
  5
66
  8
1
 62
     7
 10
389.21868537086601
 20
-398.97278942468171
 30
0.0
 11
382.4376175818918
 21
-397.2338330660026
 31
0.0
  0
LINE
  5
67
  8
1
 62
     7
 10
351.36572649301422
 20
-370.62370857547847
 30
0.0
 11
351.36572649301422
 21
-370.0987085754785
 31
0.0
  0
LINE
  5
68
  8
1
 62
     7
 10
349.87822649301421
 20
-368.61120857547849
 30
0.0
 11
349.35322649301418
 21
-368.61120857547849
 31
0.0
  0
LINE
  5
69
  8
1
 62
     7
 10
347.86572649301422
 20
-370.0987085754785
 30
0.0
 11
347.86572649301422
 21
-370.62370857547847
 31
0.0
  0
LINE
  5
6A
  8
1
 62
     7
 10
349.35322649301418
 20
-372.11120857547849
 30
0.0
 11
349.87822649301421
 21
-372.11120857547849
 31
0.0
  0
LINE
  5
6B
  8
1
  6
DASHDOT
 62
     3
 10
369.96732348194843
 20
-376.61120857547849
 30
0.0
 11
360.4410440403197
 21
-382.11120857547849
 31
0.0
  0
LINE
  5
6C
  8
1
  6
DASHDOT
 62
     3
 10
329.26412950407979
 20
-376.61120857547849
 30
0.0
 11
338.79040894570858
 21
-382.11120857547849
 31
0.0
  0
LINE
  5
6D
  8
1
  6
DASHDOT
 62
     3
 10
349.61572649301422
 20
-411.86120857547849
 30
0.0
 11
349.61572649301422
 21
-400.86120857547849
 31
0.0
  0
LINE
  5
6E
  8
1
 62
     7
 10
333.37960089338782
 20
-395.71441411885559
 30
0.0
 11
332.92493755640089
 21
-395.97691411885569
 31
0.0
  0
LINE
  5
6F
  8
1
 62
     7
 10
332.3804747682716
 20
-398.00887690698511
 30
0.0
 11
332.64297476827159
 21
-398.46354024397181
 31
0.0
  0
LINE
  5
70
  8
1
 62
     7
 10
334.67493755640089
 20
-399.00800303210121
 30
0.0
 11
335.12960089338782
 21
-398.74550303210123
 31
0.0
  0
LINE
  5
71
  8
1
 62
     7
 10
335.67406368151711
 20
-396.71354024397181
 30
0.0
 11
335.41156368151712
 21
-396.25887690698511
 31
0.0
  0
LINE
  5
72
  8
1
 62
     7
 10
364.10185209264063
 20
-398.74550303210128
 30
0.0
 11
364.55651542962732
 21
-399.00800303210121
 31
0.0
  0
LINE
  5
73
  8
1
 62
     7
 10
366.5884782177568
 20
-398.46354024397181
 30
0.0
 11
366.85097821775668
 21
-398.00887690698511
 31
0.0
  0
LINE
  5
74
  8
1
 62
     7
 10
366.30651542962732
 20
-395.97691411885569
 30
0.0
 11
365.85185209264063
 21
-395.71441411885559
 31
0.0
  0
LINE
  5
75
  8
1
 62
     7
 10
363.81988930451132
 20
-396.25887690698511
 30
0.0
 11
363.55738930451128
 21
-396.71354024397181
 31
0.0
  0
LINE
  5
76
  8
1
 62
     7
 10
233.68045243720499
 20
-345.81120857547847
 30
0.0
 11
213.78045243720501
 21
-345.81120857547847
 31
0.0
  0
LINE
  5
77
  8
1
 62
     7
 10
209.78045243720501
 20
-340.61120857547849
 30
0.0
 11
211.78045243720501
 21
-340.61120857547849
 31
0.0
  0
LINE
  5
78
  8
1
 62
     7
 10
209.78045243720501
 20
-336.11120857547849
 30
0.0
 11
211.78045243720501
 21
-336.11120857547849
 31
0.0
  0
LINE
  5
79
  8
1
  6
DASHDOT
 62
     3
 10
207.60615654124109
 20
-338.36120857547849
 30
0.0
 11
213.8690558484609
 21
-338.36120857547849
 31
0.0
  0
LINE
  5
7A
  8
1
 62
     7
 10
209.78045243720501
 20
-330.86120857547849
 30
0.0
 11
211.78045243720501
 21
-330.86120857547849
 31
0.0
  0
LINE
  5
7B
  8
1
 62
     7
 10
209.78045243720501
 20
-430.86120857547849
 30
0.0
 11
211.78045243720501
 21
-430.86120857547849
 31
0.0
  0
LINE
  5
7C
  8
1
 62
     7
 10
209.78045243720501
 20
-411.36120857547849
 30
0.0
 11
211.78045243720501
 21
-411.36120857547849
 31
0.0
  0
LINE
  5
7D
  8
1
 62
     7
 10
209.78045243720501
 20
-365.36120857547849
 30
0.0
 11
211.78045243720501
 21
-365.36120857547849
 31
0.0
  0
LINE
  5
7E
  8
1
 62
     7
 10
211.78045243720501
 20
-330.86120857547849
 30
0.0
 11
211.78045243720501
 21
-430.86120857547849
 31
0.0
  0
LINE
  5
7F
  8
1
 62
     7
 10
209.78045243720501
 20
-430.86120857547849
 30
0.0
 11
209.78045243720501
 21
-330.86120857547849
 31
0.0
  0
LINE
  5
80
  8
1
 62
     7
 10
211.78045243720501
 20
-428.91120857547833
 30
0.0
 11
213.78045243720501
 21
-430.91120857547833
 31
0.0
  0
LINE
  5
81
  8
1
 62
     7
 10
228.78045243720501
 20
-433.36120857547849
 30
0.0
 11
227.78045243720501
 21
-432.36120857547849
 31
0.0
  0
LINE
  5
82
  8
1
 62
     7
 10
235.28045243720501
 20
-418.36120857547849
 30
0.0
 11
235.28045243720501
 21
-431.16120857547833
 31
0.0
  0
LINE
  5
83
  8
1
 62
     7
 10
235.28045243720501
 20
-431.16120857547833
 30
0.0
 11
227.78045243720501
 21
-431.16120857547833
 31
0.0
  0
LINE
  5
84
  8
1
 62
     7
 10
227.78045243720501
 20
-432.36120857547849
 30
0.0
 11
227.78045243720501
 21
-431.16120857547833
 31
0.0
  0
LINE
  5
85
  8
1
 62
     7
 10
228.78045243720501
 20
-433.36120857547849
 30
0.0
 11
240.78045243720501
 21
-433.36120857547849
 31
0.0
  0
LINE
  5
86
  8
1
 62
     7
 10
238.78045243720501
 20
-417.36120857547849
 30
0.0
 11
240.78045243720501
 21
-417.36120857547849
 31
0.0
  0
LINE
  5
87
  8
1
 62
     7
 10
233.28045243720501
 20
-418.36120857547849
 30
0.0
 11
235.28045243720501
 21
-418.36120857547849
 31
0.0
  0
LINE
  5
88
  8
1
 62
     7
 10
233.28045243720501
 20
-415.36120857547849
 30
0.0
 11
233.28045243720501
 21
-418.36120857547849
 31
0.0
  0
LINE
  5
89
  8
1
 62
     7
 10
213.78045243720501
 20
-430.91120857547833
 30
0.0
 11
233.68045243720499
 21
-430.91120857547833
 31
0.0
  0
LINE
  5
8A
  8
1
 62
     7
 10
234.980452437205
 20
-415.36120857547849
 30
0.0
 11
233.28045243720501
 21
-415.36120857547849
 31
0.0
  0
LINE
  5
8B
  8
1
 62
     7
 10
218.68045243720499
 20
-411.76120857547852
 30
0.0
 11
211.78045243720501
 21
-411.76120857547852
 31
0.0
  0
LINE
  5
8C
  8
1
 62
     7
 10
224.58045243720491
 20
-405.86120857547849
 30
0.0
 11
218.68045243720499
 21
-411.76120857547852
 31
0.0
  0
LINE
  5
8D
  8
1
 62
     7
 10
238.78045243720501
 20
-405.86120857547849
 30
0.0
 11
224.58045243720491
 21
-405.86120857547849
 31
0.0
  0
LINE
  5
8E
  8
1
 62
     7
 10
218.68045243720499
 20
-364.96120857547851
 30
0.0
 11
218.68045243720499
 21
-411.76120857547852
 31
0.0
  0
LINE
  5
8F
  8
1
 62
     7
 10
224.58045243720491
 20
-370.86120857547849
 30
0.0
 11
238.78045243720501
 21
-370.86120857547849
 31
0.0
  0
LINE
  5
90
  8
1
 62
     7
 10
218.68045243720499
 20
-364.96120857547851
 30
0.0
 11
224.58045243720491
 21
-370.86120857547849
 31
0.0
  0
LINE
  5
91
  8
1
 62
     7
 10
211.78045243720501
 20
-364.96120857547851
 30
0.0
 11
218.68045243720499
 21
-364.96120857547851
 31
0.0
  0
LINE
  5
92
  8
1
 62
     7
 10
233.68045243720499
 20
-345.81120857547847
 30
0.0
 11
233.68045243720499
 21
-358.36120857547849
 31
0.0
  0
LINE
  5
93
  8
1
 62
     7
 10
234.980452437205
 20
-361.36120857547849
 30
0.0
 11
234.980452437205
 21
-373.36120857547849
 31
0.0
  0
LINE
  5
94
  8
1
 62
     7
 10
233.28045243720501
 20
-361.36120857547849
 30
0.0
 11
234.980452437205
 21
-361.36120857547849
 31
0.0
  0
LINE
  5
95
  8
1
 62
     7
 10
233.28045243720501
 20
-358.36120857547849
 30
0.0
 11
233.28045243720501
 21
-361.36120857547849
 31
0.0
  0
LINE
  5
96
  8
1
 62
     7
 10
235.28045243720501
 20
-358.36120857547849
 30
0.0
 11
233.28045243720501
 21
-358.36120857547849
 31
0.0
  0
LINE
  5
97
  8
1
 62
     7
 10
240.78045243720501
 20
-343.36120857547849
 30
0.0
 11
240.78045243720501
 21
-373.36120857547849
 31
0.0
  0
LINE
  5
98
  8
1
 62
     7
 10
240.78045243720501
 20
-359.36120857547849
 30
0.0
 11
238.78045243720501
 21
-359.36120857547849
 31
0.0
  0
LINE
  5
99
  8
1
 62
     7
 10
238.78045243720501
 20
-359.36120857547849
 30
0.0
 11
238.78045243720501
 21
-373.36120857547849
 31
0.0
  0
LINE
  5
9A
  8
1
 62
     7
 10
240.78045243720501
 20
-343.36120857547849
 30
0.0
 11
228.78045243720501
 21
-343.36120857547849
 31
0.0
  0
LINE
  5
9B
  8
1
 62
     7
 10
227.78045243720501
 20
-345.56120857547847
 30
0.0
 11
227.78045243720501
 21
-344.36120857547849
 31
0.0
  0
LINE
  5
9C
  8
1
 62
     7
 10
227.78045243720501
 20
-345.56120857547847
 30
0.0
 11
235.28045243720501
 21
-345.56120857547847
 31
0.0
  0
LINE
  5
9D
  8
1
 62
     7
 10
235.28045243720501
 20
-345.56120857547847
 30
0.0
 11
235.28045243720501
 21
-358.36120857547849
 31
0.0
  0
LINE
  5
9E
  8
1
 62
     7
 10
227.78045243720501
 20
-344.36120857547849
 30
0.0
 11
228.78045243720501
 21
-343.36120857547849
 31
0.0
  0
LINE
  5
9F
  8
1
 62
     7
 10
213.78045243720501
 20
-345.81120857547847
 30
0.0
 11
211.78045243720501
 21
-347.81120857547847
 31
0.0
  0
LINE
  5
A0
  8
1
 62
     7
 10
220.28045243720501
 20
-324.80311012513221
 30
0.0
 11
220.28045243720501
 21
-345.81120857547847
 31
0.0
  0
LINE
  5
A1
  8
1
 62
     7
 10
224.58045243720491
 20
-370.86120857547849
 30
0.0
 11
224.58045243720491
 21
-405.86120857547849
 31
0.0
  0
LINE
  5
A2
  8
1
 62
     7
 10
238.78045243720501
 20
-403.3612085754786
 30
0.0
 11
238.78045243720501
 21
-417.36120857547849
 31
0.0
  0
LINE
  5
A3
  8
1
 62
     7
 10
244.480452437205
 20
-432.86120857547849
 30
0.0
 11
245.48045243720489
 21
-432.86120857547849
 31
0.0
  0
LINE
  5
A4
  8
1
 62
     7
 10
244.480452437205
 20
-417.86120857547849
 30
0.0
 11
245.48045243720489
 21
-417.86120857547849
 31
0.0
  0
LINE
  5
A5
  8
1
 62
     7
 10
245.48045243720489
 20
-343.36120857547849
 30
0.0
 11
247.480452437205
 21
-343.36120857547849
 31
0.0
  0
LINE
  5
A6
  8
1
 62
     7
 10
230.78045243720501
 20
-388.36120857547849
 30
0.0
 11
230.78045243720501
 21
-401.36120857547849
 31
0.0
  0
LINE
  5
A7
  8
1
 62
     7
 10
245.48045243720489
 20
-403.3612085754786
 30
0.0
 11
245.48045243720489
 21
-420.01120857547852
 31
0.0
  0
LINE
  5
A8
  8
1
 62
     7
 10
244.480452437205
 20
-403.3612085754786
 30
0.0
 11
244.480452437205
 21
-420.01120857547852
 31
0.0
  0
LINE
  5
A9
  8
1
 62
     7
 10
241.08045243720491
 20
-403.3612085754786
 30
0.0
 11
241.08045243720491
 21
-433.36120857547849
 31
0.0
  0
LINE
  5
AA
  8
1
 62
     7
 10
258.18045243720502
 20
-411.61120857547849
 30
0.0
 11
247.78045243720501
 21
-411.61120857547849
 31
0.0
  0
LINE
  5
AB
  8
1
 62
     7
 10
257.28045243720487
 20
-411.61120857547849
 30
0.0
 11
257.28045243720487
 21
-420.36120857547849
 31
0.0
  0
LINE
  5
AC
  8
1
 62
     7
 10
258.18045243720502
 20
-414.36120857547849
 30
0.0
 11
258.18045243720502
 21
-402.3612085754786
 31
0.0
  0
LINE
  5
AD
  8
1
 62
     7
 10
259.78045243720487
 20
-414.3612085754786
 30
0.0
 11
258.18045243720502
 21
-414.36120857547849
 31
0.0
  0
LINE
  5
AE
  8
1
 62
     7
 10
258.78045243720487
 20
-402.3612085754786
 30
0.0
 11
258.78045243720487
 21
-374.36120857547849
 31
0.0
  0
LINE
  5
AF
  8
1
 62
     7
 10
247.78045243720501
 20
-401.36120857547849
 30
0.0
 11
230.78045243720501
 21
-401.36120857547849
 31
0.0
  0
LINE
  5
B0
  8
1
 62
     7
 10
259.78045243720487
 20
-414.3612085754786
 30
0.0
 11
259.78045243720487
 21
-362.36120857547849
 31
0.0
  0
LINE
  5
B1
  8
1
 62
     7
 10
230.78045243720501
 20
-375.36120857547849
 30
0.0
 11
230.78045243720501
 21
-401.36120857547849
 31
0.0
  0
LINE
  5
B2
  8
1
 62
     7
 10
230.78045243720501
 20
-375.36120857547849
 30
0.0
 11
247.78045243720501
 21
-375.36120857547849
 31
0.0
  0
LINE
  5
B3
  8
1
 62
     7
 10
258.18045243720502
 20
-374.36120857547849
 30
0.0
 11
258.18045243720502
 21
-362.36120857547849
 31
0.0
  0
LINE
  5
B4
  8
1
 62
     7
 10
244.5014281114556
 20
-347.86120857547849
 30
0.0
 11
245.18045243720499
 21
-347.86120857547849
 31
0.0
  0
LINE
  5
B5
  8
1
 62
     7
 10
245.48045243720489
 20
-348.16120857547833
 30
0.0
 11
245.48045243720489
 21
-354.5612085754783
 31
0.0
  0
LINE
  5
B6
  8
1
 62
     7
 10
244.5014281114556
 20
-354.86120857547849
 30
0.0
 11
245.18045243720499
 21
-354.86120857547849
 31
0.0
  0
LINE
  5
B7
  8
1
 62
     7
 10
245.48045243720489
 20
-349.36120857547849
 30
0.0
 11
257.080452437205
 21
-349.36120857547849
 31
0.0
  0
LINE
  5
B8
  8
1
 62
     7
 10
257.080452437205
 20
-349.36120857547849
 30
0.0
 11
257.48045243720497
 21
-349.76120857547852
 31
0.0
  0
LINE
  5
B9
  8
1
 62
     7
 10
257.48045243720497
 20
-349.76120857547852
 30
0.0
 11
257.48045243720497
 21
-352.96120857547851
 31
0.0
  0
LINE
  5
BA
  8
1
 62
     7
 10
257.48045243720497
 20
-352.96120857547851
 30
0.0
 11
257.080452437205
 21
-353.36120857547849
 31
0.0
  0
LINE
  5
BB
  8
1
 62
     7
 10
257.080452437205
 20
-353.36120857547849
 30
0.0
 11
245.48045243720489
 21
-353.36120857547849
 31
0.0
  0
LINE
  5
BC
  8
1
 62
     3
 10
257.080452437205
 20
-349.36120857547849
 30
0.0
 11
257.080452437205
 21
-353.36120857547849
 31
0.0
  0
LINE
  5
BD
  8
1
 62
     3
 10
257.48045243720497
 20
-349.76120857547852
 30
0.0
 11
246.67327276023249
 21
-349.76120857547852
 31
0.0
  0
LINE
  5
BE
  8
1
 62
     3
 10
246.67327276023249
 20
-349.76120857547852
 30
0.0
 11
245.98045243720489
 21
-349.36120857547849
 31
0.0
  0
LINE
  5
BF
  8
1
 62
     3
 10
257.48045243720497
 20
-352.96120857547851
 30
0.0
 11
246.67327276023249
 21
-352.96120857547851
 31
0.0
  0
LINE
  5
C0
  8
1
 62
     3
 10
246.67327276023249
 20
-352.96120857547851
 30
0.0
 11
245.98045243720489
 21
-353.36120857547849
 31
0.0
  0
LINE
  5
C1
  8
1
 62
     3
 10
246.67327276023249
 20
-349.36120857547849
 30
0.0
 11
246.67327276023249
 21
-353.36120857547849
 31
0.0
  0
LINE
  5
C2
  8
1
 62
     7
 10
241.08045243720491
 20
-343.36120857547849
 30
0.0
 11
244.480452437205
 21
-343.36120857547849
 31
0.0
  0
LINE
  5
C3
  8
1
 62
     7
 10
247.480452437205
 20
-343.36120857547849
 30
0.0
 11
247.480452437205
 21
-349.36120857547849
 31
0.0
  0
LINE
  5
C4
  8
1
 62
     7
 10
247.480452437205
 20
-353.36120857547849
 30
0.0
 11
247.480452437205
 21
-360.9401592143837
 31
0.0
  0
LINE
  5
C5
  8
1
 62
     7
 10
245.48045243720489
 20
-343.36120857547849
 30
0.0
 11
245.48045243720489
 21
-373.36120857547849
 31
0.0
  0
LINE
  5
C6
  8
1
 62
     7
 10
241.08045243720491
 20
-347.36120857547849
 30
0.0
 11
244.480452437205
 21
-347.36120857547849
 31
0.0
  0
LINE
  5
C7
  8
1
 62
     7
 10
241.08045243720491
 20
-355.36120857547849
 30
0.0
 11
244.480452437205
 21
-355.36120857547849
 31
0.0
  0
LINE
  5
C8
  8
1
 62
     7
 10
241.08045243720491
 20
-359.36120857547849
 30
0.0
 11
244.5014281114556
 21
-359.36120857547849
 31
0.0
  0
LINE
  5
C9
  8
1
 62
     7
 10
244.480452437205
 20
-343.36120857547849
 30
0.0
 11
244.480452437205
 21
-347.86120857547849
 31
0.0
  0
LINE
  5
CA
  8
1
 62
     7
 10
244.5014281114556
 20
-354.86120857547849
 30
0.0
 11
244.5014281114556
 21
-373.36120857547849
 31
0.0
  0
LINE
  5
CB
  8
1
 62
     7
 10
248.28045243720501
 20
-347.36120857547849
 30
0.0
 11
248.28045243720501
 21
-349.36120857547849
 31
0.0
  0
LINE
  5
CC
  8
1
 62
     7
 10
247.480452437205
 20
-355.36120857547849
 30
0.0
 11
251.88045243720501
 21
-355.36120857547849
 31
0.0
  0
LINE
  5
CD
  8
1
 62
     7
 10
247.78045243720501
 20
-365.11120857547849
 30
0.0
 11
258.18045243720502
 21
-365.11120857547849
 31
0.0
  0
LINE
  5
CE
  8
1
 62
     7
 10
249.88045243720501
 20
-347.36120857547849
 30
0.0
 11
249.88045243720501
 21
-349.36120857547849
 31
0.0
  0
LINE
  5
CF
  8
1
 62
     7
 10
249.88045243720501
 20
-353.36120857547849
 30
0.0
 11
249.88045243720501
 21
-355.36120857547849
 31
0.0
  0
LINE
  5
D0
  8
1
 62
     7
 10
251.88045243720501
 20
-355.36120857547849
 30
0.0
 11
251.88045243720501
 21
-359.36120857547849
 31
0.0
  0
LINE
  5
D1
  8
1
 62
     7
 10
252.78045243720501
 20
-359.86120857547849
 30
0.0
 11
252.78045243720501
 21
-365.11120857547849
 31
0.0
  0
LINE
  5
D2
  8
1
 62
     7
 10
248.28045243720501
 20
-353.36120857547849
 30
0.0
 11
248.28045243720501
 21
-355.36120857547849
 31
0.0
  0
LINE
  5
D3
  8
1
 62
     7
 10
257.28045243720487
 20
-348.35996091435629
 30
0.0
 11
256.23051482026102
 21
-347.36120857547849
 31
0.0
  0
LINE
  5
D4
  8
1
 62
     7
 10
247.78045243720501
 20
-362.98620857547849
 30
0.0
 11
247.78045243720501
 21
-375.36120857547849
 31
0.0
  0
LINE
  5
D5
  8
1
 62
     7
 10
247.78045243720501
 20
-362.98620857547849
 30
0.0
 11
248.28045243720501
 21
-362.48620857547849
 31
0.0
  0
LINE
  5
D6
  8
1
 62
     7
 10
257.28045243720487
 20
-365.11120857547849
 30
0.0
 11
257.28045243720487
 21
-353.1612085754785
 31
0.0
  0
LINE
  5
D7
  8
1
 62
     7
 10
249.080452437205
 20
-347.36120857547849
 30
0.0
 11
249.080452437205
 21
-349.36120857547849
 31
0.0
  0
LINE
  5
D8
  8
1
 62
     7
 10
249.080452437205
 20
-353.36120857547849
 30
0.0
 11
249.080452437205
 21
-355.36120857547849
 31
0.0
  0
LINE
  5
D9
  8
1
 62
     7
 10
247.480452437205
 20
-356.86120857547849
 30
0.0
 11
247.98045243720489
 21
-356.86120857547849
 31
0.0
  0
LINE
  5
DA
  8
1
 62
     7
 10
250.78045243720501
 20
-361.6862085754783
 30
0.0
 11
252.480452437205
 21
-361.6862085754783
 31
0.0
  0
LINE
  5
DB
  8
1
 62
     7
 10
252.480452437205
 20
-361.6862085754783
 30
0.0
 11
252.480452437205
 21
-362.48620857547849
 31
0.0
  0
LINE
  5
DC
  8
1
 62
     7
 10
247.480452437205
 20
-357.66120857547838
 30
0.0
 11
247.98045243720489
 21
-357.66120857547838
 31
0.0
  0
LINE
  5
DD
  8
1
 62
     7
 10
250.580452437205
 20
-361.36120857547849
 30
0.0
 11
250.580452437205
 21
-355.86120857547849
 31
0.0
  0
LINE
  5
DE
  8
1
 62
     7
 10
249.78045243720501
 20
-358.36120857547849
 30
0.0
 11
250.580452437205
 21
-358.36120857547849
 31
0.0
  0
LINE
  5
DF
  8
1
 62
     7
 10
250.580452437205
 20
-415.36120857547849
 30
0.0
 11
250.04263470903609
 21
-415.36120857547849
 31
0.0
  0
LINE
  5
E0
  8
1
 62
     7
 10
247.480452437205
 20
-417.36120857547849
 30
0.0
 11
245.48045243720489
 21
-417.36120857547849
 31
0.0
  0
LINE
  5
E1
  8
1
 62
     7
 10
247.98045243720489
 20
-419.0612085754783
 30
0.0
 11
247.480452437205
 21
-419.0612085754783
 31
0.0
  0
LINE
  5
E2
  8
1
 62
     7
 10
252.480452437205
 20
-414.23620857547849
 30
0.0
 11
252.480452437205
 21
-415.03620857547838
 31
0.0
  0
LINE
  5
E3
  8
1
 62
     7
 10
249.78045243720501
 20
-416.03620857547833
 30
0.0
 11
249.78045243720501
 21
-429.36120857547849
 31
0.0
  0
LINE
  5
E4
  8
1
 62
     7
 10
247.98045243720489
 20
-419.86120857547849
 30
0.0
 11
247.480452437205
 21
-419.86120857547849
 31
0.0
  0
LINE
  5
E5
  8
1
 62
     7
 10
248.28045243720501
 20
-414.23620857547849
 30
0.0
 11
247.78045243720501
 21
-413.73620857547849
 31
0.0
  0
LINE
  5
E6
  8
1
 62
     7
 10
247.78045243720501
 20
-413.73620857547849
 30
0.0
 11
247.78045243720501
 21
-401.36120857547849
 31
0.0
  0
LINE
  5
E7
  8
1
 62
     7
 10
252.78045243720501
 20
-411.61120857547849
 30
0.0
 11
252.78045243720501
 21
-416.86120857547849
 31
0.0
  0
LINE
  5
E8
  8
1
 62
     7
 10
251.88045243720501
 20
-417.36120857547849
 30
0.0
 11
251.88045243720501
 21
-421.36120857547849
 31
0.0
  0
LINE
  5
E9
  8
1
 62
     7
 10
244.480452437205
 20
-417.36120857547849
 30
0.0
 11
241.08045243720491
 21
-417.36120857547849
 31
0.0
  0
LINE
  5
EA
  8
1
 62
     7
 10
247.480452437205
 20
-433.36120857547849
 30
0.0
 11
245.48045243720489
 21
-433.36120857547849
 31
0.0
  0
LINE
  5
EB
  8
1
 62
     7
 10
241.08045243720491
 20
-418.66120857547833
 30
0.0
 11
242.60142811145559
 21
-418.66120857547833
 31
0.0
  0
LINE
  5
EC
  8
1
 62
     7
 10
242.60142811145559
 20
-420.01120857547852
 30
0.0
 11
246.13045243720501
 21
-420.01120857547852
 31
0.0
  0
LINE
  5
ED
  8
1
 62
     7
 10
246.13045243720501
 20
-420.01120857547852
 30
0.0
 11
247.480452437205
 21
-418.66120857547833
 31
0.0
  0
LINE
  5
EE
  8
1
 62
     7
 10
247.480452437205
 20
-424.0612085754783
 30
0.0
 11
246.13045243720501
 21
-422.71120857547851
 31
0.0
  0
LINE
  5
EF
  8
1
 62
     7
 10
246.13045243720501
 20
-422.71120857547851
 30
0.0
 11
242.60142811145559
 21
-422.71120857547851
 31
0.0
  0
LINE
  5
F0
  8
1
 62
     7
 10
242.60142811145559
 20
-424.0612085754783
 30
0.0
 11
241.08045243720491
 21
-424.0612085754783
 31
0.0
  0
LINE
  5
F1
  8
1
 62
     7
 10
241.08045243720491
 20
-426.66120857547838
 30
0.0
 11
242.60142811145559
 21
-426.66120857547838
 31
0.0
  0
LINE
  5
F2
  8
1
 62
     7
 10
242.60142811145559
 20
-428.01120857547852
 30
0.0
 11
246.13045243720501
 21
-428.01120857547852
 31
0.0
  0
LINE
  5
F3
  8
1
 62
     7
 10
246.13045243720501
 20
-428.01120857547852
 30
0.0
 11
247.480452437205
 21
-426.66120857547838
 31
0.0
  0
LINE
  5
F4
  8
1
 62
     7
 10
247.480452437205
 20
-432.0612085754783
 30
0.0
 11
246.13045243720501
 21
-430.71120857547851
 31
0.0
  0
LINE
  5
F5
  8
1
 62
     7
 10
246.13045243720501
 20
-430.71120857547851
 30
0.0
 11
242.60142811145559
 21
-430.71120857547851
 31
0.0
  0
LINE
  5
F6
  8
1
 62
     7
 10
242.60142811145559
 20
-432.0612085754783
 30
0.0
 11
241.08045243720491
 21
-432.0612085754783
 31
0.0
  0
LINE
  5
F7
  8
1
 62
     7
 10
246.13045243720501
 20
-420.01120857547852
 30
0.0
 11
246.13045243720501
 21
-422.71120857547851
 31
0.0
  0
LINE
  5
F8
  8
1
 62
     7
 10
246.13045243720501
 20
-428.01120857547852
 30
0.0
 11
246.13045243720501
 21
-430.71120857547851
 31
0.0
  0
LINE
  5
F9
  8
1
 62
     7
 10
244.480452437205
 20
-422.71120857547851
 30
0.0
 11
244.480452437205
 21
-428.01120857547852
 31
0.0
  0
LINE
  5
FA
  8
1
 62
     7
 10
245.48045243720489
 20
-430.71120857547851
 30
0.0
 11
245.48045243720489
 21
-433.36120857547849
 31
0.0
  0
LINE
  5
FB
  8
1
 62
     7
 10
244.480452437205
 20
-430.71120857547851
 30
0.0
 11
244.480452437205
 21
-433.36120857547849
 31
0.0
  0
LINE
  5
FC
  8
1
 62
     7
 10
245.48045243720489
 20
-422.71120857547851
 30
0.0
 11
245.48045243720489
 21
-428.01120857547852
 31
0.0
  0
LINE
  5
FD
  8
1
 62
     7
 10
241.08045243720491
 20
-373.36120857547849
 30
0.0
 11
241.08045243720491
 21
-343.36120857547849
 31
0.0
  0
LINE
  5
FE
  8
1
 62
     7
 10
234.980452437205
 20
-403.3612085754786
 30
0.0
 11
234.980452437205
 21
-415.36120857547849
 31
0.0
  0
LINE
  5
FF
  8
1
  6
DASHDOT
 62
     3
 10
317.03617371078161
 20
-355.78165579324559
 30
0.0
 11
311.38530406868068
 21
-350.13078615114489
 31
0.0
  0
LINE
  5
100
  8
1
 62
     7
 10
307.11572649301411
 20
-349.63137511340432
 30
0.0
 11
307.11572649301411
 21
-373.57100911772932
 31
0.0
  0
LINE
  5
101
  8
1
 62
     7
 10
310.88589303093988
 20
-345.86120857547849
 30
0.0
 11
334.82552703526522
 21
-345.86120857547849
 31
0.0
  0
LINE
  5
102
  8
1
  6
DASHDOT
 62
     3
 10
317.03617371078138
 20
-420.9407613577111
 30
0.0
 11
311.38530406868068
 21
-426.59163099981203
 31
0.0
  0
LINE
  5
103
  8
1
  6
DASHDOT
 62
     3
 10
382.19527927524689
 20
-420.94076135771132
 30
0.0
 11
387.84614891734782
 21
-426.59163099981203
 31
0.0
  0
LINE
  5
104
  8
1
  6
DASHDOT
 62
     3
 10
382.19527927524712
 20
-355.78165579324582
 30
0.0
 11
387.84614891734782
 21
-350.13078615114489
 31
0.0
  0
LINE
  5
105
  8
1
 62
     7
 10
307.11572649301411
 20
-427.09104203755271
 30
0.0
 11
307.11572649301411
 21
-403.15140803322743
 31
0.0
  0
LINE
  5
106
  8
1
 62
     7
 10
388.3455599550885
 20
-430.86120857547849
 30
0.0
 11
364.40592595076328
 21
-430.86120857547849
 31
0.0
  0
LINE
  5
107
  8
1
 62
     7
 10
392.11572649301422
 20
-349.63137511340432
 30
0.0
 11
392.11572649301422
 21
-373.57100911772932
 31
0.0
  0
LINE
  5
108
  8
1
 62
     7
 10
310.88589303093988
 20
-430.86120857547849
 30
0.0
 11
334.82552703526522
 21
-430.86120857547849
 31
0.0
  0
LINE
  5
109
  8
1
 62
     7
 10
392.11572649301422
 20
-427.09104203755271
 30
0.0
 11
392.11572649301422
 21
-403.1514080332276
 31
0.0
  0
LINE
  5
10A
  8
1
 62
     7
 10
388.3455599550885
 20
-345.86120857547849
 30
0.0
 11
364.40592595076328
 21
-345.86120857547849
 31
0.0
  0
LINE
  5
10B
  8
1
 62
     7
 10
136.63158425699851
 20
-343.36120857547849
 30
0.0
 11
124.63158425699859
 21
-343.36120857547849
 31
0.0
  0
LINE
  5
10C
  8
1
 62
     7
 10
123.63158425699859
 20
-344.36120857547849
 30
0.0
 11
124.63158425699859
 21
-343.36120857547849
 31
0.0
  0
LINE
  5
10D
  8
1
 62
     7
 10
109.63158425699849
 20
-345.81120857547847
 30
0.0
 11
107.63158425699849
 21
-347.81120857547847
 31
0.0
  0
LINE
  5
10E
  8
1
 62
     7
 10
123.63158425699859
 20
-345.81120857547847
 30
0.0
 11
109.63158425699849
 21
-345.81120857547847
 31
0.0
  0
LINE
  5
10F
  8
1
 62
     7
 10
111.13158425699859
 20
-345.81120857547847
 30
0.0
 11
109.63158425699849
 21
-345.81120857547847
 31
0.0
  0
LINE
  5
110
  8
1
 62
     7
 10
105.63158425699849
 20
-330.86120857547849
 30
0.0
 11
107.63158425699849
 21
-330.86120857547849
 31
0.0
  0
LINE
  5
111
  8
1
 62
     7
 10
105.63158425699849
 20
-330.86120857547849
 30
0.0
 11
105.63158425699849
 21
-430.86120857547849
 31
0.0
  0
LINE
  5
112
  8
1
 62
     7
 10
124.63158425699859
 20
-433.36120857547837
 30
0.0
 11
136.63158425699851
 21
-433.36120857547837
 31
0.0
  0
LINE
  5
113
  8
1
 62
     7
 10
123.63158425699859
 20
-432.36120857547832
 30
0.0
 11
123.63158425699859
 21
-344.36120857547849
 31
0.0
  0
LINE
  5
114
  8
1
 62
     7
 10
124.63158425699859
 20
-433.36120857547837
 30
0.0
 11
123.63158425699859
 21
-432.36120857547832
 31
0.0
  0
LINE
  5
115
  8
1
 62
     7
 10
109.63158425699849
 20
-430.91120857547833
 30
0.0
 11
123.63158425699859
 21
-430.91120857547833
 31
0.0
  0
LINE
  5
116
  8
1
 62
     7
 10
107.63158425699849
 20
-428.91120857547833
 30
0.0
 11
109.63158425699849
 21
-430.91120857547833
 31
0.0
  0
LINE
  5
117
  8
1
 62
     7
 10
109.63158425699849
 20
-430.91120857547833
 30
0.0
 11
111.13158425699859
 21
-430.91120857547833
 31
0.0
  0
LINE
  5
118
  8
1
 62
     7
 10
109.63158425699849
 20
-430.91120857547833
 30
0.0
 11
111.13158425699859
 21
-430.91120857547833
 31
0.0
  0
LINE
  5
119
  8
1
 62
     7
 10
107.63158425699849
 20
-430.86120857547849
 30
0.0
 11
105.63158425699849
 21
-430.86120857547849
 31
0.0
  0
LINE
  5
11A
  8
1
 62
     7
 10
136.63158425699851
 20
-433.36120857547837
 30
0.0
 11
136.63158425699851
 21
-343.36120857547849
 31
0.0
  0
LINE
  5
11B
  8
1
 62
     7
 10
107.63158425699849
 20
-430.86120857547849
 30
0.0
 11
107.63158425699849
 21
-330.86120857547849
 31
0.0
  0
LINE
  5
11C
  8
1
 62
     7
 10
105.63158425699849
 20
-427.09104203755271
 30
0.0
 11
107.63158425699849
 21
-427.09104203755271
 31
0.0
  0
LINE
  5
11D
  8
1
 62
     3
 10
105.63158425699849
 20
-388.36120857547849
 30
0.0
 11
102.89246801488299
 21
-388.36120857547849
 31
0.0
  0
LINE
  5
11E
  8
1
 62
     7
 10
218.28045243720501
 20
-324.80311012513221
 30
0.0
 11
220.28045243720501
 21
-324.80311012513221
 31
0.0
  0
LINE
  5
11F
  8
1
 62
     7
 10
218.68045243720499
 20
-321.80311012513221
 30
0.0
 11
218.68045243720499
 21
-324.80311012513221
 31
0.0
  0
LINE
  5
120
  8
1
 62
     7
 10
218.98045243720489
 20
-324.80311012513221
 30
0.0
 11
218.98045243720489
 21
-321.80311012513221
 31
0.0
  0
LINE
  5
121
  8
1
 62
     7
 10
219.580452437205
 20
-321.80311012513221
 30
0.0
 11
219.580452437205
 21
-324.80311012513221
 31
0.0
  0
LINE
  5
122
  8
1
 62
     7
 10
219.88045243720501
 20
-324.80311012513221
 30
0.0
 11
219.88045243720501
 21
-321.80311012513221
 31
0.0
  0
LINE
  5
123
  8
1
 62
     7
 10
347.31572649301421
 20
-324.80311012513221
 30
0.0
 11
349.61572649301422
 21
-324.80311012513221
 31
0.0
  0
LINE
  5
124
  8
1
 62
     7
 10
347.86572649301422
 20
-321.80311012513221
 30
0.0
 11
347.86572649301422
 21
-324.80311012513221
 31
0.0
  0
LINE
  5
125
  8
1
 62
     7
 10
348.16572649301418
 20
-324.80311012513221
 30
0.0
 11
348.16572649301418
 21
-321.80311012513221
 31
0.0
  0
LINE
  5
126
  8
1
 62
     7
 10
348.76572649301431
 20
-321.80311012513221
 30
0.0
 11
348.76572649301431
 21
-324.80311012513221
 31
0.0
  0
LINE
  5
127
  8
1
 62
     7
 10
349.06572649301432
 20
-324.80311012513221
 30
0.0
 11
349.06572649301432
 21
-321.80311012513221
 31
0.0
  0
LINE
  5
128
  8
1
 62
     7
 10
347.31572649301421
 20
-324.80311012513221
 30
0.0
 11
347.31572649301421
 21
-343.42684736246702
 31
0.0
  0
LINE
  5
129
  8
1
 62
     7
 10
348.46572649301419
 20
-324.80311012513221
 30
0.0
 11
348.46572649301419
 21
-321.80311012513221
 31
0.0
  0
LINE
  5
12A
  8
1
 62
     7
 10
349.61572649301422
 20
-324.80311012513221
 30
0.0
 11
351.91572649301418
 21
-324.80311012513221
 31
0.0
  0
LINE
  5
12B
  8
1
 62
     7
 10
351.36572649301422
 20
-324.80311012513221
 30
0.0
 11
351.36572649301422
 21
-321.80311012513221
 31
0.0
  0
LINE
  5
12C
  8
1
 62
     7
 10
351.0657264930141
 20
-321.80311012513221
 30
0.0
 11
351.0657264930141
 21
-324.80311012513221
 31
0.0
  0
LINE
  5
12D
  8
1
 62
     7
 10
350.46572649301419
 20
-324.80311012513221
 30
0.0
 11
350.46572649301419
 21
-321.80311012513221
 31
0.0
  0
LINE
  5
12E
  8
1
 62
     7
 10
350.16572649301418
 20
-321.80311012513221
 30
0.0
 11
350.16572649301418
 21
-324.80311012513221
 31
0.0
  0
LINE
  5
12F
  8
1
 62
     7
 10
351.91572649301418
 20
-343.42684736246702
 30
0.0
 11
351.91572649301418
 21
-324.80311012513221
 31
0.0
  0
LINE
  5
130
  8
1
 62
     7
 10
350.76572649301409
 20
-321.80311012513221
 30
0.0
 11
350.76572649301431
 21
-324.80311012513221
 31
0.0
  0
LINE
  5
131
  8
1
 62
     7
 10
349.61572649301422
 20
-324.80311012513221
 30
0.0
 11
349.61572649301422
 21
-343.36120857547849
 31
0.0
  0
LINE
  5
132
  8
1
 62
     7
 10
219.2804524372049
 20
-324.80311012513221
 30
0.0
 11
219.2804524372049
 21
-321.80311012513221
 31
0.0
  0
LINE
  5
133
  8
1
  6
DASHDOT
 62
     3
 10
103.55728836103469
 20
-338.36120857547849
 30
0.0
 11
109.82018766825441
 21
-338.36120857547849
 31
0.0
  0
LINE
  5
134
  8
1
  6
DASHDOT
 62
     3
 10
206.50674636296
 20
-388.36120857547849
 30
0.0
 11
209.78045243720501
 21
-388.36120857547849
 31
0.0
  0
LINE
  5
135
  8
1
  6
DASHDOT
 62
     3
 10
259.78045243720487
 20
-388.36120857547849
 30
0.0
 11
261.89952565095689
 21
-388.36120857547849
 31
0.0
  0
LINE
  5
136
  8
1
 62
     7
 10
259.78045243720487
 20
-409.36120857547849
 30
0.0
 11
258.18045243720502
 21
-409.36120857547849
 31
0.0
  0
LINE
  5
137
  8
1
 62
     7
 10
258.18045243720502
 20
-403.36120857547849
 30
0.0
 11
259.78045243720487
 21
-403.36120857547849
 31
0.0
  0
LINE
  5
138
  8
1
 62
     7
 10
218.28045243720501
 20
-324.80311012513221
 30
0.0
 11
218.28045243720501
 21
-345.81120857547847
 31
0.0
  0
LINE
  5
139
  8
1
 62
     7
 10
240.78045243720501
 20
-433.36120857547849
 30
0.0
 11
240.78045243720501
 21
-403.36120857547849
 31
0.0
  0
LINE
  5
13A
  8
1
 62
     7
 10
116.13158425699849
 20
-324.80311012513221
 30
0.0
 11
116.13158425699849
 21
-345.81120857547847
 31
0.0
  0
LINE
  5
13B
  8
1
 62
     7
 10
114.13158425699849
 20
-324.80311012513221
 30
0.0
 11
116.13158425699849
 21
-324.80311012513221
 31
0.0
  0
LINE
  5
13C
  8
1
 62
     7
 10
114.5315842569986
 20
-321.80311012513221
 30
0.0
 11
114.5315842569986
 21
-324.80311012513221
 31
0.0
  0
LINE
  5
13D
  8
1
 62
     7
 10
114.8315842569985
 20
-324.80311012513221
 30
0.0
 11
114.8315842569985
 21
-321.80311012513221
 31
0.0
  0
LINE
  5
13E
  8
1
 62
     7
 10
115.43158425699851
 20
-321.80311012513221
 30
0.0
 11
115.43158425699851
 21
-324.80311012513221
 31
0.0
  0
LINE
  5
13F
  8
1
 62
     7
 10
115.7315842569986
 20
-324.80311012513221
 30
0.0
 11
115.7315842569986
 21
-321.80311012513221
 31
0.0
  0
LINE
  5
140
  8
1
 62
     7
 10
115.13158425699849
 20
-324.80311012513221
 30
0.0
 11
115.13158425699849
 21
-321.80311012513221
 31
0.0
  0
LINE
  5
141
  8
1
 62
     7
 10
114.13158425699849
 20
-324.80311012513221
 30
0.0
 11
114.13158425699849
 21
-345.81120857547847
 31
0.0
  0
LINE
  5
142
  8
1
 62
     7
 10
247.480452437205
 20
-347.36120857547849
 30
0.0
 11
256.23051482026102
 21
-347.36120857547849
 31
0.0
  0
LINE
  5
143
  8
1
 62
     7
 10
251.88045243720501
 20
-359.36120857547849
 30
0.0
 11
252.28045243720501
 21
-359.36120857547849
 31
0.0
  0
LINE
  5
144
  8
1
 62
     7
 10
257.28045243720487
 20
-349.56120857547847
 30
0.0
 11
257.28045243720487
 21
-348.35996091435629
 31
0.0
  0
LINE
  5
145
  8
1
 62
     7
 10
242.60142811145559
 20
-426.66120857547838
 30
0.0
 11
242.60142811145559
 21
-432.0612085754783
 31
0.0
  0
LINE
  5
146
  8
1
 62
     7
 10
242.60142811145559
 20
-418.66120857547833
 30
0.0
 11
242.60142811145559
 21
-424.0612085754783
 31
0.0
  0
LINE
  5
147
  8
1
 62
     7
 10
247.480452437205
 20
-433.36120857547849
 30
0.0
 11
247.480452437205
 21
-415.36120857547849
 31
0.0
  0
LINE
  5
148
  8
1
 62
     7
 10
244.480452437205
 20
-433.36120857547849
 30
0.0
 11
241.08045243720491
 21
-433.36120857547849
 31
0.0
  0
LINE
  5
149
  8
1
 62
     7
 10
248.980452437205
 20
-416.03620857547861
 30
0.0
 11
248.980452437205
 21
-418.0612085754783
 31
0.0
  0
LINE
  5
14A
  8
1
 62
     7
 10
250.580452437205
 20
-415.36120857547849
 30
0.0
 11
250.580452437205
 21
-429.36120857547849
 31
0.0
  0
LINE
  5
14B
  8
1
 62
     7
 10
249.78045243720501
 20
-429.36120857547849
 30
0.0
 11
250.580452437205
 21
-429.36120857547849
 31
0.0
  0
LINE
  5
14C
  8
1
 62
     7
 10
251.88045243720501
 20
-421.36120857547849
 30
0.0
 11
256.28045243720499
 21
-421.36120857547849
 31
0.0
  0
LINE
  5
14D
  8
1
 62
     7
 10
256.28045243720499
 20
-421.36120857547849
 30
0.0
 11
257.28045243720487
 21
-420.36120857547849
 31
0.0
  0
LINE
  5
14E
  8
1
 62
     7
 10
252.28045243720501
 20
-417.36120857547849
 30
0.0
 11
251.88045243720501
 21
-417.36120857547849
 31
0.0
  0
LINE
  5
14F
  8
1
 62
     7
 10
258.18045243720502
 20
-402.3612085754786
 30
0.0
 11
259.78045243720487
 21
-402.3612085754786
 31
0.0
  0
LINE
  5
150
  8
1
 62
     7
 10
258.18045243720502
 20
-374.36120857547849
 30
0.0
 11
259.78045243720487
 21
-374.36120857547849
 31
0.0
  0
LINE
  5
151
  8
1
 62
     7
 10
249.78045243720501
 20
-355.86120857547849
 30
0.0
 11
249.78045243720501
 21
-360.6862085754783
 31
0.0
  0
LINE
  5
152
  8
1
 62
     7
 10
258.18045243720502
 20
-362.36120857547849
 30
0.0
 11
259.78045243720487
 21
-362.36120857547849
 31
0.0
  0
LINE
  5
153
  8
1
 62
     7
 10
143.33158425699861
 20
-347.36120857547849
 30
0.0
 11
152.13158425699851
 21
-347.36120857547849
 31
0.0
  0
LINE
  5
154
  8
1
 62
     7
 10
144.13158425699851
 20
-347.36120857547849
 30
0.0
 11
144.13158425699851
 21
-355.36120857547849
 31
0.0
  0
LINE
  5
155
  8
1
 62
     7
 10
144.9315842569986
 20
-347.36120857547849
 30
0.0
 11
144.9315842569986
 21
-355.36120857547849
 31
0.0
  0
LINE
  5
156
  8
1
 62
     7
 10
145.7315842569985
 20
-347.36120857547849
 30
0.0
 11
145.7315842569985
 21
-355.35887750263572
 31
0.0
  0
LINE
  5
157
  8
1
 62
     7
 10
143.33158425699861
 20
-355.36120857547849
 30
0.0
 11
145.7315842569985
 21
-355.36120857547849
 31
0.0
  0
LINE
  5
158
  8
1
 62
     7
 10
152.13158425699851
 20
-347.36120857547849
 30
0.0
 11
153.13158425699851
 21
-348.36120857547849
 31
0.0
  0
LINE
  5
159
  8
1
 62
     7
 10
145.7315842569985
 20
-355.35887750263572
 30
0.0
 11
148.63158425699859
 21
-355.35887750263572
 31
0.0
  0
LINE
  5
15A
  8
1
 62
     7
 10
148.63158425699859
 20
-421.36120857547849
 30
0.0
 11
152.13158425699851
 21
-421.36120857547849
 31
0.0
  0
LINE
  5
15B
  8
1
 62
     7
 10
153.13158425699851
 20
-420.36120857547849
 30
0.0
 11
153.13158425699851
 21
-348.36120857547849
 31
0.0
  0
LINE
  5
15C
  8
1
 62
     7
 10
152.13158425699851
 20
-421.36120857547849
 30
0.0
 11
153.13158425699851
 21
-420.36120857547849
 31
0.0
  0
LINE
  5
15D
  8
1
 62
     7
 10
145.7315842569985
 20
-412.86115832277329
 30
0.0
 11
145.7315842569985
 21
-404.460262269753
 31
0.0
  0
LINE
  5
15E
  8
1
 62
     7
 10
144.9315842569986
 20
-404.460262269753
 30
0.0
 11
144.9315842569986
 21
-412.460262269753
 31
0.0
  0
LINE
  5
15F
  8
1
 62
     7
 10
144.9315842569986
 20
-404.460262269753
 30
0.0
 11
146.28525392972031
 21
-348.03761065484002
 31
0.0
  0
LINE
  5
160
  8
1
 62
     7
 10
147.13531631277641
 20
-348.03761065484002
 30
0.0
 11
145.7315842569985
 21
-404.460262269753
 31
0.0
  0
LINE
  5
161
  8
1
 62
     7
 10
146.703571953997
 20
-365.3914649333978
 30
0.0
 11
148.63158425699859
 21
-365.3914649333978
 31
0.0
  0
LINE
  5
162
  8
1
 62
     7
 10
146.66838791258101
 20
-366.80567849577079
 30
0.0
 11
148.63158425699859
 21
-366.80567849577079
 31
0.0
  0
LINE
  5
163
  8
1
 62
     7
 10
146.4315842569986
 20
-387.36120857547752
 30
0.0
 11
148.63158425699859
 21
-387.36120857547752
 31
0.0
  0
LINE
  5
164
  8
1
 62
     7
 10
146.4315842569986
 20
-389.36120857547752
 30
0.0
 11
148.63158425699859
 21
-389.36120857547849
 31
0.0
  0
LINE
  5
165
  8
1
 62
     7
 10
145.63158425699859
 20
-412.86115832277329
 30
0.0
 11
148.63158425699859
 21
-412.86115832277329
 31
0.0
  0
LINE
  5
166
  8
1
 62
     7
 10
148.63158425699859
 20
-404.09039386621009
 30
0.0
 11
145.7407861665086
 21
-404.09039386621009
 31
0.0
  0
LINE
  5
167
  8
1
 62
     7
 10
148.63158425699859
 20
-355.35887750263572
 30
0.0
 11
148.63158425699859
 21
-421.36120857547849
 31
0.0
  0
LINE
  5
168
  8
1
 62
     7
 10
143.33158425699861
 20
-419.86120857547849
 30
0.0
 11
143.83158425699861
 21
-419.86120857547849
 31
0.0
  0
LINE
  5
169
  8
1
 62
     7
 10
252.480452437205
 20
-415.03620857547838
 30
0.0
 11
250.78045243720501
 21
-415.03620857547838
 31
0.0
  0
LINE
  5
16A
  8
1
 62
     7
 10
248.28045243720501
 20
-414.23620857547849
 30
0.0
 11
250.78045183008561
 21
-414.23620857547849
 31
0.0
  0
LINE
  5
16B
  8
1
 62
     7
 10
250.78045183008561
 20
-414.23620857547849
 30
0.0
 11
258.18045243720502
 21
-414.23620857547849
 31
0.0
  0
LINE
  5
16C
  8
1
 62
     7
 10
250.04263470903641
 20
-361.36120857547849
 30
0.0
 11
250.580452437205
 21
-361.36120857547849
 31
0.0
  0
LINE
  5
16D
  8
1
 62
     7
 10
248.980452437205
 20
-358.66120857547833
 30
0.0
 11
248.980452437205
 21
-360.68620857547847
 31
0.0
  0
LINE
  5
16E
  8
1
 62
     7
 10
248.28045243720501
 20
-362.48620857547849
 30
0.0
 11
258.18045243720502
 21
-362.48620857547849
 31
0.0
  0
LINE
  5
16F
  8
1
 62
     7
 10
146.4315842569986
 20
-412.86115832277329
 30
0.0
 11
146.4315842569986
 21
-429.36120857547849
 31
0.0
  0
LINE
  5
170
  8
1
 62
     7
 10
145.63158425699859
 20
-429.36120857547849
 30
0.0
 11
146.4315842569986
 21
-429.36120857547849
 31
0.0
  0
LINE
  5
171
  8
1
 62
     7
 10
145.63158425699859
 20
-429.36120857547849
 30
0.0
 11
145.63158425699859
 21
-412.86115832277329
 31
0.0
  0
LINE
  5
172
  8
1
 62
     7
 10
153.13158425699851
 20
-362.48620857547849
 30
0.0
 11
154.0315842569986
 21
-362.48620857547849
 31
0.0
  0
LINE
  5
173
  8
1
 62
     7
 10
153.13158425699851
 20
-414.23620857547849
 30
0.0
 11
154.0315842569986
 21
-414.23620857547849
 31
0.0
  0
LINE
  5
174
  8
1
 62
     7
 10
154.0315842569986
 20
-414.36120857547849
 30
0.0
 11
154.0315842569986
 21
-362.36120857547849
 31
0.0
  0
LINE
  5
175
  8
1
  6
DASHDOT
 62
     3
 10
155.63158425699851
 20
-388.36120857547849
 30
0.0
 11
157.63158425699851
 21
-388.36120857547849
 31
0.0
  0
LINE
  5
176
  8
1
 62
     7
 10
141.33158425699861
 20
-343.36120857547849
 30
0.0
 11
141.33158425699861
 21
-433.36120857547837
 31
0.0
  0
LINE
  5
177
  8
1
 62
     7
 10
143.33158425699861
 20
-343.36120857547849
 30
0.0
 11
143.33158425699861
 21
-433.36120857547837
 31
0.0
  0
ARC
  5
178
  8
1
  6
DASHDOT
 62
     3
 10
349.61572649301422
 20
-388.36120857547849
 30
0.0
 40
18.000000000000028
 50
253.16050990083201
 51
282.64793774395559
  0
ARC
  5
179
  8
1
  6
DASHDOT
 62
     3
 10
349.61572649301422
 20
-388.36120857547849
 30
0.0
 40
17.999999999999979
 50
133.1605099008323
 51
162.64793774395599
  0
ARC
  5
17A
  8
1
  6
DASHDOT
 62
     3
 10
349.61572649301422
 20
-388.36120857547849
 30
0.0
 40
18.000000000000028
 50
13.16050990083251
 51
42.64793774395573
  0
ARC
  5
17B
  8
1
 62
     7
 10
349.61572649301422
 20
-388.36120857547849
 30
0.0
 40
45.0
 50
180.0
 51
0.0
  0
ARC
  5
17C
  8
1
 62
     7
 10
349.61572649301422
 20
-388.36120857547849
 30
0.0
 40
45.0
 50
0.0
 51
180.0
  0
ARC
  5
17D
  8
1
 62
     7
 10
364.62028004014007
 20
-351.32548867572092
 30
0.0
 40
7.5389936581565129
 50
194.32707392497281
 51
240.4523326122553
  0
ARC
  5
17E
  8
1
 62
     7
 10
349.61572649301422
 20
-355.36120857547849
 30
0.0
 40
7.999999999999976
 50
15.739734926086379
 51
90.0
  0
ARC
  5
17F
  8
1
 62
     7
 10
349.61572649301422
 20
-355.36120857547849
 30
0.0
 40
8.0
 50
90.0
 51
164.2602650739135
  0
ARC
  5
180
  8
1
 62
     7
 10
334.61117294588831
 20
-351.32548867572092
 30
0.0
 40
7.538993658156584
 50
299.5476673877443
 51
345.67292607502708
  0
ARC
  5
181
  8
1
 62
     7
 10
321.03688816812758
 20
-404.86120857547849
 30
0.0
 40
7.999999999999968
 50
210.0
 51
284.2602650739143
  0
ARC
  5
182
  8
1
 62
     7
 10
321.03688816812758
 20
-404.86120857547849
 30
0.0
 40
7.9999999999999618
 50
135.73973492608599
 51
210.0
  0
ARC
  5
183
  8
1
 62
     7
 10
378.19456481790058
 20
-404.86120857547849
 30
0.0
 40
8.0000000000001137
 50
330.00000000000051
 51
44.260265073913423
  0
ARC
  5
184
  8
1
 62
     7
 10
378.19456481790058
 20
-404.86120857547849
 30
0.0
 40
8.0000000000000409
 50
255.73973492608701
 51
330.00000000000051
  0
ARC
  5
185
  8
1
 62
     7
 10
325.04412898594228
 20
-419.87339306961201
 30
0.0
 40
7.5389936581563939
 50
59.547667387744639
 51
105.67292607502669
  0
ARC
  5
186
  8
1
 62
     7
 10
389.19187754721179
 20
-393.8847439811023
 30
0.0
 40
7.5389936581563308
 50
179.5476673877458
 51
225.67292607502759
  0
ARC
  5
187
  8
1
 62
     7
 10
310.03957543881631
 20
-393.8847439811023
 30
0.0
 40
7.5389936581565173
 50
314.32707392497281
 51
0.4523326122542227
  0
ARC
  5
188
  8
1
 62
     7
 10
374.18732400008611
 20
-419.87339306961201
 30
0.0
 40
7.5389936581564214
 50
74.327073924972524
 51
120.45233261225501
  0
ARC
  5
189
  8
1
 62
     7
 10
349.61572649301422
 20
-388.36120857547849
 30
0.0
 40
32.499999999999957
 50
348.48422712330108
 51
0.0
  0
ARC
  5
18A
  8
1
 62
     7
 10
349.61572649301422
 20
-388.36120857547849
 30
0.0
 40
32.5
 50
0.0
 51
70.992325891544979
  0
ARC
  5
18B
  8
1
 62
     7
 10
349.61572649301422
 20
-388.36120857547849
 30
0.0
 40
32.50000000000005
 50
230.32125916515
 51
311.50880529757922
  0
ARC
  5
18C
  8
1
 62
     7
 10
349.61572649301422
 20
-388.36120857547849
 30
0.0
 40
32.499999999999851
 50
110.32125916515
 51
191.18147894942649
  0
ARC
  5
18D
  8
1
 62
     7
 10
349.61572649301422
 20
-388.36120857547849
 30
0.0
 40
40.999999999999993
 50
345.0
 51
0.0
  0
ARC
  5
18E
  8
1
 62
     7
 10
349.61572649301422
 20
-388.36120857547849
 30
0.0
 40
41.0
 50
0.0
 51
90.0
  0
ARC
  5
18F
  8
1
 62
     7
 10
349.61572649301422
 20
-388.36120857547849
 30
0.0
 40
40.999999999999929
 50
225.0
 51
330.00000000000011
  0
ARC
  5
190
  8
1
 62
     7
 10
349.61572649301422
 20
-388.36120857547849
 30
0.0
 40
40.999999999999993
 50
105.0
 51
210.0
  0
ARC
  5
191
  8
1
 62
     7
 10
349.61572649301422
 20
-388.36120857547849
 30
0.0
 40
33.999999999999993
 50
19.999999999999929
 51
75.127005690649256
  0
ARC
  5
192
  8
1
 62
     7
 10
349.61572649301422
 20
-388.36120857547849
 30
0.0
 40
33.999999999999858
 50
140.00000000000011
 51
195.1270056906493
  0
ARC
  5
193
  8
1
 62
     7
 10
349.61572649301422
 20
-388.36120857547849
 30
0.0
 40
34.000000000000028
 50
259.99999999999977
 51
315.1270056906493
  0
ARC
  5
194
  8
1
 62
     7
 10
351.36572649301422
 20
-372.11120857547849
 30
0.0
 40
1.48750000000001
 50
90.0
 51
180.0
  0
ARC
  5
195
  8
1
 62
     7
 10
351.36572649301422
 20
-368.61120857547849
 30
0.0
 40
1.48750000000001
 50
180.0
 51
270.0
  0
ARC
  5
196
  8
1
 62
     7
 10
347.86572649301422
 20
-368.61120857547849
 30
0.0
 40
1.48750000000001
 50
270.0
 51
0.0
  0
ARC
  5
197
  8
1
 62
     7
 10
347.86572649301422
 20
-372.11120857547849
 30
0.0
 40
1.4874999999999541
 50
0.0
 51
90.0
  0
ARC
  5
198
  8
1
 62
     7
 10
334.66781368151709
 20
-394.97066411885561
 30
0.0
 40
1.4874999999999181
 50
210.0000000000008
 51
300.00000000000051
  0
ARC
  5
199
  8
1
 62
     7
 10
331.63672476827162
 20
-396.72066411885572
 30
0.0
 40
1.487500000000016
 50
299.99999999999858
 51
30.000000000002689
  0
ARC
  5
19A
  8
1
 62
     7
 10
333.38672476827162
 20
-399.75175303210119
 30
0.0
 40
1.4874999999999181
 50
30.000000000000789
 51
120.0000000000027
  0
ARC
  5
19B
  8
1
 62
     7
 10
336.41781368151709
 20
-398.00175303210119
 30
0.0
 40
1.4874999999999181
 50
120.0000000000008
 51
210.0000000000027
  0
ARC
  5
19C
  8
1
 62
     7
 10
362.81363930451118
 20
-398.00175303210119
 30
0.0
 40
1.4875000000001231
 50
329.99999999999881
 51
59.999999999995431
  0
ARC
  5
19D
  8
1
 62
     7
 10
365.84472821775682
 20
-399.75175303210119
 30
0.0
 40
1.4874999999999181
 50
59.999999999999197
 51
150.00000000000631
  0
ARC
  5
19E
  8
1
 62
     7
 10
367.59472821775682
 20
-396.72066411885572
 30
0.0
 40
1.4875000000000951
 50
150.0000000000006
 51
239.99999999999949
  0
ARC
  5
19F
  8
1
 62
     7
 10
364.56363930451118
 20
-394.97066411885561
 30
0.0
 40
1.4874999999999601
 50
240.00000000000509
 51
330.0000000000025
  0
ARC
  5
1A0
  8
1
 62
     7
 10
349.61572649301422
 20
-388.36120857547849
 30
0.0
 40
14.0
 50
0.0
 51
270.0
  0
ARC
  5
1A1
  8
1
 62
     7
 10
349.61572649301422
 20
-388.36120857547849
 30
0.0
 40
14.0
 50
270.0
 51
0.0
  0
ARC
  5
1A2
  8
1
 62
     7
 10
349.61572649301422
 20
-388.36120857547849
 30
0.0
 40
7.5
 50
109.47122063449071
 51
70.528779365509308
  0
ARC
  5
1A3
  8
1
 62
     7
 10
251.88045243720501
 20
-351.36120857547849
 30
0.0
 40
9.0000000000000373
 50
163.3984504009795
 51
196.60154959901979
  0
ARC
  5
1A4
  8
1
  6
DASHDOT
 62
     3
 10
349.61572649301422
 20
-388.36120857547849
 30
0.0
 40
50.0
 50
128.19070283018641
 51
141.73983591984009
  0
ARC
  5
1A5
  8
1
  6
DASHDOT
 62
     3
 10
349.61572649301422
 20
-388.36120857547849
 30
0.0
 40
49.999999999999829
 50
218.1907028301863
 51
231.73983591984009
  0
ARC
  5
1A6
  8
1
  6
DASHDOT
 62
     3
 10
349.61572649301422
 20
-388.36120857547849
 30
0.0
 40
50.000000000000099
 50
308.19070283018641
 51
321.73983591984012
  0
ARC
  5
1A7
  8
1
  6
DASHDOT
 62
     3
 10
349.61572649301422
 20
-388.36120857547849
 30
0.0
 40
49.999999999999972
 50
38.190702830186289
 51
51.739835919840061
  0
ARC
  5
1A8
  8
1
 62
     7
 10
349.61572649301422
 20
-388.36120857547849
 30
0.0
 40
57.500000000000028
 50
132.34260545220721
 51
137.65739454779271
  0
ARC
  5
1A9
  8
1
 62
     7
 10
349.61572649301422
 20
-388.36120857547849
 30
0.0
 40
57.500000000000028
 50
222.3426054522071
 51
227.65739454779279
  0
ARC
  5
1AA
  8
1
 62
     7
 10
349.61572649301422
 20
-388.36120857547849
 30
0.0
 40
57.500000000000071
 50
312.34260545220718
 51
317.65739454779282
  0
ARC
  5
1AB
  8
1
 62
     7
 10
349.61572649301422
 20
-388.36120857547849
 30
0.0
 40
57.500000000000028
 50
42.342605452207117
 51
47.657394547792741
  0
ARC
  5
1AC
  8
1
 62
     7
 10
244.5014281114556
 20
-349.16120857547838
 30
0.0
 40
1.299999999999897
 50
90.0
 51
163.3984504009828
  0
ARC
  5
1AD
  8
1
 62
     7
 10
244.5014281114556
 20
-353.5612085754783
 30
0.0
 40
1.30000000000003
 50
196.60154959901951
 51
270.0
  0
ARC
  5
1AE
  8
1
 62
     7
 10
245.18045243720499
 20
-348.16120857547833
 30
0.0
 40
0.3000000000000114
 50
0.0
 51
90.0
  0
ARC
  5
1AF
  8
1
 62
     7
 10
245.18045243720499
 20
-354.5612085754783
 30
0.0
 40
0.3000000000000682
 50
270.0
 51
0.0
  0
CIRCLE
  5
1B0
  8
1
 62
     7
 10
349.61572649301422
 20
-351.36120857547849
 30
0.0
 40
2.0
  0
CIRCLE
  5
1B1
  8
1
 62
     7
 10
349.61572649301422
 20
-351.36120857547849
 30
0.0
 40
1.25
  0
CIRCLE
  5
1B2
  8
1
 62
     7
 10
317.57278655299001
 20
-406.86120857547849
 30
0.0
 40
2.0
  0
CIRCLE
  5
1B3
  8
1
 62
     7
 10
381.65866643303838
 20
-406.86120857547849
 30
0.0
 40
2.0
  0
CIRCLE
  5
1B4
  8
1
 62
     7
 10
317.57278655299001
 20
-406.86120857547849
 30
0.0
 40
1.25
  0
CIRCLE
  5
1B5
  8
1
 62
     7
 10
381.65866643303838
 20
-406.86120857547849
 30
0.0
 40
1.2500000000002269
  0
CIRCLE
  5
1B6
  8
1
 62
     7
 10
349.61572649301422
 20
-388.36120857547849
 30
0.0
 40
26.0
  0
CIRCLE
  5
1B7
  8
1
 62
     7
 10
349.61572649301422
 20
-370.36120857547849
 30
0.0
 40
3.0
  0
CIRCLE
  5
1B8
  8
1
 62
     7
 10
365.20418376113412
 20
-379.36120857547849
 30
0.0
 40
3.0
  0
CIRCLE
  5
1B9
  8
1
 62
     7
 10
365.20418376113412
 20
-379.36120857547849
 30
0.0
 40
1.8999999999999759
  0
CIRCLE
  5
1BA
  8
1
 62
     3
 10
365.20418376113412
 20
-379.36120857547849
 30
0.0
 40
2.5
  0
CIRCLE
  5
1BB
  8
1
 62
     7
 10
334.02726922489421
 20
-379.36120857547849
 30
0.0
 40
1.8999999999999759
  0
CIRCLE
  5
1BC
  8
1
 62
     3
 10
334.02726922489421
 20
-379.36120857547849
 30
0.0
 40
2.5
  0
CIRCLE
  5
1BD
  8
1
 62
     7
 10
349.61572649301422
 20
-406.36120857547849
 30
0.0
 40
1.8999999999999759
  0
CIRCLE
  5
1BE
  8
1
 62
     3
 10
349.61572649301422
 20
-406.36120857547849
 30
0.0
 40
2.5
  0
CIRCLE
  5
1BF
  8
1
 62
     7
 10
334.02726922489421
 20
-379.36120857547849
 30
0.0
 40
3.0
  0
CIRCLE
  5
1C0
  8
1
 62
     7
 10
349.61572649301422
 20
-406.36120857547849
 30
0.0
 40
3.000000000000056
  0
CIRCLE
  5
1C1
  8
1
 62
     7
 10
334.02726922489421
 20
-397.36120857547849
 30
0.0
 40
3.0
  0
CIRCLE
  5
1C2
  8
1
 62
     7
 10
365.204183761134
 20
-397.36120857547849
 30
0.0
 40
3.0
  0
CIRCLE
  5
1C3
  8
1
 62
     7
 10
314.26038743368679
 20
-353.00586951615099
 30
0.0
 40
2.25
  0
CIRCLE
  5
1C4
  8
1
 62
     7
 10
314.26038743368679
 20
-423.71654763480581
 30
0.0
 40
2.25
  0
CIRCLE
  5
1C5
  8
1
 62
     7
 10
384.97106555234171
 20
-423.71654763480592
 30
0.0
 40
2.25
  0
CIRCLE
  5
1C6
  8
1
 62
     7
 10
384.97106555234171
 20
-353.00586951615099
 30
0.0
 40
2.25
  0
ARC
  5
1C7
  8
1
 62
     7
 10
252.28045243720501
 20
-359.86120857547849
 30
0.0
 40
0.5
 50
0.0
 51
90.0
  0
ARC
  5
1C8
  8
1
 62
     7
 10
252.28045243720501
 20
-416.86120857547849
 30
0.0
 40
0.5
 50
270.0
 51
0.0
  0
ARC
  5
1C9
  8
1
 62
     7
 10
250.78045243720501
 20
-416.03620857547833
 30
0.0
 40
1.0
 50
90.0
 51
180.0
  0
ARC
  5
1CA
  8
1
 62
     7
 10
250.78045243720501
 20
-416.03620857547833
 30
0.0
 40
1.7999999999998979
 50
90.0
 51
180.0
  0
ARC
  5
1CB
  8
1
 62
     7
 10
247.98045243720489
 20
-418.0612085754783
 30
0.0
 40
1.0
 50
270.0
 51
0.0
  0
ARC
  5
1CC
  8
1
 62
     7
 10
247.98045243720489
 20
-418.0612085754783
 30
0.0
 40
1.800000000000068
 50
270.0
 51
0.0
  0
ARC
  5
1CD
  8
1
 62
     7
 10
250.78045243720501
 20
-360.6862085754783
 30
0.0
 40
1.0
 50
180.0
 51
270.0
  0
ARC
  5
1CE
  8
1
 62
     7
 10
250.78045243720501
 20
-360.6862085754783
 30
0.0
 40
1.8000000000000109
 50
180.0
 51
270.0
  0
ARC
  5
1CF
  8
1
 62
     7
 10
247.98045243720489
 20
-358.66120857547833
 30
0.0
 40
1.0
 50
0.0
 51
90.0
  0
ARC
  5
1D0
  8
1
 62
     7
 10
247.98045243720489
 20
-358.66120857547833
 30
0.0
 40
1.8000000000000109
 50
0.0
 51
90.0
  0
ARC
  5
1D1
  8
1
 62
     7
 10
143.83158425699861
 20
-418.06120857547847
 30
0.0
 40
1.8000000000000109
 50
270.0
 51
0.0
  0
TEXT
  5
1D2
  8
1
 62
     7
 10
124.2245247566207
 20
-292.669050346701
 30
0.0
 40
4.0
  1
MSB1.2
 41
0.9
  7
SIMPLEX
  0
ENDSEC
  0
EOF
