  0
SECTION
  2
HEADER
  9
$ACADVER
  1
AC1009
  9
$INSBASE
 10
0.0
 20
0.0
 30
0.0
  9
$EXTMIN
 10
-1380.1742350475461
 20
-756.19620439986068
 30
0.0
  9
$EXTMAX
 10
-716.76071158801767
 20
-418.80144382578999
 30
0.0
  9
$LIMMIN
 10
-1380.1742350475461
 20
-755.57488405630113
  9
$LIMMAX
 10
-716.76071158801767
 20
-418.80144382578999
  9
$ORTHOMODE
 70
     0
  9
$REGENMODE
 70
     1
  9
$FILLMODE
 70
     1
  9
$QTEXTMODE
 70
     0
  9
$MIRRTEXT
 70
     1
  9
$DRAGMODE
 70
     2
  9
$LTSCALE
 40
1.0
  9
$OSMODE
 70
    37
  9
$ATTMODE
 70
     1
  9
$TEXTSIZE
 40
3.5
  9
$TRACEWID
 40
0.5
  9
$TEXTSTYLE
  7
STANDARD
  9
$CLAYER
  8
0
  9
$CELTYPE
  6
BYLAYER
  9
$CECOLOR
 62
   256
  9
$DIMSCALE
 40
1.0
  9
$DIMASZ
 40
0.18
  9
$DIMEXO
 40
0.0625
  9
$DIMDLI
 40
0.38
  9
$DIMRND
 40
0.0
  9
$DIMDLE
 40
0.0
  9
$DIMEXE
 40
0.18
  9
$DIMTP
 40
0.0
  9
$DIMTM
 40
0.0
  9
$DIMTXT
 40
0.18
  9
$DIMCEN
 40
0.09
  9
$DIMTSZ
 40
0.0
  9
$DIMTOL
 70
     0
  9
$DIMLIM
 70
     0
  9
$DIMTIH
 70
     1
  9
$DIMTOH
 70
     1
  9
$DIMSE1
 70
     0
  9
$DIMSE2
 70
     0
  9
$DIMTAD
 70
     0
  9
$DIMZIN
 70
     0
  9
$DIMBLK
  1

  9
$DIMASO
 70
     1
  9
$DIMSHO
 70
     1
  9
$DIMPOST
  1

  9
$DIMAPOST
  1

  9
$DIMALT
 70
     0
  9
$DIMALTD
 70
     2
  9
$DIMALTF
 40
25.399999999999999
  9
$DIMLFAC
 40
1.0
  9
$DIMTOFL
 70
     0
  9
$DIMTVP
 40
0.0
  9
$DIMTIX
 70
     0
  9
$DIMSOXD
 70
     0
  9
$DIMSAH
 70
     0
  9
$DIMBLK1
  1

  9
$DIMBLK2
  1

  9
$DIMSTYLE
  2
STANDARD
  9
$DIMCLRD
 70
     0
  9
$DIMCLRE
 70
     0
  9
$DIMCLRT
 70
     0
  9
$DIMTFAC
 40
1.0
  9
$DIMGAP
 40
0.09
  9
$LUNITS
 70
     2
  9
$LUPREC
 70
     4
  9
$SKETCHINC
 40
0.1
  9
$FILLETRAD
 40
2.0
  9
$AUNITS
 70
     0
  9
$AUPREC
 70
     0
  9
$MENU
  1
ACAD
  9
$ELEVATION
 40
0.0
  9
$PELEVATION
 40
0.0
  9
$THICKNESS
 40
0.0
  9
$LIMCHECK
 70
     0
  9
$BLIPMODE
 70
     0
  9
$CHAMFERA
 40
0.0
  9
$CHAMFERB
 40
0.0
  9
$SKPOLY
 70
     0
  9
$TDCREATE
 40
2452094.7527627312
  9
$TDUPDATE
 40
2452094.7542916662
  9
$TDINDWG
 40
0.0015314815
  9
$TDUSRTIMER
 40
0.0015314815
  9
$USRTIMER
 70
     1
  9
$ANGBASE
 50
0.0
  9
$ANGDIR
 70
     0
  9
$PDMODE
 70
     0
  9
$PDSIZE
 40
0.0
  9
$PLINEWID
 40
0.0
  9
$COORDS
 70
     1
  9
$SPLFRAME
 70
     0
  9
$SPLINETYPE
 70
     6
  9
$SPLINESEGS
 70
     8
  9
$ATTDIA
 70
     0
  9
$ATTREQ
 70
     1
  9
$HANDLING
 70
 10241
  9
$HANDSEED
  5
206
  9
$SURFTAB1
 70
     6
  9
$SURFTAB2
 70
     6
  9
$SURFTYPE
 70
     6
  9
$SURFU
 70
     6
  9
$SURFV
 70
     6
  9
$UCSNAME
  2

  9
$UCSORG
 10
0.0
 20
0.0
 30
0.0
  9
$UCSXDIR
 10
1.0
 20
0.0
 30
0.0
  9
$UCSYDIR
 10
0.0
 20
1.0
 30
0.0
  9
$PUCSNAME
  2

  9
$PUCSORG
 10
0.0
 20
0.0
 30
0.0
  9
$PUCSXDIR
 10
1.0
 20
0.0
 30
0.0
  9
$PUCSYDIR
 10
0.0
 20
1.0
 30
0.0
  9
$USERI1
 70
     0
  9
$USERI2
 70
     0
  9
$USERI3
 70
     0
  9
$USERI4
 70
     0
  9
$USERI5
 70
     0
  9
$USERR1
 40
0.0
  9
$USERR2
 40
0.0
  9
$USERR3
 40
0.0
  9
$USERR4
 40
0.0
  9
$USERR5
 40
0.0
  9
$WORLDVIEW
 70
     1
  9
$SHADEDGE
 70
     3
  9
$SHADEDIF
 70
    70
  9
$TILEMODE
 70
     1
  9
$MAXACTVP
 70
    64
  9
$PLIMCHECK
 70
     0
  9
$PEXTMIN
 10
1.0000000000000000E+020
 20
1.0000000000000000E+020
 30
1.0000000000000000E+020
  9
$PEXTMAX
 10
-1.0000000000000000E+020
 20
-1.0000000000000000E+020
 30
-1.0000000000000000E+020
  9
$PLIMMIN
 10
0.0
 20
0.0
  9
$PLIMMAX
 10
12.0
 20
9.0
  9
$UNITMODE
 70
     0
  9
$VISRETAIN
 70
     1
  9
$PLINEGEN
 70
     0
  9
$PSLTSCALE
 70
     1
  0
ENDSEC
  0
SECTION
  2
TABLES
  0
TABLE
  2
VPORT
 70
     2
  0
VPORT
  2
*ACTIVE
 70
     0
 10
0.0
 20
0.0
 11
1.0
 21
1.0
 12
-1335.9575772934511
 22
-436.66766678171012
 13
0.0
 23
0.0
 14
1.0
 24
1.0
 15
0.0
 25
0.0
 16
0.0
 26
0.0
 36
1.0
 17
0.0
 27
0.0
 37
0.0
 40
9.0000014388863967
 41
2.418918918918918
 42
50.0
 43
0.0
 44
0.0
 50
0.0
 51
0.0
 71
     0
 72
   100
 73
     1
 74
     1
 75
     0
 76
     0
 77
     0
 78
     0
  0
ENDTAB
  0
TABLE
  2
LTYPE
 70
     9
  0
LTYPE
  2
CONTINUOUS
 70
     0
  3
Solid line
 72
    65
 73
     0
 40
0.0
  0
LTYPE
  2
BORDER
 70
     0
  3
__ __ . __ __ .
 72
    65
 73
     6
 40
30.551938580373019
 49
8.7291253086780056
 49
-4.3645626543390019
 49
8.7291253086780056
 49
-4.3645626543390019
 49
0.0
 49
-4.3645626543390019
  0
LTYPE
  2
CENTER
 70
     0
  3
____ _ ____ _
 72
    65
 73
     4
 40
34.916501234712022
 49
21.822813271695011
 49
-4.3645626543390019
 49
4.3645626543390019
 49
-4.3645626543390019
  0
LTYPE
  2
DASHDOT
 70
     0
  3
__ . __ . __ .
 72
    65
 73
     4
 40
17.458250617356011
 49
8.7291253086780056
 49
-4.3645626543390019
 49
0.0
 49
-4.3645626543390019
  0
LTYPE
  2
DASHED
 70
     0
  3
__ __ __ __ __
 72
    65
 73
     2
 40
13.093687963017009
 49
8.7291253086780056
 49
-4.3645626543390019
  0
LTYPE
  2
DIVIDE
 70
     0
  3
__ . . __ . . 
 72
    65
 73
     6
 40
21.822813271695011
 49
8.7291253086780056
 49
-4.3645626543390019
 49
0.0
 49
-4.3645626543390019
 49
0.0
 49
-4.3645626543390019
  0
LTYPE
  2
DOT
 70
     0
  3
..............
 72
    65
 73
     4
 40
8.7291253086780056
 49
0.0
 49
-4.3645626543390019
 49
0.0
 49
-4.3645626543390019
  0
LTYPE
  2
HIDDEN
 70
     0
  3
_ _ _ _ _ _ _
 72
    65
 73
     2
 40
6.5468439815085029
 49
4.3645626543390019
 49
-2.1822813271695001
  0
LTYPE
  2
PHANTOM
 70
     0
  3
_____ _ _ _____ _ _ 
 72
    65
 73
     6
 40
43.64562654339003
 49
21.822813271695011
 49
-4.3645626543390019
 49
4.3645626543390019
 49
-4.3645626543390019
 49
4.3645626543390019
 49
-4.3645626543390019
  0
ENDTAB
  0
TABLE
  2
LAYER
 70
     2
  0
LAYER
  2
0
 70
     0
 62
     7
  6
CONTINUOUS
  0
LAYER
  2
1
 70
     0
 62
     7
  6
CONTINUOUS
  0
ENDTAB
  0
TABLE
  2
STYLE
 70
     4
  0
STYLE
  2
STANDARD
 70
     0
 40
0.0
 41
1.0
 50
0.0
 71
     0
 42
3.5
  3
txt
  4

  0
STYLE
  2
SIMPLEX
 70
     0
 40
0.0
 41
1.0
 50
0.0
 71
     0
 42
3.5
  3
simplex
  4

  0
STYLE
  2
COMPLEX
 70
     0
 40
0.0
 41
1.0
 50
0.0
 71
     0
 42
3.5
  3
complex
  4

  0
STYLE
  2
ITALIC
 70
     0
 40
0.0
 41
1.0
 50
0.0
 71
     0
 42
3.5
  3
italic
  4

  0
ENDTAB
  0
TABLE
  2
VIEW
 70
     0
  0
ENDTAB
  0
TABLE
  2
UCS
 70
     0
  0
ENDTAB
  0
TABLE
  2
APPID
 70
     1
  0
APPID
  2
ACAD
 70
     0
  0
ENDTAB
  0
TABLE
  2
DIMSTYLE
 70
     1
  0
DIMSTYLE
  2
STANDARD
 70
     0
  3

  4

  5

  6

  7

 40
1.0
 41
0.18
 42
0.0625
 43
0.38
 44
0.18
 45
0.0
 46
0.0
 47
0.0
 48
0.0
140
0.18
141
0.09
142
0.0
143
25.399999999999999
144
1.0
145
0.0
146
1.0
147
0.09
 71
     0
 72
     0
 73
     1
 74
     1
 75
     0
 76
     0
 77
     0
 78
     0
170
     0
171
     2
172
     0
173
     0
174
     0
175
     0
176
     0
177
     0
178
     0
  0
ENDTAB
  0
ENDSEC
  0
SECTION
  2
BLOCKS
  0
BLOCK
  8
0
  2
$MODEL_SPACE
 70
     0
 10
0.0
 20
0.0
 30
0.0
  3
$MODEL_SPACE
  1

  0
ENDBLK
  5
20
  8
0
  0
BLOCK
 67
     1
  8
0
  2
$PAPER_SPACE
 70
     0
 10
0.0
 20
0.0
 30
0.0
  3
$PAPER_SPACE
  1

  0
ENDBLK
  5
1C
 67
     1
  8
0
  0
ENDSEC
  0
SECTION
  2
ENTITIES
  0
LINE
  5
33
  8
1
 62
     7
 10
-1089.2579434450561
 20
-684.57488405630079
 30
0.0
 11
-1089.2579434450561
 21
-725.47488405630065
 31
0.0
  0
LINE
  5
34
  8
1
 62
     7
 10
-1082.7579434450561
 20
-710.57488405630068
 30
0.0
 11
-1081.0579434450569
 21
-710.57488405630068
 31
0.0
  0
LINE
  5
35
  8
1
 62
     7
 10
-1085.757943445057
 20
-711.57488405630068
 30
0.0
 11
-1085.757943445057
 21
-712.60625708970406
 31
0.0
  0
LINE
  5
36
  8
1
 62
     7
 10
-1082.7579434450561
 20
-708.57488405630079
 30
0.0
 11
-1081.0579434450569
 21
-708.57488405630079
 31
0.0
  0
LINE
  5
37
  8
1
 62
     7
 10
-1089.2579434450561
 20
-746.67488405630081
 30
0.0
 11
-1089.2579434450561
 21
-755.57488405630068
 31
0.0
  0
LINE
  5
38
  8
1
 62
     7
 10
-1303.774235047546
 20
-715.57488405630068
 30
0.0
 11
-1303.774235047546
 21
-731.57488405630068
 31
0.0
  0
LINE
  5
39
  8
1
 62
     7
 10
-1299.1742350475449
 20
-656.5748840563009
 30
0.0
 11
-1299.1742350475449
 21
-712.57488405630079
 31
0.0
  0
LINE
  5
3A
  8
1
 62
     7
 10
-1307.1742350475449
 20
-715.57488405630068
 30
0.0
 11
-1305.1742350475449
 21
-715.57488405630068
 31
0.0
  0
LINE
  5
3B
  8
1
 62
     7
 10
-1299.1742350475449
 20
-578.5748840563009
 30
0.0
 11
-1299.1742350475449
 21
-634.57488405630079
 31
0.0
  0
LINE
  5
3C
  8
1
 62
     7
 10
-1302.1742350475449
 20
-653.5748840563009
 30
0.0
 11
-1307.1742350475449
 21
-653.5748840563009
 31
0.0
  0
LINE
  5
3D
  8
1
 62
     7
 10
-1307.1742350475449
 20
-731.57488405630068
 30
0.0
 11
-1293.1742350475449
 21
-731.57488405630068
 31
0.0
  0
LINE
  5
3E
  8
1
 62
     7
 10
-1307.1742350475449
 20
-755.57488405630068
 30
0.0
 11
-1307.1742350475449
 21
-535.57488405630079
 31
0.0
  0
LINE
  5
3F
  8
1
 62
     7
 10
-1346.1739946473399
 20
-541.97488405630077
 30
0.0
 11
-1370.2439946473401
 21
-541.97488405630077
 31
0.0
  0
LINE
  5
40
  8
1
 62
     7
 10
-1346.1739946473399
 20
-749.1748840563007
 30
0.0
 11
-1370.27399464734
 21
-749.1748840563007
 31
0.0
  0
LINE
  5
41
  8
1
 62
     7
 10
-1286.6739946473399
 20
-703.57488405630079
 30
0.0
 11
-1286.6739946473399
 21
-587.5748840563009
 31
0.0
  0
LINE
  5
42
  8
1
 62
     7
 10
-1375.1742350475461
 20
-735.57488405630068
 30
0.0
 11
-1372.27399464734
 21
-735.57488405630068
 31
0.0
  0
LINE
  5
43
  8
1
 62
     7
 10
-1375.1742350475461
 20
-555.57488405630079
 30
0.0
 11
-1375.1742350475461
 21
-735.57488405630068
 31
0.0
  0
LINE
  5
44
  8
1
 62
     7
 10
-1375.1742350475461
 20
-555.57488405630079
 30
0.0
 11
-1372.27399464734
 21
-555.57488405630079
 31
0.0
  0
LINE
  5
45
  8
1
 62
     7
 10
-1372.27399464734
 20
-747.17488405630081
 30
0.0
 11
-1370.27399464734
 21
-749.1748840563007
 31
0.0
  0
LINE
  5
46
  8
1
 62
     7
 10
-1372.27399464734
 20
-543.97487864799405
 30
0.0
 11
-1372.27399464734
 21
-747.17488405630081
 31
0.0
  0
LINE
  5
47
  8
1
 62
     7
 10
-1346.1739946473399
 20
-753.57488405630102
 30
0.0
 11
-1346.1739946473399
 21
-541.5748840563009
 31
0.0
  0
LINE
  5
48
  8
1
 62
     7
 10
-1344.1739946473399
 20
-755.57488405630102
 30
0.0
 11
-1323.1742350475449
 21
-755.57488405630102
 31
0.0
  0
LINE
  5
49
  8
1
 62
     7
 10
-1346.1739946473399
 20
-753.57488405630102
 30
0.0
 11
-1344.1739946473399
 21
-755.57488405630102
 31
0.0
  0
LINE
  5
4A
  8
1
 62
     7
 10
-1372.2486457975531
 20
-543.97487864799405
 30
0.0
 11
-1370.2439946473401
 21
-541.97488405630077
 31
0.0
  0
LINE
  5
4B
  8
1
 62
     7
 10
-1286.6739946473399
 20
-703.52488405630095
 30
0.0
 11
-1288.3742350475461
 21
-703.52488405630095
 31
0.0
  0
LINE
  5
4C
  8
1
 62
     7
 10
-1286.6739946473399
 20
-697.53772580348027
 30
0.0
 11
-1288.3742350475461
 21
-697.53772580348038
 31
0.0
  0
LINE
  5
4D
  8
1
 62
     7
 10
-1284.3739946473399
 20
-587.5748840563009
 30
0.0
 11
-1284.3739946473399
 21
-703.57488405630079
 31
0.0
  0
LINE
  5
4E
  8
1
 62
     7
 10
-1344.1739946473399
 20
-535.57488405630079
 30
0.0
 11
-1346.1739946473399
 21
-537.5748840563009
 31
0.0
  0
LINE
  5
4F
  8
1
 62
     7
 10
-1323.1742350475449
 20
-535.57488405630079
 30
0.0
 11
-1323.1742350475449
 21
-755.57488405630102
 31
0.0
  0
LINE
  5
50
  8
1
 62
     7
 10
-1323.1742350475449
 20
-535.57488405630079
 30
0.0
 11
-1344.1739946473399
 21
-535.57488405630079
 31
0.0
  0
LINE
  5
51
  8
1
 62
     7
 10
-1346.1739946473399
 20
-541.5748840563009
 30
0.0
 11
-1346.1739946473399
 21
-537.5748840563009
 31
0.0
  0
LINE
  5
52
  8
1
 62
     7
 10
-1293.1742350475449
 20
-559.57488405630079
 30
0.0
 11
-1307.1742350475449
 21
-559.57488405630079
 31
0.0
  0
LINE
  5
53
  8
1
 62
     7
 10
-1303.774235047546
 20
-559.57488405630079
 30
0.0
 11
-1303.774235047546
 21
-575.5748840563009
 31
0.0
  0
LINE
  5
54
  8
1
 62
     7
 10
-1305.1742350475449
 20
-559.57488405630079
 30
0.0
 11
-1305.1742350475449
 21
-575.5748840563009
 31
0.0
  0
LINE
  5
55
  8
1
 62
     7
 10
-1322.6742350475449
 20
-535.57488405630079
 30
0.0
 11
-1315.3742350475461
 21
-535.57488405630079
 31
0.0
  0
LINE
  5
56
  8
1
 62
     7
 10
-1322.6742350475449
 20
-535.57488405630079
 30
0.0
 11
-1322.6742350475449
 21
-755.57488405630068
 31
0.0
  0
LINE
  5
57
  8
1
 62
     7
 10
-1315.3742350475461
 20
-755.57488405630068
 30
0.0
 11
-1315.3742350475461
 21
-535.57488405630079
 31
0.0
  0
LINE
  5
58
  8
1
  6
DASHDOT
 62
     3
 10
-1284.3739946473399
 20
-645.5748840563009
 30
0.0
 11
-1279.3739946473399
 21
-645.5748840563009
 31
0.0
  0
LINE
  5
59
  8
1
  6
DASHDOT
 62
     3
 10
-1380.1742350475461
 20
-645.5748840563009
 30
0.0
 11
-1375.1742350475461
 21
-645.5748840563009
 31
0.0
  0
LINE
  5
5A
  8
1
 62
     7
 10
-1060.5577030448501
 20
-692.07488405630079
 30
0.0
 11
-1058.257703044851
 21
-692.07488405630079
 31
0.0
  0
LINE
  5
5B
  8
1
 62
     7
 10
-1076.5577030448501
 20
-683.0748840563009
 30
0.0
 11
-1076.5577030448501
 21
-691.07488405630079
 31
0.0
  0
LINE
  5
5C
  8
1
 62
     7
 10
-1080.557703044851
 20
-690.32488405630079
 30
0.0
 11
-1080.557703044851
 21
-683.8248840563009
 31
0.0
  0
LINE
  5
5D
  8
1
 62
     7
 10
-1082.4340914197171
 20
-687.0748840563009
 30
0.0
 11
-1080.557703044851
 21
-690.32488405630079
 31
0.0
  0
LINE
  5
5E
  8
1
 62
     7
 10
-1080.557703044851
 20
-683.8248840563009
 30
0.0
 11
-1082.4340914197171
 21
-687.0748840563009
 31
0.0
  0
LINE
  5
5F
  8
1
 62
     7
 10
-1060.5577030448501
 20
-683.8248840563009
 30
0.0
 11
-1080.557703044851
 21
-683.8248840563009
 31
0.0
  0
LINE
  5
60
  8
1
 62
     7
 10
-1080.557703044851
 20
-690.32488405630079
 30
0.0
 11
-1060.5577030448501
 21
-690.32488405630079
 31
0.0
  0
LINE
  5
61
  8
1
 62
     3
 10
-1060.5577030448501
 20
-691.07488405630079
 30
0.0
 11
-1076.5577030448501
 21
-691.07488405630079
 31
0.0
  0
LINE
  5
62
  8
1
 62
     3
 10
-1060.5577030448501
 20
-683.0748840563009
 30
0.0
 11
-1076.5577030448501
 21
-683.0748840563009
 31
0.0
  0
LINE
  5
63
  8
1
  6
DASHDOT
 62
     3
 10
-1057.518715795359
 20
-687.0748840563009
 30
0.0
 11
-1084.0632452836401
 21
-687.0748840563009
 31
0.0
  0
LINE
  5
64
  8
1
 62
     7
 10
-1060.5577030448501
 20
-682.0748840563009
 30
0.0
 11
-1058.257703044851
 21
-682.0748840563009
 31
0.0
  0
LINE
  5
65
  8
1
 62
     7
 10
-1146.1579434450571
 20
-585.57488405630079
 30
0.0
 11
-1128.2277030448511
 21
-585.57488405630079
 31
0.0
  0
LINE
  5
66
  8
1
 62
     7
 10
-1083.757943445057
 20
-711.57488405630068
 30
0.0
 11
-1083.757943445057
 21
-752.57488405630068
 31
0.0
  0
LINE
  5
67
  8
1
 62
     7
 10
-1081.0579434450569
 20
-703.52488405630095
 30
0.0
 11
-1081.0579434450569
 21
-755.57488405630068
 31
0.0
  0
LINE
  5
68
  8
1
 62
     7
 10
-1060.5577030448501
 20
-681.57488405630068
 30
0.0
 11
-1060.5577030448501
 21
-703.57488405630079
 31
0.0
  0
LINE
  5
69
  8
1
 62
     7
 10
-1108.1579434450571
 20
-749.1748840563007
 30
0.0
 11
-1144.1577030448509
 21
-749.1748840563007
 31
0.0
  0
LINE
  5
6A
  8
1
 62
     7
 10
-1100.527703044851
 20
-700.5748840563009
 30
0.0
 11
-1123.2277030448511
 21
-700.5748840563009
 31
0.0
  0
LINE
  5
6B
  8
1
 62
     7
 10
-1149.0579434450569
 20
-735.57488405630068
 30
0.0
 11
-1146.1577030448509
 21
-735.57488405630068
 31
0.0
  0
LINE
  5
6C
  8
1
 62
     7
 10
-1149.0579434450569
 20
-555.57488405630079
 30
0.0
 11
-1149.0579434450569
 21
-735.57488405630068
 31
0.0
  0
LINE
  5
6D
  8
1
 62
     7
 10
-1149.0579434450569
 20
-555.57488405630079
 30
0.0
 11
-1146.1577030448509
 21
-555.57488405630079
 31
0.0
  0
LINE
  5
6E
  8
1
 62
     7
 10
-1146.1577030448509
 20
-747.17488405630081
 30
0.0
 11
-1144.1577030448509
 21
-749.1748840563007
 31
0.0
  0
LINE
  5
6F
  8
1
 62
     7
 10
-1146.1577030448509
 20
-543.97487864799405
 30
0.0
 11
-1146.1577030448509
 21
-747.17488405630081
 31
0.0
  0
LINE
  5
70
  8
1
  6
DASHDOT
 62
     3
 10
-857.50461342236531
 20
-627.82488405630079
 30
0.0
 11
-867.89691826777835
 21
-621.82488405630068
 31
0.0
  0
LINE
  5
71
  8
1
  6
DASHDOT
 62
     3
 10
-796.01680975367003
 20
-627.8248840563009
 30
0.0
 11
-785.62450490825665
 21
-621.8248840563009
 31
0.0
  0
LINE
  5
72
  8
1
  6
DASHDOT
 62
     3
 10
-826.76071158801778
 20
-681.07488405630079
 30
0.0
 11
-826.76071158801778
 21
-693.07488405630068
 31
0.0
  0
LINE
  5
73
  8
1
 62
     7
 10
-784.51296680258031
 20
-670.39964358271993
 30
0.0
 11
-784.13796680258031
 21
-669.75012452988153
 31
0.0
  0
LINE
  5
74
  8
1
 62
     7
 10
-788.06528983846044
 20
-670.80244756576155
 30
0.0
 11
-787.41577078562216
 21
-671.17744756576155
 31
0.0
  0
LINE
  5
75
  8
1
 62
     7
 10
-788.46809382150241
 20
-667.25012452988153
 30
0.0
 11
-788.84309382150241
 21
-667.89964358271993
 31
0.0
  0
LINE
  5
76
  8
1
 62
     7
 10
-784.91577078562216
 20
-666.8473205468398
 30
0.0
 11
-785.56528983846044
 21
-666.47232054683946
 31
0.0
  0
LINE
  5
77
  8
1
 62
     7
 10
-869.38345637345515
 20
-669.75012452988165
 30
0.0
 11
-869.00845637345515
 21
-670.39964358272005
 31
0.0
  0
LINE
  5
78
  8
1
 62
     7
 10
-867.9561333375749
 20
-666.4723205468398
 30
0.0
 11
-868.60565239041307
 21
-666.8473205468398
 31
0.0
  0
LINE
  5
79
  8
1
 62
     7
 10
-864.67832935453293
 20
-667.89964358272005
 30
0.0
 11
-865.05332935453293
 21
-667.25012452988176
 31
0.0
  0
LINE
  5
7A
  8
1
 62
     7
 10
-866.10565239041318
 20
-671.17744756576201
 30
0.0
 11
-865.4561333375749
 21
-670.8024475657619
 31
0.0
  0
LINE
  5
7B
  8
1
 62
     7
 10
-826.38571158801778
 20
-596.5748840563009
 30
0.0
 11
-827.13571158801778
 21
-596.5748840563009
 31
0.0
  0
LINE
  5
7C
  8
1
 62
     7
 10
-824.26071158801767
 20
-599.4498840563009
 30
0.0
 11
-824.26071158801767
 21
-598.6998840563009
 31
0.0
  0
LINE
  5
7D
  8
1
 62
     7
 10
-827.13571158801778
 20
-601.57488405630079
 30
0.0
 11
-826.38571158801778
 21
-601.57488405630079
 31
0.0
  0
LINE
  5
7E
  8
1
 62
     7
 10
-829.26071158801778
 20
-598.6998840563009
 30
0.0
 11
-829.26071158801778
 21
-599.4498840563009
 31
0.0
  0
LINE
  5
7F
  8
1
  6
DASHDOT
 62
     3
 10
-826.76071158801778
 20
-641.86306258450895
 30
0.0
 11
-826.76071158801778
 21
-649.28670552809285
 31
0.0
  0
LINE
  5
80
  8
1
  6
DASHDOT
 62
     3
 10
-823.04889011622572
 20
-645.5748840563009
 30
0.0
 11
-830.47253305980951
 21
-645.5748840563009
 31
0.0
  0
LINE
  5
81
  8
1
 62
     7
 10
-853.11785977402963
 20
-562.66348110410956
 30
0.0
 11
-851.82231091393453
 21
-567.49853527366872
 31
0.0
  0
LINE
  5
82
  8
1
 62
     7
 10
-845.39045316371653
 20
-560.59292874328935
 30
0.0
 11
-844.0949043036228
 21
-565.42798291284873
 31
0.0
  0
LINE
  5
83
  8
1
 62
     7
 10
-891.04237296451083
 20
-586.95007692930074
 30
0.0
 11
-887.50286765504484
 21
-590.48958223876605
 31
0.0
  0
LINE
  5
84
  8
1
 62
     7
 10
-911.74266690102866
 20
-626.94514248060216
 30
0.0
 11
-906.90761273146961
 21
-628.24069134069612
 31
0.0
  0
LINE
  5
85
  8
1
 62
     7
 10
-909.67211454020855
 20
-671.93203224231218
 30
0.0
 11
-904.8370603706494
 21
-670.63648338221788
 31
0.0
  0
LINE
  5
86
  8
1
 62
     7
 10
-885.38551871501772
 20
-709.85654543279315
 30
0.0
 11
-881.84601340555162
 21
-706.3170401233283
 31
0.0
  0
LINE
  5
87
  8
1
 62
     7
 10
-845.39045316371585
 20
-730.55683936931212
 30
0.0
 11
-844.09490430362155
 21
-725.72178519975284
 31
0.0
  0
LINE
  5
88
  8
1
 62
     7
 10
-800.40356340200572
 20
-728.48628700849179
 30
0.0
 11
-801.6991122621007
 21
-723.6512328389324
 31
0.0
  0
LINE
  5
89
  8
1
 62
     7
 10
-762.47905021152496
 20
-704.19969118330062
 30
0.0
 11
-766.01855552099062
 21
-700.6601858738353
 31
0.0
  0
LINE
  5
8A
  8
1
 62
     7
 10
-741.77875627500612
 20
-664.20462563199931
 30
0.0
 11
-746.61381044456527
 21
-662.90907677190523
 31
0.0
  0
LINE
  5
8B
  8
1
 62
     7
 10
-743.84930863582645
 20
-619.21773587028918
 30
0.0
 11
-748.68436280538572
 21
-620.51328473038336
 31
0.0
  0
LINE
  5
8C
  8
1
 62
     7
 10
-768.13590446101762
 20
-581.29322267980785
 30
0.0
 11
-771.67540977048259
 21
-584.83272798927328
 31
0.0
  0
LINE
  5
8D
  8
1
 62
     7
 10
-808.13097001231949
 20
-560.59292874328912
 30
0.0
 11
-809.42651887241357
 21
-565.42798291284839
 31
0.0
  0
LINE
  5
8E
  8
1
 62
     7
 10
-885.38551871501772
 20
-581.29322267980831
 30
0.0
 11
-881.84601340555253
 21
-584.83272798927351
 31
0.0
  0
LINE
  5
8F
  8
1
 62
     7
 10
-909.67211454020855
 20
-619.2177358702894
 30
0.0
 11
-904.8370603706494
 21
-620.51328473038336
 31
0.0
  0
LINE
  5
90
  8
1
 62
     7
 10
-911.74266690102866
 20
-664.20462563199931
 30
0.0
 11
-906.90761273146961
 21
-662.90907677190523
 31
0.0
  0
LINE
  5
91
  8
1
 62
     7
 10
-891.04237296450958
 20
-704.19969118330062
 30
0.0
 11
-887.50286765504484
 21
-700.66018587383542
 31
0.0
  0
LINE
  5
92
  8
1
 62
     7
 10
-853.11785977402883
 20
-728.48628700849201
 30
0.0
 11
-851.82231091393453
 21
-723.6512328389324
 31
0.0
  0
LINE
  5
93
  8
1
 62
     7
 10
-808.1309700123187
 20
-730.55683936931177
 30
0.0
 11
-809.42651887241266
 21
-725.72178519975262
 31
0.0
  0
LINE
  5
94
  8
1
 62
     7
 10
-768.13590446101762
 20
-709.85654543279293
 30
0.0
 11
-771.67540977048259
 21
-706.31704012332784
 31
0.0
  0
LINE
  5
95
  8
1
 62
     7
 10
-743.84930863582622
 20
-671.93203224231195
 30
0.0
 11
-748.68436280538572
 21
-670.63648338221788
 31
0.0
  0
LINE
  5
96
  8
1
 62
     7
 10
-741.77875627500623
 20
-626.94514248060193
 30
0.0
 11
-746.61381044456562
 21
-628.24069134069612
 31
0.0
  0
LINE
  5
97
  8
1
 62
     7
 10
-762.4790502115253
 20
-586.95007692930074
 30
0.0
 11
-766.01855552099062
 21
-590.48958223876571
 31
0.0
  0
LINE
  5
98
  8
1
 62
     7
 10
-800.40356340200663
 20
-562.66348110410945
 30
0.0
 11
-801.6991122621007
 21
-567.49853527366872
 31
0.0
  0
LINE
  5
99
  8
1
 62
     7
 10
-1108.1579434450571
 20
-749.1748840563007
 30
0.0
 11
-1108.1579434450571
 21
-726.57488405630102
 31
0.0
  0
LINE
  5
9A
  8
1
 62
     7
 10
-1108.1579434450571
 20
-541.97488405630077
 30
0.0
 11
-1108.1579434450571
 21
-564.57488405630079
 31
0.0
  0
LINE
  5
9B
  8
1
 62
     7
 10
-1135.307703044851
 20
-541.97488405630077
 30
0.0
 11
-1135.307703044851
 21
-507.91000773601002
 31
0.0
  0
LINE
  5
9C
  8
1
 62
     7
 10
-821.76071158801767
 20
-622.07488405630079
 30
0.0
 11
-821.76071158801767
 21
-626.20996732526385
 31
0.0
  0
LINE
  5
9D
  8
1
 62
     7
 10
-831.76071158801767
 20
-622.07488405630079
 30
0.0
 11
-821.76071158801767
 21
-622.07488405630079
 31
0.0
  0
LINE
  5
9E
  8
1
 62
     7
 10
-831.76071158801767
 20
-626.20996732526385
 30
0.0
 11
-831.76071158801767
 21
-622.07488405630079
 31
0.0
  0
LINE
  5
9F
  8
1
 62
     7
 10
-1106.1277030448509
 20
-726.57488405630102
 30
0.0
 11
-1110.027703044851
 21
-726.57488405630102
 31
0.0
  0
LINE
  5
A0
  8
1
 62
     7
 10
-1120.057703044851
 20
-753.57488405630102
 30
0.0
 11
-1120.057703044851
 21
-749.57488405630102
 31
0.0
  0
LINE
  5
A1
  8
1
 62
     7
 10
-1118.057703044851
 20
-755.57488405630102
 30
0.0
 11
-1097.0579434450569
 21
-755.57488405630102
 31
0.0
  0
LINE
  5
A2
  8
1
 62
     7
 10
-1097.0579434450569
 20
-755.57488405630102
 30
0.0
 11
-1097.0579434450569
 21
-684.57488405630079
 31
0.0
  0
LINE
  5
A3
  8
1
 62
     7
 10
-1100.527703044851
 20
-718.57488405630102
 30
0.0
 11
-1097.0579434450569
 21
-718.57488405630102
 31
0.0
  0
LINE
  5
A4
  8
1
 62
     7
 10
-1100.527703044851
 20
-718.57488405630102
 30
0.0
 11
-1100.527703044851
 21
-684.57488405630079
 31
0.0
  0
LINE
  5
A5
  8
1
 62
     7
 10
-1120.057703044851
 20
-753.57488405630102
 30
0.0
 11
-1118.057703044851
 21
-755.57488405630102
 31
0.0
  0
LINE
  5
A6
  8
1
 62
     7
 10
-1106.1277030448509
 20
-749.57488405630102
 30
0.0
 11
-1106.1277030448509
 21
-726.57488405630102
 31
0.0
  0
LINE
  5
A7
  8
1
 62
     7
 10
-1120.057703044851
 20
-749.57488405630102
 30
0.0
 11
-1106.1277030448509
 21
-749.57488405630102
 31
0.0
  0
LINE
  5
A8
  8
1
 62
     7
 10
-1110.027703044851
 20
-714.57488405630102
 30
0.0
 11
-1110.027703044851
 21
-726.57488405630102
 31
0.0
  0
LINE
  5
A9
  8
1
 62
     7
 10
-1108.1579434450571
 20
-714.57488405630102
 30
0.0
 11
-1110.027703044851
 21
-714.57488405630102
 31
0.0
  0
LINE
  5
AA
  8
1
 62
     7
 10
-1108.1579434450571
 20
-714.57488405630102
 30
0.0
 11
-1110.027703044851
 21
-714.57488405630102
 31
0.0
  0
LINE
  5
AB
  8
1
 62
     7
 10
-1108.1579434450571
 20
-684.57488405630079
 30
0.0
 11
-1108.1579434450571
 21
-714.57488405630102
 31
0.0
  0
LINE
  5
AC
  8
1
 62
     7
 10
-1128.2277030448511
 20
-705.57488405630102
 30
0.0
 11
-1146.132354195063
 21
-705.57488405630102
 31
0.0
  0
LINE
  5
AD
  8
1
 62
     7
 10
-1123.2277030448511
 20
-700.5748840563009
 30
0.0
 11
-1128.2277030448511
 21
-705.57488405630102
 31
0.0
  0
LINE
  5
AE
  8
1
 62
     7
 10
-1128.2277030448511
 20
-684.57488405630079
 30
0.0
 11
-1128.2277030448511
 21
-705.57488405630102
 31
0.0
  0
LINE
  5
AF
  8
1
 62
     7
 10
-1123.2277030448511
 20
-684.57488405630079
 30
0.0
 11
-1123.2277030448511
 21
-700.5748840563009
 31
0.0
  0
LINE
  5
B0
  8
1
 62
     7
 10
-1146.2233734238459
 20
-685.57488405630102
 30
0.0
 11
-1149.0579434450569
 21
-685.57488405630102
 31
0.0
  0
LINE
  5
B1
  8
1
 62
     7
 10
-1149.0579434450569
 20
-605.57488405630079
 30
0.0
 11
-1146.1579434450571
 21
-605.57488405630079
 31
0.0
  0
LINE
  5
B2
  8
1
 62
     7
 10
-1149.0579434450569
 20
-600.8248840563009
 30
0.0
 11
-1146.1577030448509
 21
-600.8248840563009
 31
0.0
  0
LINE
  5
B3
  8
1
 62
     7
 10
-1149.0579434450569
 20
-592.3248840563009
 30
0.0
 11
-1146.1579434450571
 21
-592.3248840563009
 31
0.0
  0
LINE
  5
B4
  8
1
  6
DASHDOT
 62
     3
 10
-1150.718089150168
 20
-596.5748840563009
 30
0.0
 11
-1144.48754979467
 21
-596.5748840563009
 31
0.0
  0
LINE
  5
B5
  8
1
 62
     7
 10
-1146.132354195063
 20
-543.97487864799405
 30
0.0
 11
-1144.1277030448509
 21
-541.97488405630077
 31
0.0
  0
LINE
  5
B6
  8
1
 62
     7
 10
-1100.527703044851
 20
-606.5748840563009
 30
0.0
 11
-1100.527703044851
 21
-572.57488405630079
 31
0.0
  0
LINE
  5
B7
  8
1
 62
     7
 10
-1123.2277030448511
 20
-590.5748840563009
 30
0.0
 11
-1123.2277030448511
 21
-606.5748840563009
 31
0.0
  0
LINE
  5
B8
  8
1
 62
     7
 10
-1128.2277030448511
 20
-585.57488405630079
 30
0.0
 11
-1128.2277030448511
 21
-606.5748840563009
 31
0.0
  0
LINE
  5
B9
  8
1
 62
     7
 10
-1128.2277030448511
 20
-585.57488405630079
 30
0.0
 11
-1123.2277030448511
 21
-590.5748840563009
 31
0.0
  0
LINE
  5
BA
  8
1
 62
     7
 10
-1110.027703044851
 20
-576.57488405630079
 30
0.0
 11
-1108.1579434450571
 21
-576.57488405630079
 31
0.0
  0
LINE
  5
BB
  8
1
 62
     7
 10
-1110.027703044851
 20
-564.57488405630079
 30
0.0
 11
-1110.027703044851
 21
-576.57488405630079
 31
0.0
  0
LINE
  5
BC
  8
1
 62
     7
 10
-1106.057703044851
 20
-541.5748840563009
 30
0.0
 11
-1120.057703044851
 21
-541.5748840563009
 31
0.0
  0
LINE
  5
BD
  8
1
 62
     7
 10
-1106.057703044851
 20
-564.57488405630079
 30
0.0
 11
-1106.057703044851
 21
-541.5748840563009
 31
0.0
  0
LINE
  5
BE
  8
1
 62
     7
 10
-1060.5577030448501
 20
-697.53772580348027
 30
0.0
 11
-1086.057703044851
 21
-697.53772580348038
 31
0.0
  0
LINE
  5
BF
  8
1
 62
     7
 10
-1059.057703044851
 20
-681.57488405630068
 30
0.0
 11
-1059.057703044851
 21
-609.57488405630079
 31
0.0
  0
LINE
  5
C0
  8
1
 62
     7
 10
-1060.5577030448501
 20
-681.57488405630068
 30
0.0
 11
-1058.257703044851
 21
-681.57488405630068
 31
0.0
  0
LINE
  5
C1
  8
1
 62
     7
 10
-1128.057703044851
 20
-680.57488405630068
 30
0.0
 11
-1086.057703044851
 21
-680.57488405630079
 31
0.0
  0
LINE
  5
C2
  8
1
 62
     7
 10
-1129.0577030448501
 20
-665.57488405630068
 30
0.0
 11
-1059.057703044851
 21
-665.57488405630068
 31
0.0
  0
LINE
  5
C3
  8
1
 62
     7
 10
-1129.0577030448501
 20
-679.57488405630079
 30
0.0
 11
-1128.057703044851
 21
-680.57488405630068
 31
0.0
  0
LINE
  5
C4
  8
1
 62
     7
 10
-1128.057703044851
 20
-610.5748840563009
 30
0.0
 11
-1129.0577030448501
 21
-611.5748840563009
 31
0.0
  0
LINE
  5
C5
  8
1
 62
     7
 10
-1059.057703044851
 20
-625.5748840563009
 30
0.0
 11
-1129.0577030448501
 21
-625.5748840563009
 31
0.0
  0
LINE
  5
C6
  8
1
 62
     7
 10
-1129.0577030448501
 20
-622.07488405630079
 30
0.0
 11
-1059.057703044851
 21
-622.07488405630079
 31
0.0
  0
LINE
  5
C7
  8
1
 62
     7
 10
-1086.057703044851
 20
-610.5748840563009
 30
0.0
 11
-1128.057703044851
 21
-610.5748840563009
 31
0.0
  0
LINE
  5
C8
  8
1
 62
     7
 10
-1129.0577030448501
 20
-611.5748840563009
 30
0.0
 11
-1129.0577030448501
 21
-679.57488405630079
 31
0.0
  0
LINE
  5
C9
  8
1
 62
     7
 10
-1058.257703044851
 20
-587.5748840563009
 30
0.0
 11
-1058.257703044851
 21
-703.57488405630079
 31
0.0
  0
LINE
  5
CA
  8
1
 62
     7
 10
-1118.057703044851
 20
-535.57488405630079
 30
0.0
 11
-1120.057703044851
 21
-537.5748840563009
 31
0.0
  0
LINE
  5
CB
  8
1
 62
     7
 10
-1097.0579434450569
 20
-572.57488405630079
 30
0.0
 11
-1100.527703044851
 21
-572.57488405630079
 31
0.0
  0
LINE
  5
CC
  8
1
 62
     7
 10
-1097.0579434450569
 20
-535.57488405630079
 30
0.0
 11
-1097.0579434450569
 21
-606.5748840563009
 31
0.0
  0
LINE
  5
CD
  8
1
 62
     7
 10
-1097.0579434450569
 20
-535.57488405630079
 30
0.0
 11
-1118.057703044851
 21
-535.57488405630079
 31
0.0
  0
LINE
  5
CE
  8
1
 62
     7
 10
-1120.057703044851
 20
-541.5748840563009
 30
0.0
 11
-1120.057703044851
 21
-537.5748840563009
 31
0.0
  0
LINE
  5
CF
  8
1
 62
     7
 10
-1106.057703044851
 20
-564.57488405630079
 30
0.0
 11
-1110.027703044851
 21
-564.57488405630079
 31
0.0
  0
LINE
  5
D0
  8
1
 62
     7
 10
-1084.911803161448
 20
-587.62488405630074
 30
0.0
 11
-1086.057703044851
 21
-588.62488405630074
 31
0.0
  0
LINE
  5
D1
  8
1
 62
     7
 10
-1086.057703044851
 20
-593.61204230912142
 30
0.0
 11
-1060.5577030448501
 21
-593.61204230912142
 31
0.0
  0
LINE
  5
D2
  8
1
 62
     7
 10
-1065.5579434450569
 20
-561.0748840563009
 30
0.0
 11
-1065.5579434450569
 21
-570.45217145199581
 31
0.0
  0
LINE
  5
D3
  8
1
 62
     7
 10
-1067.0579434450569
 20
-559.57488405630079
 30
0.0
 11
-1081.0579434450569
 21
-559.57488405630079
 31
0.0
  0
LINE
  5
D4
  8
1
 62
     7
 10
-1062.2579434450561
 20
-574.9948121391152
 30
0.0
 11
-1062.2579434450561
 21
-593.61204230912142
 31
0.0
  0
LINE
  5
D5
  8
1
 62
     7
 10
-1071.5579434450569
 20
-593.61204230912142
 30
0.0
 11
-1071.5579434450569
 21
-582.5748840563009
 31
0.0
  0
LINE
  5
D6
  8
1
 62
     7
 10
-1077.6579434450571
 20
-559.57488405630079
 30
0.0
 11
-1077.6579434450571
 21
-563.57488405630079
 31
0.0
  0
LINE
  5
D7
  8
1
 62
     7
 10
-1073.0579434450569
 20
-575.5748840563009
 30
0.0
 11
-1073.0579434450569
 21
-582.5748840563009
 31
0.0
  0
LINE
  5
D8
  8
1
 62
     7
 10
-1073.0579434450569
 20
-582.5748840563009
 30
0.0
 11
-1071.5579434450569
 21
-582.5748840563009
 31
0.0
  0
LINE
  5
D9
  8
1
 62
     7
 10
-1079.0579434450569
 20
-559.57488405630079
 30
0.0
 11
-1079.0579434450569
 21
-563.57488405630079
 31
0.0
  0
LINE
  5
DA
  8
1
 62
     7
 10
-1093.257943445057
 20
-574.0748840563009
 30
0.0
 11
-1093.757943445057
 21
-573.20885865251637
 31
0.0
  0
LINE
  5
DB
  8
1
 62
     7
 10
-1093.757943445057
 20
-573.20885865251637
 30
0.0
 11
-1093.757943445057
 21
-561.94090946008532
 31
0.0
  0
LINE
  5
DC
  8
1
 62
     7
 10
-1093.757943445057
 20
-561.94090946008532
 30
0.0
 11
-1093.257943445057
 21
-561.0748840563009
 31
0.0
  0
LINE
  5
DD
  8
1
 62
     7
 10
-1093.257943445057
 20
-561.0748840563009
 30
0.0
 11
-1085.757943445057
 21
-561.0748840563009
 31
0.0
  0
LINE
  5
DE
  8
1
 62
     7
 10
-1093.257943445057
 20
-574.0748840563009
 30
0.0
 11
-1093.257943445057
 21
-561.0748840563009
 31
0.0
  0
LINE
  5
DF
  8
1
 62
     7
 10
-1085.757943445057
 20
-571.5748840563009
 30
0.0
 11
-1066.5579434450569
 21
-571.5748840563009
 31
0.0
  0
LINE
  5
E0
  8
1
 62
     7
 10
-1066.5579434450569
 20
-571.5748840563009
 30
0.0
 11
-1065.757943445057
 21
-570.77488405630095
 31
0.0
  0
LINE
  5
E1
  8
1
 62
     7
 10
-1065.757943445057
 20
-570.77488405630095
 30
0.0
 11
-1065.757943445057
 21
-564.37488405630074
 31
0.0
  0
LINE
  5
E2
  8
1
 62
     7
 10
-1065.757943445057
 20
-564.37488405630074
 30
0.0
 11
-1066.5579434450569
 21
-563.57488405630079
 31
0.0
  0
LINE
  5
E3
  8
1
 62
     7
 10
-1066.5579434450569
 20
-563.57488405630079
 30
0.0
 11
-1085.757943445057
 21
-563.57488405630079
 31
0.0
  0
LINE
  5
E4
  8
1
 62
     7
 10
-1066.5579434450569
 20
-571.5748840563009
 30
0.0
 11
-1066.5579434450569
 21
-563.57488405630079
 31
0.0
  0
LINE
  5
E5
  8
1
 62
     3
 10
-1065.757943445057
 20
-570.77488405630095
 30
0.0
 11
-1083.872302799002
 21
-570.77488405630095
 31
0.0
  0
LINE
  5
E6
  8
1
 62
     7
 10
-1083.872302799002
 20
-570.77488405630095
 30
0.0
 11
-1085.257943445057
 21
-571.5748840563009
 31
0.0
  0
LINE
  5
E7
  8
1
 62
     3
 10
-1065.757943445057
 20
-564.37488405630074
 30
0.0
 11
-1083.872302799002
 21
-564.37488405630074
 31
0.0
  0
LINE
  5
E8
  8
1
 62
     3
 10
-1083.872302799002
 20
-564.37488405630074
 30
0.0
 11
-1085.257943445057
 21
-563.57488405630079
 31
0.0
  0
LINE
  5
E9
  8
1
 62
     7
 10
-1083.872302799002
 20
-571.5748840563009
 30
0.0
 11
-1083.872302799002
 21
-563.57488405630079
 31
0.0
  0
LINE
  5
EA
  8
1
 62
     7
 10
-1079.0579434450569
 20
-571.5748840563009
 30
0.0
 11
-1079.0579434450569
 21
-575.5748840563009
 31
0.0
  0
LINE
  5
EB
  8
1
 62
     7
 10
-1077.6579434450571
 20
-571.5748840563009
 30
0.0
 11
-1077.6579434450571
 21
-575.5748840563009
 31
0.0
  0
LINE
  5
EC
  8
1
 62
     7
 10
-1096.5579434450569
 20
-535.57488405630079
 30
0.0
 11
-1089.2579434450561
 21
-535.57488405630079
 31
0.0
  0
LINE
  5
ED
  8
1
 62
     7
 10
-1096.5579434450569
 20
-535.57488405630079
 30
0.0
 11
-1096.5579434450569
 21
-606.5748840563009
 31
0.0
  0
LINE
  5
EE
  8
1
 62
     7
 10
-1096.5579434450569
 20
-572.57488405630079
 30
0.0
 11
-1093.757943445057
 21
-572.57488405630079
 31
0.0
  0
LINE
  5
EF
  8
1
 62
     7
 10
-1081.0579434450569
 20
-563.57488405630079
 30
0.0
 11
-1081.0579434450569
 21
-535.57488405630079
 31
0.0
  0
LINE
  5
F0
  8
1
 62
     7
 10
-1083.757943445057
 20
-558.5748840563009
 30
0.0
 11
-1081.0579434450569
 21
-558.5748840563009
 31
0.0
  0
LINE
  5
F1
  8
1
 62
     7
 10
-1083.757943445057
 20
-579.0748840563009
 30
0.0
 11
-1081.0579434450569
 21
-579.0748840563009
 31
0.0
  0
LINE
  5
F2
  8
1
 62
     7
 10
-1083.757943445057
 20
-579.5748840563009
 30
0.0
 11
-1083.757943445057
 21
-571.5748840563009
 31
0.0
  0
LINE
  5
F3
  8
1
 62
     7
 10
-1083.757943445057
 20
-563.58224623636181
 30
0.0
 11
-1083.757943445057
 21
-538.57488405630079
 31
0.0
  0
LINE
  5
F4
  8
1
 62
     7
 10
-1085.757943445057
 20
-539.60625708970417
 30
0.0
 11
-1085.757943445057
 21
-538.57488405630079
 31
0.0
  0
LINE
  5
F5
  8
1
 62
     7
 10
-1072.0579434450569
 20
-586.22488405630077
 30
0.0
 11
-1072.0579434450569
 21
-587.62488405630074
 31
0.0
  0
LINE
  5
F6
  8
1
 62
     7
 10
-1076.6579434450571
 20
-580.62488405630074
 30
0.0
 11
-1078.0579434450569
 21
-580.62488405630074
 31
0.0
  0
LINE
  5
F7
  8
1
 62
     7
 10
-1076.6579434450571
 20
-585.62488405630074
 30
0.0
 11
-1076.6579434450571
 21
-580.62488405630074
 31
0.0
  0
LINE
  5
F8
  8
1
 62
     7
 10
-1076.6579434450571
 20
-580.62488405630074
 30
0.0
 11
-1076.6579434450571
 21
-575.5748840563009
 31
0.0
  0
LINE
  5
F9
  8
1
 62
     7
 10
-1076.6579434450571
 20
-705.52488405630095
 30
0.0
 11
-1076.6579434450571
 21
-732.57488405630079
 31
0.0
  0
LINE
  5
FA
  8
1
 62
     7
 10
-1072.0579434450569
 20
-703.52488405630095
 30
0.0
 11
-1072.0579434450569
 21
-704.92488405630093
 31
0.0
  0
LINE
  5
FB
  8
1
 62
     7
 10
-1089.2579434450561
 20
-742.47488405630065
 30
0.0
 11
-1089.2579434450561
 21
-729.67488405630081
 31
0.0
  0
LINE
  5
FC
  8
1
 62
     7
 10
-1071.5579434450569
 20
-708.57488405630079
 30
0.0
 11
-1073.0579434450569
 21
-708.57488405630079
 31
0.0
  0
LINE
  5
FD
  8
1
 62
     7
 10
-1071.5579434450569
 20
-708.57488405630079
 30
0.0
 11
-1071.5579434450569
 21
-697.53772580348038
 31
0.0
  0
LINE
  5
FE
  8
1
 62
     7
 10
-1062.2579434450561
 20
-697.53772580348038
 30
0.0
 11
-1062.2579434450561
 21
-716.15495597348661
 31
0.0
  0
LINE
  5
FF
  8
1
 62
     7
 10
-1086.057703044851
 20
-702.52488405630095
 30
0.0
 11
-1084.911803161448
 21
-703.52488405630095
 31
0.0
  0
LINE
  5
100
  8
1
 62
     7
 10
-1064.1122167377571
 20
-718.07488405630068
 30
0.0
 11
-1073.0579434450569
 21
-718.07488405630068
 31
0.0
  0
LINE
  5
101
  8
1
 62
     7
 10
-1073.0579434450569
 20
-708.57488405630079
 30
0.0
 11
-1073.0579434450569
 21
-718.07488405630068
 31
0.0
  0
LINE
  5
102
  8
1
 62
     7
 10
-1078.0548132133119
 20
-732.57488405630079
 30
0.0
 11
-1076.6579434450571
 21
-732.57488405630079
 31
0.0
  0
LINE
  5
103
  8
1
 62
     7
 10
-1096.5579434450569
 20
-723.82488405630079
 30
0.0
 11
-1092.4818031614479
 21
-723.82488405630079
 31
0.0
  0
LINE
  5
104
  8
1
 62
     7
 10
-1096.5579434450569
 20
-731.32488405630079
 30
0.0
 11
-1092.4818031614479
 21
-731.32488405630079
 31
0.0
  0
LINE
  5
105
  8
1
 62
     7
 10
-1096.5579434450569
 20
-740.82488405630079
 30
0.0
 11
-1092.4818031614479
 21
-740.82488405630079
 31
0.0
  0
LINE
  5
106
  8
1
 62
     7
 10
-1096.5579434450569
 20
-748.32488405630079
 30
0.0
 11
-1092.4818031614479
 21
-748.32488405630079
 31
0.0
  0
LINE
  5
107
  8
1
 62
     7
 10
-1092.4818031614479
 20
-723.82488405630079
 30
0.0
 11
-1092.4818031614479
 21
-731.32488405630079
 31
0.0
  0
LINE
  5
108
  8
1
 62
     7
 10
-1092.4818031614479
 20
-740.82488405630079
 30
0.0
 11
-1092.4818031614479
 21
-748.32488405630079
 31
0.0
  0
LINE
  5
109
  8
1
 62
     7
 10
-1092.4818031614479
 20
-742.47488405630065
 30
0.0
 11
-1087.257943445057
 21
-742.47488405630065
 31
0.0
  0
LINE
  5
10A
  8
1
 62
     7
 10
-1092.4818031614479
 20
-746.67488405630081
 30
0.0
 11
-1087.257943445057
 21
-746.67488405630081
 31
0.0
  0
LINE
  5
10B
  8
1
 62
     7
 10
-1092.4818031614479
 20
-725.47488405630065
 30
0.0
 11
-1087.257943445057
 21
-725.47488405630065
 31
0.0
  0
LINE
  5
10C
  8
1
 62
     7
 10
-1092.4818031614479
 20
-729.67488405630081
 30
0.0
 11
-1087.257943445057
 21
-729.67488405630081
 31
0.0
  0
LINE
  5
10D
  8
1
 62
     7
 10
-1088.681803161448
 20
-718.57488405630068
 30
0.0
 11
-1096.5579434450569
 21
-718.57488405630068
 31
0.0
  0
LINE
  5
10E
  8
1
 62
     7
 10
-1087.257943445057
 20
-716.57488405630079
 30
0.0
 11
-1087.257943445057
 21
-747.57488405630068
 31
0.0
  0
LINE
  5
10F
  8
1
 62
     7
 10
-1083.757943445057
 20
-712.07488405630079
 30
0.0
 11
-1081.0579434450569
 21
-712.07488405630079
 31
0.0
  0
LINE
  5
110
  8
1
 62
     7
 10
-1083.757943445057
 20
-723.57488405630068
 30
0.0
 11
-1081.180157201798
 21
-723.57488405630068
 31
0.0
  0
LINE
  5
111
  8
1
 62
     7
 10
-1083.6818031614489
 20
-732.57488405630079
 30
0.0
 11
-1081.081803161449
 21
-732.57488405630079
 31
0.0
  0
LINE
  5
112
  8
1
 62
     7
 10
-829.06071158801763
 20
-507.91000773601002
 30
0.0
 11
-829.06071158801763
 21
-535.59893213952967
 31
0.0
  0
LINE
  5
113
  8
1
 62
     7
 10
-826.76071158801778
 20
-507.91000773601002
 30
0.0
 11
-826.76071158801778
 21
-535.57488405630079
 31
0.0
  0
LINE
  5
114
  8
1
 62
     7
 10
-824.4607115880176
 20
-507.91000773601002
 30
0.0
 11
-824.4607115880176
 21
-535.59893213952967
 31
0.0
  0
LINE
  5
115
  8
1
 62
     7
 10
-829.06071158801763
 20
-507.91000773601002
 30
0.0
 11
-828.51071158801756
 21
-507.91000773601002
 31
0.0
  0
LINE
  5
116
  8
1
 62
     7
 10
-825.61071158801758
 20
-502.9100077360099
 30
0.0
 11
-825.61071158801758
 21
-507.91000773601002
 31
0.0
  0
LINE
  5
117
  8
1
 62
     7
 10
-825.61071158801758
 20
-507.91000773601002
 30
0.0
 11
-825.31071158801785
 21
-507.91000773601002
 31
0.0
  0
LINE
  5
118
  8
1
 62
     7
 10
-827.91071158801776
 20
-502.9100077360099
 30
0.0
 11
-827.91071158801776
 21
-507.91000773601002
 31
0.0
  0
LINE
  5
119
  8
1
 62
     7
 10
-827.91071158801776
 20
-507.91000773601002
 30
0.0
 11
-827.61071158801758
 21
-507.91000773601002
 31
0.0
  0
LINE
  5
11A
  8
1
 62
     7
 10
-825.31071158801785
 20
-502.9100077360099
 30
0.0
 11
-825.31071158801785
 21
-507.91000773601002
 31
0.0
  0
LINE
  5
11B
  8
1
 62
     7
 10
-825.31071158801785
 20
-507.91000773601002
 30
0.0
 11
-825.01071158801778
 21
-507.91000773601002
 31
0.0
  0
LINE
  5
11C
  8
1
 62
     7
 10
-825.91071158801776
 20
-502.9100077360099
 30
0.0
 11
-825.91071158801776
 21
-507.91000773601002
 31
0.0
  0
LINE
  5
11D
  8
1
 62
     7
 10
-825.91071158801776
 20
-507.91000773601002
 30
0.0
 11
-825.61071158801758
 21
-507.91000773601002
 31
0.0
  0
LINE
  5
11E
  8
1
 62
     7
 10
-826.2107115880176
 20
-502.9100077360099
 30
0.0
 11
-826.2107115880176
 21
-507.91000773601002
 31
0.0
  0
LINE
  5
11F
  8
1
 62
     7
 10
-826.2107115880176
 20
-507.91000773601002
 30
0.0
 11
-825.91071158801776
 21
-507.91000773601002
 31
0.0
  0
LINE
  5
120
  8
1
 62
     7
 10
-825.01071158801778
 20
-502.9100077360099
 30
0.0
 11
-825.01071158801778
 21
-507.91000773601002
 31
0.0
  0
LINE
  5
121
  8
1
 62
     7
 10
-825.01071158801778
 20
-507.91000773601002
 30
0.0
 11
-824.4607115880176
 21
-507.91000773601002
 31
0.0
  0
LINE
  5
122
  8
1
 62
     7
 10
-827.61071158801758
 20
-502.9100077360099
 30
0.0
 11
-827.61071158801758
 21
-507.91000773601002
 31
0.0
  0
LINE
  5
123
  8
1
 62
     7
 10
-827.61071158801758
 20
-507.91000773601002
 30
0.0
 11
-827.31071158801774
 21
-507.91000773601002
 31
0.0
  0
LINE
  5
124
  8
1
 62
     7
 10
-827.31071158801774
 20
-502.9100077360099
 30
0.0
 11
-827.31071158801774
 21
-507.91000773601002
 31
0.0
  0
LINE
  5
125
  8
1
 62
     7
 10
-827.31071158801774
 20
-507.91000773601002
 30
0.0
 11
-826.2107115880176
 21
-507.91000773601002
 31
0.0
  0
LINE
  5
126
  8
1
 62
     7
 10
-828.2107115880176
 20
-502.9100077360099
 30
0.0
 11
-828.2107115880176
 21
-507.91000773601002
 31
0.0
  0
LINE
  5
127
  8
1
 62
     7
 10
-828.2107115880176
 20
-507.91000773601002
 30
0.0
 11
-827.91071158801776
 21
-507.91000773601002
 31
0.0
  0
LINE
  5
128
  8
1
 62
     7
 10
-828.51071158801756
 20
-502.9100077360099
 30
0.0
 11
-828.51071158801756
 21
-507.91000773601002
 31
0.0
  0
LINE
  5
129
  8
1
 62
     7
 10
-828.51071158801756
 20
-507.91000773601002
 30
0.0
 11
-828.2107115880176
 21
-507.91000773601002
 31
0.0
  0
LINE
  5
12A
  8
1
 62
     7
 10
-1133.007703044851
 20
-507.91000773601002
 30
0.0
 11
-1133.007703044851
 21
-541.97488405630077
 31
0.0
  0
LINE
  5
12B
  8
1
 62
     7
 10
-1134.1577030448509
 20
-502.9100077360099
 30
0.0
 11
-1134.1577030448509
 21
-507.91000773601002
 31
0.0
  0
LINE
  5
12C
  8
1
 62
     7
 10
-1110.027703044851
 20
-576.57488405630079
 30
0.0
 11
-1108.1579434450571
 21
-576.57488405630079
 31
0.0
  0
LINE
  5
12D
  8
1
 62
     7
 10
-1108.1579434450571
 20
-541.97488405630077
 30
0.0
 11
-1144.1277030448509
 21
-541.97488405630077
 31
0.0
  0
LINE
  5
12E
  8
1
 62
     7
 10
-1100.527703044851
 20
-590.5748840563009
 30
0.0
 11
-1123.2277030448511
 21
-590.5748840563009
 31
0.0
  0
LINE
  5
12F
  8
1
 62
     7
 10
-1089.2579434450561
 20
-574.0748840563009
 30
0.0
 11
-1089.2579434450561
 21
-606.5748840563009
 31
0.0
  0
LINE
  5
130
  8
1
 62
     7
 10
-1085.757943445057
 20
-574.0748840563009
 30
0.0
 11
-1093.257943445057
 21
-574.0748840563009
 31
0.0
  0
LINE
  5
131
  8
1
 62
     7
 10
-1073.0579434450569
 20
-575.5748840563009
 30
0.0
 11
-1081.0579434450569
 21
-575.5748840563009
 31
0.0
  0
LINE
  5
132
  8
1
 62
     7
 10
-1108.1579434450571
 20
-606.5748840563009
 30
0.0
 11
-1108.1579434450571
 21
-576.57488405630079
 31
0.0
  0
LINE
  5
133
  8
1
  6
DASHDOT
 62
     3
 10
-1058.257703044851
 20
-645.5748840563009
 30
0.0
 11
-1053.257703044851
 21
-645.5748840563009
 31
0.0
  0
LINE
  5
134
  8
1
  6
DASHDOT
 62
     3
 10
-1154.0579434450569
 20
-645.5748840563009
 30
0.0
 11
-1149.0579434450569
 21
-645.5748840563009
 31
0.0
  0
LINE
  5
135
  8
1
 62
     7
 10
-1058.257703044851
 20
-609.57488405630079
 30
0.0
 11
-1060.5577030448501
 21
-609.57488405630079
 31
0.0
  0
LINE
  5
136
  8
1
 62
     7
 10
-1096.5579434450569
 20
-684.57488405630079
 30
0.0
 11
-1096.5579434450569
 21
-755.57488405630068
 31
0.0
  0
LINE
  5
137
  8
1
 62
     7
 10
-1307.1742350475449
 20
-637.5748840563009
 30
0.0
 11
-1305.1742350475449
 21
-637.5748840563009
 31
0.0
  0
LINE
  5
138
  8
1
 62
     7
 10
-1303.774235047546
 20
-637.5748840563009
 30
0.0
 11
-1303.774235047546
 21
-653.5748840563009
 31
0.0
  0
LINE
  5
139
  8
1
 62
     7
 10
-1305.1742350475449
 20
-637.5748840563009
 30
0.0
 11
-1305.1742350475449
 21
-653.5748840563009
 31
0.0
  0
LINE
  5
13A
  8
1
 62
     7
 10
-1303.774235047546
 20
-637.5748840563009
 30
0.0
 11
-1302.1742350475449
 21
-637.5748840563009
 31
0.0
  0
LINE
  5
13B
  8
1
 62
     7
 10
-1302.1742350475449
 20
-560.68393114198
 30
0.0
 11
-1305.1742350475449
 21
-637.5748840563009
 31
0.0
  0
LINE
  5
13C
  8
1
 62
     7
 10
-1303.774235047546
 20
-637.5748840563009
 30
0.0
 11
-1300.774235047546
 21
-560.68393114198
 31
0.0
  0
LINE
  5
13D
  8
1
 62
     7
 10
-1302.1742350475449
 20
-560.68393114198
 30
0.0
 11
-1300.774235047546
 21
-560.68393114198
 31
0.0
  0
LINE
  5
13E
  8
1
 62
     7
 10
-1305.1742350475449
 20
-731.57488405630068
 30
0.0
 11
-1305.1742350475449
 21
-715.57488405630068
 31
0.0
  0
LINE
  5
13F
  8
1
 62
     7
 10
-1303.774235047546
 20
-715.57488405630068
 30
0.0
 11
-1302.1742350475449
 21
-715.57488405630068
 31
0.0
  0
LINE
  5
140
  8
1
 62
     7
 10
-1302.1742350475449
 20
-663.8710895069662
 30
0.0
 11
-1300.774235047546
 21
-663.8710895069662
 31
0.0
  0
LINE
  5
141
  8
1
 62
     7
 10
-1302.1742350475449
 20
-663.8710895069662
 30
0.0
 11
-1305.1742350475449
 21
-715.57488405630068
 31
0.0
  0
LINE
  5
142
  8
1
 62
     7
 10
-1303.774235047546
 20
-715.57488405630068
 30
0.0
 11
-1300.774235047546
 21
-663.8710895069662
 31
0.0
  0
LINE
  5
143
  8
1
 62
     7
 10
-1135.307703044851
 20
-507.91000773601002
 30
0.0
 11
-1133.007703044851
 21
-507.91000773601002
 31
0.0
  0
LINE
  5
144
  8
1
 62
     7
 10
-1133.857703044851
 20
-502.9100077360099
 30
0.0
 11
-1133.857703044851
 21
-507.91000773601002
 31
0.0
  0
LINE
  5
145
  8
1
 62
     7
 10
-1133.557703044851
 20
-502.9100077360099
 30
0.0
 11
-1133.557703044851
 21
-507.91000773601002
 31
0.0
  0
LINE
  5
146
  8
1
 62
     7
 10
-1134.4577030448511
 20
-502.9100077360099
 30
0.0
 11
-1134.4577030448511
 21
-507.91000773601002
 31
0.0
  0
LINE
  5
147
  8
1
 62
     7
 10
-1134.757703044851
 20
-502.9100077360099
 30
0.0
 11
-1134.757703044851
 21
-507.91000773601002
 31
0.0
  0
LINE
  5
148
  8
1
 62
     7
 10
-1361.4239946473399
 20
-541.97488405630077
 30
0.0
 11
-1361.4239946473399
 21
-507.91000773601002
 31
0.0
  0
LINE
  5
149
  8
1
 62
     7
 10
-1359.1239946473399
 20
-507.91000773601002
 30
0.0
 11
-1359.1239946473399
 21
-541.97488405630077
 31
0.0
  0
LINE
  5
14A
  8
1
 62
     7
 10
-1360.27399464734
 20
-502.9100077360099
 30
0.0
 11
-1360.27399464734
 21
-507.91000773601002
 31
0.0
  0
LINE
  5
14B
  8
1
 62
     7
 10
-1361.4239946473399
 20
-507.91000773601002
 30
0.0
 11
-1359.1239946473399
 21
-507.91000773601002
 31
0.0
  0
LINE
  5
14C
  8
1
 62
     7
 10
-1359.9739946473401
 20
-502.9100077360099
 30
0.0
 11
-1359.9739946473401
 21
-507.91000773601002
 31
0.0
  0
LINE
  5
14D
  8
1
 62
     7
 10
-1359.6739946473399
 20
-502.9100077360099
 30
0.0
 11
-1359.6739946473399
 21
-507.91000773601002
 31
0.0
  0
LINE
  5
14E
  8
1
 62
     7
 10
-1360.57399464734
 20
-502.9100077360099
 30
0.0
 11
-1360.57399464734
 21
-507.91000773601002
 31
0.0
  0
LINE
  5
14F
  8
1
 62
     7
 10
-1360.8739946473399
 20
-502.9100077360099
 30
0.0
 11
-1360.8739946473399
 21
-507.91000773601002
 31
0.0
  0
LINE
  5
150
  8
1
 62
     7
 10
-1082.7579434450561
 20
-535.57488405630079
 30
0.0
 11
-1081.0579434450569
 21
-535.57488405630079
 31
0.0
  0
LINE
  5
151
  8
1
 62
     7
 10
-1082.7579434450561
 20
-537.5748840563009
 30
0.0
 11
-1081.0579434450569
 21
-537.5748840563009
 31
0.0
  0
LINE
  5
152
  8
1
 62
     7
 10
-1089.2579434450561
 20
-535.57488405630079
 30
0.0
 11
-1089.2579434450561
 21
-561.0748840563009
 31
0.0
  0
LINE
  5
153
  8
1
 62
     7
 10
-1085.757943445057
 20
-539.60625708970417
 30
0.0
 11
-1085.757943445057
 21
-579.5748840563009
 31
0.0
  0
LINE
  5
154
  8
1
 62
     7
 10
-1082.7579434450561
 20
-582.5748840563009
 30
0.0
 11
-1081.0579434450569
 21
-582.5748840563009
 31
0.0
  0
LINE
  5
155
  8
1
 62
     7
 10
-1081.0579434450569
 20
-582.5748840563009
 30
0.0
 11
-1081.0579434450569
 21
-571.5748840563009
 31
0.0
  0
LINE
  5
156
  8
1
 62
     7
 10
-1081.0579434450569
 20
-580.57488405630079
 30
0.0
 11
-1082.7579434450561
 21
-580.57488405630079
 31
0.0
  0
LINE
  5
157
  8
1
 62
     7
 10
-1089.2579434450561
 20
-755.57488405630068
 30
0.0
 11
-1096.5579434450569
 21
-755.57488405630068
 31
0.0
  0
LINE
  5
158
  8
1
 62
     7
 10
-1082.7579434450561
 20
-755.57488405630068
 30
0.0
 11
-1081.0579434450569
 21
-755.57488405630068
 31
0.0
  0
LINE
  5
159
  8
1
 62
     7
 10
-1082.7579434450561
 20
-753.57488405630079
 30
0.0
 11
-1081.0579434450569
 21
-753.57488405630079
 31
0.0
  0
LINE
  5
15A
  8
1
 62
     7
 10
-1085.757943445057
 20
-752.57488405630068
 30
0.0
 11
-1085.757943445057
 21
-751.54351102289775
 31
0.0
  0
LINE
  5
15B
  8
1
 62
     7
 10
-1062.2579434450561
 20
-574.9948121391152
 30
0.0
 11
-1064.6792637886169
 21
-572.57349179555547
 31
0.0
  0
LINE
  5
15C
  8
1
 62
     7
 10
-1072.0579434450569
 20
-586.22488405630077
 30
0.0
 11
-1076.0579434450569
 21
-586.22488405630077
 31
0.0
  0
LINE
  5
15D
  8
1
 62
     7
 10
-1076.6579434450571
 20
-585.62488405630074
 30
0.0
 11
-1077.486229130765
 21
-585.62488405630074
 31
0.0
  0
LINE
  5
15E
  8
1
 62
     7
 10
-1079.457943445057
 20
-580.52488405630072
 30
0.0
 11
-1079.457943445057
 21
-584.22488405630088
 31
0.0
  0
LINE
  5
15F
  8
1
 62
     7
 10
-1084.911803161448
 20
-587.62488405630074
 30
0.0
 11
-1060.5577030448501
 21
-587.62488405630074
 31
0.0
  0
LINE
  5
160
  8
1
 62
     7
 10
-1078.0579434450569
 20
-584.22488405630088
 30
0.0
 11
-1078.0579434450569
 21
-575.5748840563009
 31
0.0
  0
LINE
  5
161
  8
1
 62
     7
 10
-1086.057703044851
 20
-588.62488405630074
 30
0.0
 11
-1086.057703044851
 21
-610.5748840563009
 31
0.0
  0
LINE
  5
162
  8
1
 62
     7
 10
-1060.5577030448501
 20
-587.5748840563009
 30
0.0
 11
-1060.5577030448501
 21
-609.57488405630079
 31
0.0
  0
LINE
  5
163
  8
1
 62
     7
 10
-1058.257703044851
 20
-587.5748840563009
 30
0.0
 11
-1060.5577030448501
 21
-587.5748840563009
 31
0.0
  0
LINE
  5
164
  8
1
 62
     7
 10
-1079.457943445057
 20
-706.92488405630093
 30
0.0
 11
-1079.457943445057
 21
-710.62488405630108
 31
0.0
  0
LINE
  5
165
  8
1
 62
     7
 10
-1072.0579434450569
 20
-704.92488405630093
 30
0.0
 11
-1076.0579434450569
 21
-704.92488405630093
 31
0.0
  0
LINE
  5
166
  8
1
 62
     7
 10
-1078.0579434450569
 20
-732.52488405630095
 30
0.0
 11
-1078.0579434450569
 21
-706.92488405630093
 31
0.0
  0
LINE
  5
167
  8
1
 62
     7
 10
-1084.911803161448
 20
-703.52488405630095
 30
0.0
 11
-1060.5577030448501
 21
-703.52488405630095
 31
0.0
  0
LINE
  5
168
  8
1
 62
     7
 10
-1077.486229130765
 20
-705.52488405630095
 30
0.0
 11
-1076.6579434450571
 21
-705.52488405630095
 31
0.0
  0
LINE
  5
169
  8
1
 62
     7
 10
-1086.057703044851
 20
-702.52488405630095
 30
0.0
 11
-1086.057703044851
 21
-680.57488405630079
 31
0.0
  0
LINE
  5
16A
  8
1
 62
     7
 10
-1058.257703044851
 20
-703.57488405630079
 30
0.0
 11
-1060.5577030448501
 21
-703.57488405630079
 31
0.0
  0
LINE
  5
16B
  8
1
 62
     7
 10
-1311.8742350475461
 20
-538.57488405630079
 30
0.0
 11
-1311.8742350475461
 21
-752.57488405630113
 31
0.0
  0
LINE
  5
16C
  8
1
 62
     7
 10
-1308.874235047545
 20
-535.57488405630079
 30
0.0
 11
-1307.1742350475449
 21
-535.57488405630079
 31
0.0
  0
LINE
  5
16D
  8
1
 62
     7
 10
-1315.3742350475461
 20
-755.57488405630068
 30
0.0
 11
-1322.6742350475449
 21
-755.57488405630068
 31
0.0
  0
LINE
  5
16E
  8
1
 62
     7
 10
-1308.874235047545
 20
-755.57488405630113
 30
0.0
 11
-1307.1742350475449
 21
-755.57488405630068
 31
0.0
  0
LINE
  5
16F
  8
1
 62
     7
 10
-1288.3742350475461
 20
-574.9948121391152
 30
0.0
 11
-1290.7955553911061
 21
-572.5734917955557
 31
0.0
  0
LINE
  5
170
  8
1
 62
     7
 10
-1291.6742350475461
 20
-561.0748840563009
 30
0.0
 11
-1291.6742350475461
 21
-730.07488405630079
 31
0.0
  0
LINE
  5
171
  8
1
 62
     7
 10
-1302.75522483958
 20
-575.5748840563009
 30
0.0
 11
-1307.1742350475449
 21
-575.5748840563009
 31
0.0
  0
LINE
  5
172
  8
1
 62
     7
 10
-1290.7955553911061
 20
-718.57627631704588
 30
0.0
 11
-1288.3742350475461
 21
-716.15495597348661
 31
0.0
  0
LINE
  5
173
  8
1
 62
     7
 10
-1288.3742350475461
 20
-716.15495597348661
 30
0.0
 11
-1288.3742350475461
 21
-574.9948121391152
 31
0.0
  0
LINE
  5
174
  8
1
 62
     7
 10
-1286.6739946473399
 20
-587.62488405630074
 30
0.0
 11
-1288.3742350475461
 21
-587.62488405630074
 31
0.0
  0
LINE
  5
175
  8
1
 62
     7
 10
-1286.6739946473399
 20
-593.61204230912142
 30
0.0
 11
-1288.3742350475461
 21
-593.61204230912142
 31
0.0
  0
LINE
  5
176
  8
1
 62
     7
 10
-1284.3739946473399
 20
-587.5748840563009
 30
0.0
 11
-1286.6739946473399
 21
-587.5748840563009
 31
0.0
  0
LINE
  5
177
  8
1
 62
     7
 10
-1284.3739946473399
 20
-703.57488405630079
 30
0.0
 11
-1286.6739946473399
 21
-703.57488405630079
 31
0.0
  0
ARC
  5
178
  8
1
 62
     7
 10
-1086.757943445057
 20
-712.60625708970406
 30
0.0
 40
3.010439513892611
 50
279.56048538125953
 51
355.22703336663182
  0
ARC
  5
179
  8
1
 62
     7
 10
-1086.757943445057
 20
-751.54351102289775
 30
0.0
 40
3.0104395138926132
 50
4.772966633368072
 51
80.439514618740489
  0
ARC
  5
17A
  8
1
 62
     7
 10
-1293.3873871277131
 20
-729.86173197613346
 30
0.0
 40
1.7263614508733589
 50
277.09234965401379
 51
352.90765034596927
  0
ARC
  5
17B
  8
1
 62
     7
 10
-1293.1742350475449
 20
-561.0748840563009
 30
0.0
 40
1.5
 50
0.0
 51
90.0
  0
ARC
  5
17C
  8
1
 62
     7
 10
-1064.1122167377571
 20
-716.21948818210785
 30
0.0
 40
1.8553958741930501
 50
270.0
 51
1.9931967727842299
  0
ARC
  5
17D
  8
1
 62
     7
 10
-826.76071158801778
 20
-645.5748840563009
 30
0.0
 40
87.000000000000426
 50
47.635217694699278
 51
72.364782305301233
  0
ARC
  5
17E
  8
1
  6
DASHDOT
 62
     3
 10
-826.76071158801778
 20
-645.5748840563009
 30
0.0
 40
41.50000000000022
 50
141.7090410797399
 51
158.2909589202595
  0
ARC
  5
17F
  8
1
  6
DASHDOT
 62
     3
 10
-826.76071158801778
 20
-645.5748840563009
 30
0.0
 40
41.500000000000043
 50
21.709041079740189
 51
38.290958920259762
  0
ARC
  5
180
  8
1
  6
DASHDOT
 62
     3
 10
-826.76071158801778
 20
-645.5748840563009
 30
0.0
 40
41.500000000000028
 50
261.70904107974019
 51
278.2909589202597
  0
ARC
  5
181
  8
1
 62
     7
 10
-785.57546680258031
 20
-672.23994756576155
 30
0.0
 40
2.1249999999999281
 50
59.999999999998892
 51
150.00000000000031
  0
ARC
  5
182
  8
1
 62
     7
 10
-789.90559382150241
 20
-669.73994756576167
 30
0.0
 40
2.1250000000000262
 50
330.00000000000051
 51
59.999999999998892
  0
ARC
  5
183
  8
1
 62
     7
 10
-787.40559382150241
 20
-665.40982054683946
 30
0.0
 40
2.1250000000000262
 50
240.0000000000004
 51
330.00000000000051
  0
ARC
  5
184
  8
1
 62
     7
 10
-783.07546680258031
 20
-667.9098205468398
 30
0.0
 40
2.1250000000000262
 50
150.00000000000031
 51
239.99999999999889
  0
ARC
  5
185
  8
1
 62
     7
 10
-870.44595637345515
 20
-667.9098205468398
 30
0.0
 40
2.1250000000000262
 50
299.9999999999996
 51
29.999999999999581
  0
ARC
  5
186
  8
1
 62
     7
 10
-866.11582935453282
 20
-665.4098205468398
 30
0.0
 40
2.1250000000000262
 50
209.99999999999949
 51
299.9999999999996
  0
ARC
  5
187
  8
1
 62
     7
 10
-863.61582935453305
 20
-669.7399475657619
 30
0.0
 40
2.1250000000000262
 50
119.9999999999996
 51
209.99999999999949
  0
ARC
  5
188
  8
1
 62
     7
 10
-867.94595637345515
 20
-672.23994756576201
 30
0.0
 40
2.1250000000000262
 50
29.999999999999581
 51
119.9999999999996
  0
ARC
  5
189
  8
1
 62
     7
 10
-824.26071158801767
 20
-596.5748840563009
 30
0.0
 40
2.125
 50
180.0
 51
270.0
  0
ARC
  5
18A
  8
1
 62
     7
 10
-824.26071158801767
 20
-601.57488405630079
 30
0.0
 40
2.125
 50
90.0
 51
180.0
  0
ARC
  5
18B
  8
1
 62
     7
 10
-829.26071158801778
 20
-601.57488405630079
 30
0.0
 40
2.125
 50
0.0
 51
90.0
  0
ARC
  5
18C
  8
1
 62
     7
 10
-829.26071158801778
 20
-596.5748840563009
 30
0.0
 40
2.125
 50
270.0
 51
0.0
  0
ARC
  5
18D
  8
1
 62
     7
 10
-740.44593535445608
 20
-610.07907225487759
 30
0.0
 40
20.897955802970511
 50
206.4738541479453
 51
240.21685782489999
  0
ARC
  5
18E
  8
1
 62
     7
 10
-760.76071158801778
 20
-645.5748840563009
 30
0.0
 40
20.0
 50
0.0
 51
60.21685782490043
  0
ARC
  5
18F
  8
1
 62
     7
 10
-760.76071158801778
 20
-645.5748840563009
 30
0.0
 40
20.00000000000027
 50
299.78314217509927
 51
0.0
  0
ARC
  5
190
  8
1
 62
     7
 10
-740.44593535445608
 20
-681.07069585772422
 30
0.0
 40
20.89795580297038
 50
119.7831421751001
 51
153.52614585205461
  0
ARC
  5
191
  8
1
 62
     7
 10
-791.2648997865947
 20
-731.88966028986226
 30
0.0
 40
20.897955802970511
 50
116.4738541479459
 51
150.21685782489971
  0
ARC
  5
192
  8
1
 62
     7
 10
-826.76071158801778
 20
-711.57488405630068
 30
0.0
 40
20.0
 50
270.0
 51
330.21685782490027
  0
ARC
  5
193
  8
1
 62
     7
 10
-826.76071158801778
 20
-711.57488405630068
 30
0.0
 40
20.00000000000033
 50
209.78314217509961
 51
270.0
  0
ARC
  5
194
  8
1
 62
     7
 10
-862.25652338944155
 20
-731.88966028986226
 30
0.0
 40
20.89795580297092
 50
29.783142175098948
 51
63.526145852053872
  0
ARC
  5
195
  8
1
 62
     7
 10
-913.0754878215796
 20
-681.07069585772422
 30
0.0
 40
20.89795580297082
 50
26.473854147946259
 51
60.216857824899783
  0
ARC
  5
196
  8
1
 62
     7
 10
-892.76071158801778
 20
-645.5748840563009
 30
0.0
 40
20.0
 50
180.0
 51
240.21685782489939
  0
ARC
  5
197
  8
1
 62
     7
 10
-892.76071158801778
 20
-645.5748840563009
 30
0.0
 40
20.00000000000033
 50
119.7831421750997
 51
180.0
  0
ARC
  5
198
  8
1
 62
     7
 10
-913.0754878215796
 20
-610.07907225487713
 30
0.0
 40
20.897955802970941
 50
299.78314217510029
 51
333.52614585205362
  0
ARC
  5
199
  8
1
 62
     7
 10
-791.2648997865947
 20
-559.26010782273909
 30
0.0
 40
20.897955802970191
 50
209.78314217510049
 51
243.5261458520564
  0
ARC
  5
19A
  8
1
 62
     7
 10
-826.76071158801778
 20
-579.5748840563009
 30
0.0
 40
20.00000000000033
 50
29.783142175099691
 51
90.0
  0
ARC
  5
19B
  8
1
 62
     7
 10
-826.76071158801778
 20
-579.5748840563009
 30
0.0
 40
20.000000000000341
 50
90.0
 51
150.2168578249003
  0
ARC
  5
19C
  8
1
 62
     7
 10
-862.25652338944042
 20
-559.26010782273909
 30
0.0
 40
20.897955802970621
 50
296.47385414794581
 51
330.21685782489931
  0
ARC
  5
19D
  8
1
 62
     7
 10
-826.76071158801778
 20
-645.5748840563009
 30
0.0
 40
87.000000000000128
 50
77.635217694699563
 51
102.36478230530101
  0
ARC
  5
19E
  8
1
 62
     7
 10
-826.76071158801778
 20
-645.5748840563009
 30
0.0
 40
87.000000000000043
 50
17.635217694699229
 51
42.36478230530107
  0
ARC
  5
19F
  8
1
 62
     7
 10
-826.76071158801778
 20
-645.5748840563009
 30
0.0
 40
86.999999999999943
 50
347.63521769469941
 51
12.36478230530108
  0
ARC
  5
1A0
  8
1
 62
     7
 10
-826.76071158801778
 20
-645.5748840563009
 30
0.0
 40
86.999999999999517
 50
167.63521769469901
 51
192.36478230530091
  0
ARC
  5
1A1
  8
1
 62
     7
 10
-826.76071158801665
 20
-645.57488405629931
 30
0.0
 40
87.000000000000114
 50
137.63521769470049
 51
162.3647823053021
  0
ARC
  5
1A2
  8
1
 62
     7
 10
-826.76071158801778
 20
-645.5748840563009
 30
0.0
 40
86.999999999999559
 50
197.63521769469889
 51
222.36478230530111
  0
ARC
  5
1A3
  8
1
 62
     7
 10
-826.76071158801778
 20
-645.5748840563009
 30
0.0
 40
87.000000000000128
 50
77.635217694699563
 51
102.36478230530101
  0
ARC
  5
1A4
  8
1
 62
     7
 10
-826.76071158801778
 20
-645.5748840563009
 30
0.0
 40
87.000000000000213
 50
107.63521769469941
 51
132.36478230530091
  0
ARC
  5
1A5
  8
1
 62
     7
 10
-826.76071158801778
 20
-645.5748840563009
 30
0.0
 40
87.000000000000043
 50
17.635217694699229
 51
42.36478230530107
  0
ARC
  5
1A6
  8
1
 62
     7
 10
-826.76071158801778
 20
-645.5748840563009
 30
0.0
 40
86.999999999999858
 50
227.63521769469889
 51
252.36478230530111
  0
ARC
  5
1A7
  8
1
 62
     7
 10
-826.76071158801778
 20
-645.5748840563009
 30
0.0
 40
86.999999999999559
 50
257.63521769469952
 51
282.36478230530111
  0
ARC
  5
1A8
  8
1
 62
     7
 10
-826.76071158801778
 20
-645.5748840563009
 30
0.0
 40
86.999999999999787
 50
287.63521769469929
 51
312.36478230530111
  0
ARC
  5
1A9
  8
1
 62
     7
 10
-826.76071158801778
 20
-645.5748840563009
 30
0.0
 40
86.999999999999858
 50
317.63521769469912
 51
342.36478230530111
  0
ARC
  5
1AA
  8
1
 62
     7
 10
-826.76071158801778
 20
-645.5748840563009
 30
0.0
 40
86.999999999999943
 50
347.63521769469941
 51
12.36478230530108
  0
ARC
  5
1AB
  8
1
 62
     7
 10
-826.76071158801778
 20
-645.5748840563009
 30
0.0
 40
19.999999999999961
 50
104.4775121859299
 51
75.522487814070047
  0
ARC
  5
1AC
  8
1
 62
     7
 10
-1088.5697730873101
 20
-727.63249461619466
 30
0.0
 40
3.6974167524946129
 50
290.78095825956012
 51
69.21904174043982
  0
ARC
  5
1AD
  8
1
 62
     7
 10
-1088.7581314862059
 20
-744.74002208047261
 30
0.0
 40
3.6951746389792901
 50
296.08906641612998
 51
66.047089428047272
  0
ARC
  5
1AE
  8
1
 62
     7
 10
-826.76071158801778
 20
-645.5748840563009
 30
0.0
 40
110.0
 50
88.801910027795245
 51
90.0
  0
ARC
  5
1AF
  8
1
 62
     7
 10
-826.76071158801778
 20
-645.5748840563009
 30
0.0
 40
110.0
 50
90.0
 51
91.198089972204755
  0
ARC
  5
1B0
  8
1
 62
     7
 10
-826.76071158801778
 20
-645.5748840563009
 30
0.0
 40
110.0
 50
91.198089972204755
 51
88.801910027795245
  0
CIRCLE
  5
1B1
  8
1
 62
     7
 10
-826.76071158801778
 20
-645.5748840563009
 30
0.0
 40
58.0
  0
CIRCLE
  5
1B2
  8
1
 62
     7
 10
-826.76071158801778
 20
-645.5748840563009
 30
0.0
 40
36.0
  0
CIRCLE
  5
1B3
  8
1
 62
     3
 10
-862.7007658450716
 20
-624.82488405630068
 30
0.0
 40
4.0
  0
CIRCLE
  5
1B4
  8
1
 62
     3
 10
-790.8206573309634
 20
-624.82488405630079
 30
0.0
 40
4.0
  0
CIRCLE
  5
1B5
  8
1
 62
     7
 10
-862.7007658450716
 20
-624.82488405630068
 30
0.0
 40
3.25
  0
CIRCLE
  5
1B6
  8
1
 62
     7
 10
-790.8206573309634
 20
-624.82488405630079
 30
0.0
 40
3.25
  0
CIRCLE
  5
1B7
  8
1
 62
     7
 10
-826.76071158801778
 20
-687.0748840563009
 30
0.0
 40
3.25
  0
CIRCLE
  5
1B8
  8
1
 62
     3
 10
-826.76071158801778
 20
-687.0748840563009
 30
0.0
 40
4.0
  0
CIRCLE
  5
1B9
  8
1
 62
     7
 10
-862.7007658450716
 20
-624.82488405630068
 30
0.0
 40
5.0
  0
CIRCLE
  5
1BA
  8
1
 62
     7
 10
-790.8206573309634
 20
-624.82488405630079
 30
0.0
 40
5.0
  0
CIRCLE
  5
1BB
  8
1
 62
     7
 10
-786.4905303120413
 20
-668.82488405630079
 30
0.0
 40
4.9999999999998863
  0
CIRCLE
  5
1BC
  8
1
 62
     7
 10
-867.03089286399404
 20
-668.8248840563009
 30
0.0
 40
5.0
  0
CIRCLE
  5
1BD
  8
1
 62
     7
 10
-826.76071158801778
 20
-599.0748840563009
 30
0.0
 40
5.0
  0
CIRCLE
  5
1BE
  8
1
 62
     7
 10
-826.76071158801778
 20
-687.0748840563009
 30
0.0
 40
5.0
  0
CIRCLE
  5
1BF
  8
1
 62
     7
 10
-748.76071158801778
 20
-645.5748840563009
 30
0.0
 40
4.0
  0
CIRCLE
  5
1C0
  8
1
 62
     7
 10
-748.76071158801778
 20
-645.5748840563009
 30
0.0
 40
3.0
  0
CIRCLE
  5
1C1
  8
1
 62
     7
 10
-826.76071158801778
 20
-723.57488405630068
 30
0.0
 40
4.0
  0
CIRCLE
  5
1C2
  8
1
 62
     7
 10
-826.76071158801778
 20
-723.57488405630068
 30
0.0
 40
3.0
  0
CIRCLE
  5
1C3
  8
1
 62
     7
 10
-904.76071158801744
 20
-645.5748840563009
 30
0.0
 40
4.0
  0
CIRCLE
  5
1C4
  8
1
 62
     7
 10
-904.76071158801744
 20
-645.5748840563009
 30
0.0
 40
3.0
  0
CIRCLE
  5
1C5
  8
1
 62
     7
 10
-826.76071158801778
 20
-567.57488405630079
 30
0.0
 40
3.0
  0
CIRCLE
  5
1C6
  8
1
 62
     7
 10
-826.76071158801778
 20
-567.57488405630079
 30
0.0
 40
4.0
  0
CIRCLE
  5
1C7
  8
1
 62
     7
 10
-826.76071158801778
 20
-645.5748840563009
 30
0.0
 40
72.5
  0
CIRCLE
  5
1C8
  8
1
 62
     7
 10
-826.76071158801778
 20
-645.5748840563009
 30
0.0
 40
108.0
  0
CIRCLE
  5
1C9
  8
1
 62
     7
 10
-847.98387328642457
 20
-566.36896630059721
 30
0.0
 40
4.0
  0
CIRCLE
  5
1CA
  8
1
 62
     7
 10
-884.74346764531447
 20
-587.59212799900388
 30
0.0
 40
4.0000000000003411
  0
CIRCLE
  5
1CB
  8
1
 62
     7
 10
-905.96662934372148
 20
-624.351722357894
 30
0.0
 40
3.9999999999998859
  0
CIRCLE
  5
1CC
  8
1
 62
     7
 10
-905.96662934372148
 20
-666.79804575470757
 30
0.0
 40
4.0
  0
CIRCLE
  5
1CD
  8
1
 62
     7
 10
-884.74346764531447
 20
-703.55764011359747
 30
0.0
 40
4.0000000000001128
  0
CIRCLE
  5
1CE
  8
1
 62
     7
 10
-847.98387328642355
 20
-724.78080181200437
 30
0.0
 40
4.0000000000001128
  0
CIRCLE
  5
1CF
  8
1
 62
     7
 10
-805.53754988961077
 20
-724.78080181200414
 30
0.0
 40
4.0
  0
CIRCLE
  5
1D0
  8
1
 62
     7
 10
-768.77795553072087
 20
-703.55764011359736
 30
0.0
 40
4.0000000000002274
  0
CIRCLE
  5
1D1
  8
1
 62
     7
 10
-747.55479383231386
 20
-666.79804575470723
 30
0.0
 40
3.9999999999998859
  0
CIRCLE
  5
1D2
  8
1
 62
     7
 10
-747.5547938323142
 20
-624.35172235789378
 30
0.0
 40
4.0
  0
CIRCLE
  5
1D3
  8
1
 62
     7
 10
-768.77795553072087
 20
-587.59212799900354
 30
0.0
 40
3.9999999999998859
  0
CIRCLE
  5
1D4
  8
1
 62
     7
 10
-805.53754988961168
 20
-566.36896630059687
 30
0.0
 40
3.9999999999993179
  0
ARC
  5
1D5
  8
1
 62
     7
 10
-1086.2579434450561
 20
-716.57488405630079
 30
0.0
 40
1.0
 50
90.0
 51
180.0
  0
ARC
  5
1D6
  8
1
 62
     7
 10
-1086.757943445057
 20
-712.60625708970406
 30
0.0
 40
0.9999999999999616
 50
277.18075578145852
 51
0.0
  0
ARC
  5
1D7
  8
1
 62
     7
 10
-1086.2579434450561
 20
-716.57488405630079
 30
0.0
 40
2.999999999999996
 50
97.180755781458302
 51
180.0
  0
ARC
  5
1D8
  8
1
 62
     7
 10
-1082.7579434450561
 20
-711.57488405630068
 30
0.0
 40
1.0
 50
90.0
 51
180.0
  0
ARC
  5
1D9
  8
1
 62
     7
 10
-1082.7579434450561
 20
-711.57488405630068
 30
0.0
 40
3.0
 50
90.0
 51
180.0
  0
ARC
  5
1DA
  8
1
 62
     7
 10
-1086.2579434450561
 20
-747.57488405630068
 30
0.0
 40
1.0
 50
180.0
 51
270.0
  0
ARC
  5
1DB
  8
1
 62
     7
 10
-1086.757943445057
 20
-751.54351102289775
 30
0.0
 40
1.0
 50
0.0
 51
82.819244218541442
  0
ARC
  5
1DC
  8
1
 62
     7
 10
-1086.2579434450561
 20
-747.57488405630068
 30
0.0
 40
3.0
 50
180.0
 51
262.8192442185416
  0
ARC
  5
1DD
  8
1
 62
     7
 10
-1082.7579434450561
 20
-752.57488405630068
 30
0.0
 40
3.0
 50
180.0
 51
270.0
  0
ARC
  5
1DE
  8
1
 62
     7
 10
-1082.7579434450561
 20
-538.57488405630079
 30
0.0
 40
1.0
 50
90.0
 51
180.0
  0
ARC
  5
1DF
  8
1
 62
     7
 10
-1082.7579434450561
 20
-538.57488405630079
 30
0.0
 40
3.0
 50
90.0
 51
180.0
  0
ARC
  5
1E0
  8
1
 62
     7
 10
-1086.2579434450561
 20
-543.57488405630079
 30
0.0
 40
2.999999999999996
 50
97.180755781458302
 51
180.0
  0
ARC
  5
1E1
  8
1
 62
     7
 10
-1086.757943445057
 20
-539.60625708970417
 30
0.0
 40
0.9999999999999616
 50
277.18075578145852
 51
0.0
  0
ARC
  5
1E2
  8
1
 62
     7
 10
-1082.7579434450561
 20
-579.5748840563009
 30
0.0
 40
3.0
 50
180.0
 51
270.0
  0
ARC
  5
1E3
  8
1
 62
     7
 10
-1082.7579434450561
 20
-579.5748840563009
 30
0.0
 40
1.0
 50
180.0
 51
270.0
  0
ARC
  5
1E4
  8
1
 62
     7
 10
-1086.2579434450561
 20
-574.5748840563009
 30
0.0
 40
3.0
 50
180.0
 51
262.8192442185416
  0
ARC
  5
1E5
  8
1
 62
     7
 10
-1086.757943445057
 20
-578.54351102289775
 30
0.0
 40
1.0
 50
0.0
 51
82.819244218541442
  0
ARC
  5
1E6
  8
1
 62
     7
 10
-1082.7579434450561
 20
-752.57488405630068
 30
0.0
 40
1.0
 50
180.0
 51
270.0
  0
ARC
  5
1E7
  8
1
 62
     7
 10
-1067.0579434450569
 20
-561.0748840563009
 30
0.0
 40
1.5
 50
0.0
 51
90.0
  0
ARC
  5
1E8
  8
1
 62
     7
 10
-1062.5579434450569
 20
-570.45217145199581
 30
0.0
 40
3.0
 50
180.0
 51
224.99999999999531
  0
ARC
  5
1E9
  8
1
 62
     7
 10
-1081.457943445057
 20
-580.52488405630072
 30
0.0
 40
2.0
 50
0.0
 51
78.463040967181868
  0
ARC
  5
1EA
  8
1
 62
     7
 10
-1081.457943445057
 20
-580.52488405630072
 30
0.0
 40
3.4000000000000909
 50
0.0
 51
83.243672969410625
  0
ARC
  5
1EB
  8
1
 62
     7
 10
-1076.0579434450569
 20
-584.22488405630088
 30
0.0
 40
2.0
 50
180.0
 51
270.0
  0
ARC
  5
1EC
  8
1
 62
     7
 10
-1076.0579434450569
 20
-584.22488405630088
 30
0.0
 40
3.4000000000000909
 50
180.0
 51
270.0
  0
ARC
  5
1ED
  8
1
 62
     7
 10
-1081.457943445057
 20
-710.62488405630108
 30
0.0
 40
2.0000000000000022
 50
281.53695903281812
 51
0.0
  0
ARC
  5
1EE
  8
1
 62
     7
 10
-1081.4573389951679
 20
-710.62488405630108
 30
0.0
 40
3.399999999999991
 50
276.74606989950013
 51
0.0066080065808734
  0
ARC
  5
1EF
  8
1
 62
     7
 10
-1076.0579434450569
 20
-706.92488405630093
 30
0.0
 40
2.0
 50
90.0
 51
180.0
  0
ARC
  5
1F0
  8
1
 62
     7
 10
-1076.0579434450569
 20
-706.92488405630093
 30
0.0
 40
3.3999999999999759
 50
90.0
 51
180.0
  0
ARC
  5
1F1
  8
1
 62
     7
 10
-1308.874235047545
 20
-538.57488405630079
 30
0.0
 40
3.0
 50
90.0
 51
180.0
  0
ARC
  5
1F2
  8
1
 62
     7
 10
-1312.874235047545
 20
-539.60625708970417
 30
0.0
 40
0.9999999999999616
 50
277.18075578145852
 51
0.0
  0
ARC
  5
1F3
  8
1
 62
     7
 10
-1312.3742350475461
 20
-543.57488405630079
 30
0.0
 40
2.999999999999996
 50
97.180755781458302
 51
180.0
  0
ARC
  5
1F4
  8
1
 62
     7
 10
-1312.3742350475461
 20
-747.57488405630113
 30
0.0
 40
3.0
 50
180.0
 51
262.8192442185416
  0
ARC
  5
1F5
  8
1
 62
     7
 10
-1312.874235047545
 20
-751.54351102289786
 30
0.0
 40
1.0
 50
0.0
 51
82.819244218541442
  0
ARC
  5
1F6
  8
1
 62
     7
 10
-1308.874235047545
 20
-752.57488405630113
 30
0.0
 40
3.0
 50
180.0
 51
270.0
  0
ARC
  5
1F7
  8
1
 62
     7
 10
-1288.6742350475449
 20
-570.45217145199604
 30
0.0
 40
3.0
 50
180.0
 51
224.99999999999531
  0
ARC
  5
1F8
  8
1
 62
     7
 10
-1302.1742350475449
 20
-578.5748840563009
 30
0.0
 40
3.0
 50
0.0
 51
74.244223794140481
  0
ARC
  5
1F9
  8
1
 62
     7
 10
-1302.1742350475449
 20
-634.57488405630079
 30
0.0
 40
3.0
 50
270.0
 51
0.0
  0
ARC
  5
1FA
  8
1
 62
     7
 10
-1302.1742350475449
 20
-656.5748840563009
 30
0.0
 40
3.0
 50
0.0
 51
90.0
  0
ARC
  5
1FB
  8
1
 62
     7
 10
-1302.1742350475449
 20
-712.57488405630079
 30
0.0
 40
3.0
 50
270.0
 51
0.0
  0
ARC
  5
1FC
  8
1
 62
     7
 10
-1288.6742350475449
 20
-720.69759666060577
 30
0.0
 40
3.000000000000266
 50
135.0000000000046
 51
180.0
  0
TEXT
  5
1FD
  8
1
 62
     7
 10
-1359.200479719939
 20
-426.80144382578999
 30
0.0
 40
8.0
  1
MSB 20
 41
0.9
  7
SIMPLEX
  0
ENDSEC
  0
EOF
