  0
SECTION
  2
HEADER
  9
$ACADVER
  1
AC1009
  9
$INSBASE
 10
0.0
 20
0.0
 30
0.0
  9
$EXTMIN
 10
46.38352421639344
 20
-443.65862029981622
 30
0.0
  9
$EXTMAX
 10
414.06969729152058
 20
-269.38076294858593
 30
0.0
  9
$LIMMIN
 10
46.38352421639344
 20
-443.36120857547849
  9
$LIMMAX
 10
404.61572649301422
 20
-269.38076294858593
  9
$ORTHOMODE
 70
     0
  9
$REGENMODE
 70
     1
  9
$FILLMODE
 70
     1
  9
$QTEXTMODE
 70
     0
  9
$MIRRTEXT
 70
     1
  9
$DRAGMODE
 70
     2
  9
$LTSCALE
 40
1.0
  9
$OSMODE
 70
    37
  9
$ATTMODE
 70
     1
  9
$TEXTSIZE
 40
3.5
  9
$TRACEWID
 40
0.5
  9
$TEXTSTYLE
  7
STANDARD
  9
$CLAYER
  8
0
  9
$CELTYPE
  6
BYLAYER
  9
$CECOLOR
 62
   256
  9
$DIMSCALE
 40
1.0
  9
$DIMASZ
 40
0.18
  9
$DIMEXO
 40
0.0625
  9
$DIMDLI
 40
0.38
  9
$DIMRND
 40
0.0
  9
$DIMDLE
 40
0.0
  9
$DIMEXE
 40
0.18
  9
$DIMTP
 40
0.0
  9
$DIMTM
 40
0.0
  9
$DIMTXT
 40
0.18
  9
$DIMCEN
 40
0.09
  9
$DIMTSZ
 40
0.0
  9
$DIMTOL
 70
     0
  9
$DIMLIM
 70
     0
  9
$DIMTIH
 70
     1
  9
$DIMTOH
 70
     1
  9
$DIMSE1
 70
     0
  9
$DIMSE2
 70
     0
  9
$DIMTAD
 70
     0
  9
$DIMZIN
 70
     0
  9
$DIMBLK
  1

  9
$DIMASO
 70
     1
  9
$DIMSHO
 70
     1
  9
$DIMPOST
  1

  9
$DIMAPOST
  1

  9
$DIMALT
 70
     0
  9
$DIMALTD
 70
     2
  9
$DIMALTF
 40
25.399999999999999
  9
$DIMLFAC
 40
1.0
  9
$DIMTOFL
 70
     0
  9
$DIMTVP
 40
0.0
  9
$DIMTIX
 70
     0
  9
$DIMSOXD
 70
     0
  9
$DIMSAH
 70
     0
  9
$DIMBLK1
  1

  9
$DIMBLK2
  1

  9
$DIMSTYLE
  2
STANDARD
  9
$DIMCLRD
 70
     0
  9
$DIMCLRE
 70
     0
  9
$DIMCLRT
 70
     0
  9
$DIMTFAC
 40
1.0
  9
$DIMGAP
 40
0.09
  9
$LUNITS
 70
     2
  9
$LUPREC
 70
     4
  9
$SKETCHINC
 40
0.1
  9
$FILLETRAD
 40
2.0
  9
$AUNITS
 70
     0
  9
$AUPREC
 70
     0
  9
$MENU
  1
ACAD
  9
$ELEVATION
 40
0.0
  9
$PELEVATION
 40
0.0
  9
$THICKNESS
 40
0.0
  9
$LIMCHECK
 70
     0
  9
$BLIPMODE
 70
     0
  9
$CHAMFERA
 40
0.0
  9
$CHAMFERB
 40
0.0
  9
$SKPOLY
 70
     0
  9
$TDCREATE
 40
2452094.747497106
  9
$TDUPDATE
 40
2452094.7486141198
  9
$TDINDWG
 40
0.0011208333
  9
$TDUSRTIMER
 40
0.0011208333
  9
$USRTIMER
 70
     1
  9
$ANGBASE
 50
0.0
  9
$ANGDIR
 70
     0
  9
$PDMODE
 70
     0
  9
$PDSIZE
 40
0.0
  9
$PLINEWID
 40
0.0
  9
$COORDS
 70
     1
  9
$SPLFRAME
 70
     0
  9
$SPLINETYPE
 70
     6
  9
$SPLINESEGS
 70
     8
  9
$ATTDIA
 70
     0
  9
$ATTREQ
 70
     1
  9
$HANDLING
 70
 10241
  9
$HANDSEED
  5
1E5
  9
$SURFTAB1
 70
     6
  9
$SURFTAB2
 70
     6
  9
$SURFTYPE
 70
     6
  9
$SURFU
 70
     6
  9
$SURFV
 70
     6
  9
$UCSNAME
  2

  9
$UCSORG
 10
0.0
 20
0.0
 30
0.0
  9
$UCSXDIR
 10
1.0
 20
0.0
 30
0.0
  9
$UCSYDIR
 10
0.0
 20
1.0
 30
0.0
  9
$PUCSNAME
  2

  9
$PUCSORG
 10
0.0
 20
0.0
 30
0.0
  9
$PUCSXDIR
 10
1.0
 20
0.0
 30
0.0
  9
$PUCSYDIR
 10
0.0
 20
1.0
 30
0.0
  9
$USERI1
 70
     0
  9
$USERI2
 70
     0
  9
$USERI3
 70
     0
  9
$USERI4
 70
     0
  9
$USERI5
 70
     0
  9
$USERR1
 40
0.0
  9
$USERR2
 40
0.0
  9
$USERR3
 40
0.0
  9
$USERR4
 40
0.0
  9
$USERR5
 40
0.0
  9
$WORLDVIEW
 70
     1
  9
$SHADEDGE
 70
     3
  9
$SHADEDIF
 70
    70
  9
$TILEMODE
 70
     1
  9
$MAXACTVP
 70
    64
  9
$PLIMCHECK
 70
     0
  9
$PEXTMIN
 10
1.0000000000000000E+020
 20
1.0000000000000000E+020
 30
1.0000000000000000E+020
  9
$PEXTMAX
 10
-1.0000000000000000E+020
 20
-1.0000000000000000E+020
 30
-1.0000000000000000E+020
  9
$PLIMMIN
 10
0.0
 20
0.0
  9
$PLIMMAX
 10
12.0
 20
9.0
  9
$UNITMODE
 70
     0
  9
$VISRETAIN
 70
     1
  9
$PLINEGEN
 70
     0
  9
$PSLTSCALE
 70
     1
  0
ENDSEC
  0
SECTION
  2
TABLES
  0
TABLE
  2
VPORT
 70
     2
  0
VPORT
  2
*ACTIVE
 70
     0
 10
0.0
 20
0.0
 11
1.0
 21
1.0
 12
74.258315803264935
 22
-278.55900874205611
 13
0.0
 23
0.0
 14
1.0
 24
1.0
 15
0.0
 25
0.0
 16
0.0
 26
0.0
 36
1.0
 17
0.0
 27
0.0
 37
0.0
 40
8.9999996356543761
 41
2.5693779904306222
 42
50.0
 43
0.0
 44
0.0
 50
0.0
 51
0.0
 71
     0
 72
   100
 73
     1
 74
     1
 75
     0
 76
     0
 77
     0
 78
     0
  0
ENDTAB
  0
TABLE
  2
LTYPE
 70
     9
  0
LTYPE
  2
CONTINUOUS
 70
     0
  3
Solid line
 72
    65
 73
     0
 40
0.0
  0
LTYPE
  2
BORDER
 70
     0
  3
__ __ . __ __ .
 72
    65
 73
     6
 40
16.497535631160169
 49
4.7135816089029063
 49
-2.3567908044514532
 49
4.7135816089029063
 49
-2.3567908044514532
 49
0.0
 49
-2.3567908044514532
  0
LTYPE
  2
CENTER
 70
     0
  3
____ _ ____ _
 72
    65
 73
     4
 40
18.854326435611611
 49
11.78395402225725
 49
-2.3567908044514532
 49
2.3567908044514532
 49
-2.3567908044514532
  0
LTYPE
  2
DASHDOT
 70
     0
  3
__ . __ . __ .
 72
    65
 73
     4
 40
9.4271632178058127
 49
4.7135816089029063
 49
-2.3567908044514532
 49
0.0
 49
-2.3567908044514532
  0
LTYPE
  2
DASHED
 70
     0
  3
__ __ __ __ __
 72
    65
 73
     2
 40
7.0703724133543568
 49
4.7135816089029063
 49
-2.3567908044514532
  0
LTYPE
  2
DIVIDE
 70
     0
  3
__ . . __ . . 
 72
    65
 73
     6
 40
11.78395402225725
 49
4.7135816089029063
 49
-2.3567908044514532
 49
0.0
 49
-2.3567908044514532
 49
0.0
 49
-2.3567908044514532
  0
LTYPE
  2
DOT
 70
     0
  3
..............
 72
    65
 73
     4
 40
4.7135816089029063
 49
0.0
 49
-2.3567908044514532
 49
0.0
 49
-2.3567908044514532
  0
LTYPE
  2
HIDDEN
 70
     0
  3
_ _ _ _ _ _ _
 72
    65
 73
     2
 40
3.535186206677178
 49
2.3567908044514532
 49
-1.178395402225725
  0
LTYPE
  2
PHANTOM
 70
     0
  3
_____ _ _ _____ _ _ 
 72
    65
 73
     6
 40
23.567908044514532
 49
11.78395402225725
 49
-2.3567908044514532
 49
2.3567908044514532
 49
-2.3567908044514532
 49
2.3567908044514532
 49
-2.3567908044514532
  0
ENDTAB
  0
TABLE
  2
LAYER
 70
     2
  0
LAYER
  2
0
 70
     0
 62
     7
  6
CONTINUOUS
  0
LAYER
  2
1
 70
     0
 62
     7
  6
CONTINUOUS
  0
ENDTAB
  0
TABLE
  2
STYLE
 70
     4
  0
STYLE
  2
STANDARD
 70
     0
 40
0.0
 41
1.0
 50
0.0
 71
     0
 42
3.5
  3
txt
  4

  0
STYLE
  2
SIMPLEX
 70
     0
 40
0.0
 41
1.0
 50
0.0
 71
     0
 42
3.5
  3
simplex
  4

  0
STYLE
  2
COMPLEX
 70
     0
 40
0.0
 41
1.0
 50
0.0
 71
     0
 42
3.5
  3
complex
  4

  0
STYLE
  2
ITALIC
 70
     0
 40
0.0
 41
1.0
 50
0.0
 71
     0
 42
3.5
  3
italic
  4

  0
ENDTAB
  0
TABLE
  2
VIEW
 70
     0
  0
ENDTAB
  0
TABLE
  2
UCS
 70
     0
  0
ENDTAB
  0
TABLE
  2
APPID
 70
     1
  0
APPID
  2
ACAD
 70
     0
  0
ENDTAB
  0
TABLE
  2
DIMSTYLE
 70
     1
  0
DIMSTYLE
  2
STANDARD
 70
     0
  3

  4

  5

  6

  7

 40
1.0
 41
0.18
 42
0.0625
 43
0.38
 44
0.18
 45
0.0
 46
0.0
 47
0.0
 48
0.0
140
0.18
141
0.09
142
0.0
143
25.399999999999999
144
1.0
145
0.0
146
1.0
147
0.09
 71
     0
 72
     0
 73
     1
 74
     1
 75
     0
 76
     0
 77
     0
 78
     0
170
     0
171
     2
172
     0
173
     0
174
     0
175
     0
176
     0
177
     0
178
     0
  0
ENDTAB
  0
ENDSEC
  0
SECTION
  2
BLOCKS
  0
BLOCK
  8
0
  2
$MODEL_SPACE
 70
     0
 10
0.0
 20
0.0
 30
0.0
  3
$MODEL_SPACE
  1

  0
ENDBLK
  5
20
  8
0
  0
BLOCK
 67
     1
  8
0
  2
$PAPER_SPACE
 70
     0
 10
0.0
 20
0.0
 30
0.0
  3
$PAPER_SPACE
  1

  0
ENDBLK
  5
1C
 67
     1
  8
0
  0
ENDSEC
  0
SECTION
  2
ENTITIES
  0
POINT
  5
33
  8
1
  6
DOT
 62
     7
 10
394.62663520022159
 20
-348.68731164876567
 30
0.0
  0
LINE
  5
34
  8
1
 62
     7
 10
232.1384893784053
 20
-409.36120857547849
 30
0.0
 11
233.7384893784054
 21
-409.36120857547849
 31
0.0
  0
LINE
  5
35
  8
1
 62
     7
 10
222.93848937840551
 20
-423.03620857547838
 30
0.0
 11
222.93848937840551
 21
-438.86120857547832
 31
0.0
  0
LINE
  5
36
  8
1
 62
     7
 10
223.93848937840551
 20
-423.36120857547832
 30
0.0
 11
223.93848937840551
 21
-438.86120857547832
 31
0.0
  0
LINE
  5
37
  8
1
 62
     7
 10
231.2884893784055
 20
-427.86120857547832
 30
0.0
 11
231.2884893784055
 21
-418.36120857547832
 31
0.0
  0
LINE
  5
38
  8
1
 62
     7
 10
225.78848937840539
 20
-428.86120857547837
 30
0.0
 11
230.28848937840539
 21
-428.86120857547837
 31
0.0
  0
LINE
  5
39
  8
1
 62
     7
 10
223.93848937840551
 20
-354.68620857547847
 30
0.0
 11
226.43848937840539
 21
-354.68620857547847
 31
0.0
  0
LINE
  5
3A
  8
1
 62
     7
 10
222.93848937840551
 20
-348.86120857547849
 30
0.0
 11
222.93848937840551
 21
-353.68620857547847
 31
0.0
  0
LINE
  5
3B
  8
1
 62
     7
 10
223.93848937840551
 20
-348.86120857547849
 30
0.0
 11
223.93848937840551
 21
-353.36120857547849
 31
0.0
  0
LINE
  5
3C
  8
1
 62
     7
 10
222.43848937840539
 20
-347.86120857547849
 30
0.0
 11
222.43848937840539
 21
-348.36120857547849
 31
0.0
  0
LINE
  5
3D
  8
1
 62
     7
 10
225.78848937840539
 20
-348.36120857547849
 30
0.0
 11
225.78848937840539
 21
-352.36120857547849
 31
0.0
  0
LINE
  5
3E
  8
1
 62
     7
 10
222.43848937840539
 20
-347.86120857547849
 30
0.0
 11
220.43848937840551
 21
-347.86120857547849
 31
0.0
  0
LINE
  5
3F
  8
1
 62
     3
 10
229.3384893784054
 20
-345.36120857547849
 30
0.0
 11
231.2884893784055
 21
-345.36120857547849
 31
0.0
  0
LINE
  5
40
  8
1
 62
     7
 10
229.8384893784054
 20
-344.86120857547849
 30
0.0
 11
231.2884893784055
 21
-344.86120857547849
 31
0.0
  0
LINE
  5
41
  8
1
 62
     3
 10
229.3384893784054
 20
-340.36120857547849
 30
0.0
 11
231.2884893784055
 21
-340.36120857547849
 31
0.0
  0
LINE
  5
42
  8
1
 62
     7
 10
229.8384893784054
 20
-340.86120857547849
 30
0.0
 11
231.2884893784055
 21
-340.86120857547849
 31
0.0
  0
LINE
  5
43
  8
1
 62
     7
 10
230.28848937840539
 20
-337.86120857547849
 30
0.0
 11
220.43848937840551
 21
-337.86120857547849
 31
0.0
  0
LINE
  5
44
  8
1
 62
     7
 10
217.13848937840541
 20
-442.86120857547849
 30
0.0
 11
217.83848937840551
 21
-442.86120857547849
 31
0.0
  0
LINE
  5
45
  8
1
 62
     7
 10
217.13848937840541
 20
-424.86120857547849
 30
0.0
 11
217.83848937840551
 21
-424.86120857547849
 31
0.0
  0
LINE
  5
46
  8
1
 62
     7
 10
223.43848937840551
 20
-348.36120857547849
 30
0.0
 11
223.43848937840551
 21
-345.36120857547849
 31
0.0
  0
LINE
  5
47
  8
1
 62
     7
 10
197.43848937840539
 20
-378.36120857547849
 30
0.0
 11
232.43848937840539
 21
-378.36120857547849
 31
0.0
  0
LINE
  5
48
  8
1
 62
     7
 10
197.43848937840539
 20
-376.36120857547849
 30
0.0
 11
232.43848937840539
 21
-376.36120857547849
 31
0.0
  0
LINE
  5
49
  8
1
 62
     7
 10
197.43848937840539
 20
-370.86120857547849
 30
0.0
 11
219.13848937840541
 21
-370.86120857547849
 31
0.0
  0
LINE
  5
4A
  8
1
 62
     7
 10
232.1384893784053
 20
-410.36120857547849
 30
0.0
 11
233.7384893784054
 21
-410.36120857547849
 31
0.0
  0
LINE
  5
4B
  8
1
 62
     7
 10
233.7384893784054
 20
-416.36120857547849
 30
0.0
 11
232.1384893784053
 21
-416.36120857547849
 31
0.0
  0
LINE
  5
4C
  8
1
  6
DASHDOT
 62
     3
 10
235.13848937840541
 20
-413.36120857547849
 30
0.0
 11
216.13848937840541
 21
-413.36120857547849
 31
0.0
  0
LINE
  5
4D
  8
1
 62
     7
 10
219.13848937840541
 20
-411.46120857547839
 30
0.0
 11
232.1384893784053
 21
-411.46120857547839
 31
0.0
  0
LINE
  5
4E
  8
1
 62
     7
 10
232.1384893784053
 20
-415.26120857547852
 30
0.0
 11
219.13848937840541
 21
-415.26120857547852
 31
0.0
  0
LINE
  5
4F
  8
1
 62
     3
 10
219.13848937840541
 20
-410.86120857547849
 30
0.0
 11
232.1384893784053
 21
-410.86120857547849
 31
0.0
  0
LINE
  5
50
  8
1
 62
     3
 10
232.1384893784053
 20
-415.86120857547849
 30
0.0
 11
219.13848937840541
 21
-415.86120857547849
 31
0.0
  0
LINE
  5
51
  8
1
  6
DASHDOT
 62
     3
 10
233.7384893784054
 20
-388.36120857547849
 30
0.0
 11
235.61928581016269
 21
-388.36120857547849
 31
0.0
  0
LINE
  5
52
  8
1
  6
DASHDOT
 62
     3
 10
332.72823111921758
 20
-378.61120857547849
 30
0.0
 11
323.20195167758862
 21
-373.11120857547849
 31
0.0
  0
LINE
  5
53
  8
1
  6
DASHDOT
 62
     3
 10
366.5032218668108
 20
-378.61120857547849
 30
0.0
 11
376.02950130843959
 21
-373.11120857547849
 31
0.0
  0
LINE
  5
54
  8
1
 62
     7
 10
372.65065604424791
 20
-401.96354024397181
 30
0.0
 11
372.91315604424778
 21
-401.50887690698499
 31
0.0
  0
LINE
  5
55
  8
1
 62
     7
 10
370.16402991913162
 20
-402.24550303210128
 30
0.0
 11
370.61869325611838
 21
-402.50800303210121
 31
0.0
  0
LINE
  5
56
  8
1
 62
     7
 10
369.88206713100237
 20
-399.75887690698511
 30
0.0
 11
369.61956713100233
 21
-400.21354024397181
 31
0.0
  0
LINE
  5
57
  8
1
 62
     7
 10
372.36869325611838
 20
-399.47691411885569
 30
0.0
 11
371.91402991913162
 21
-399.21441411885559
 31
0.0
  0
LINE
  5
58
  8
1
 62
     7
 10
326.31829694178049
 20
-401.50887690698499
 30
0.0
 11
326.58079694178048
 21
-401.96354024397181
 31
0.0
  0
LINE
  5
59
  8
1
 62
     7
 10
327.31742306689671
 20
-399.21441411885559
 30
0.0
 11
326.86275972990978
 21
-399.47691411885569
 31
0.0
  0
LINE
  5
5A
  8
1
 62
     7
 10
329.611885855026
 20
-400.21354024397181
 30
0.0
 11
329.34938585502601
 21
-399.75887690698511
 31
0.0
  0
LINE
  5
5B
  8
1
 62
     7
 10
328.61275972990978
 20
-402.50800303210121
 30
0.0
 11
329.06742306689671
 21
-402.24550303210123
 31
0.0
  0
LINE
  5
5C
  8
1
  6
DASHDOT
 62
     3
 10
349.61572649301422
 20
-407.86120857547849
 30
0.0
 11
349.61572649301422
 21
-418.86120857547849
 31
0.0
  0
LINE
  5
5D
  8
1
 62
     7
 10
349.87822649301421
 20
-361.61120857547849
 30
0.0
 11
349.35322649301418
 21
-361.61120857547849
 31
0.0
  0
LINE
  5
5E
  8
1
 62
     7
 10
351.36572649301422
 20
-363.62370857547847
 30
0.0
 11
351.36572649301422
 21
-363.0987085754785
 31
0.0
  0
LINE
  5
5F
  8
1
 62
     7
 10
349.35322649301418
 20
-365.11120857547849
 30
0.0
 11
349.87822649301421
 21
-365.11120857547849
 31
0.0
  0
LINE
  5
60
  8
1
 62
     7
 10
347.86572649301422
 20
-363.0987085754785
 30
0.0
 11
347.86572649301422
 21
-363.62370857547847
 31
0.0
  0
LINE
  5
61
  8
1
 62
     7
 10
210.93848937840551
 20
-424.36120857547849
 30
0.0
 11
210.93848937840551
 21
-407.86120857547849
 31
0.0
  0
LINE
  5
62
  8
1
 62
     7
 10
205.8384893784054
 20
-421.11120857547849
 30
0.0
 11
205.8384893784054
 21
-407.86120857547849
 31
0.0
  0
LINE
  5
63
  8
1
 62
     7
 10
217.13848937840541
 20
-338.36120857547849
 30
0.0
 11
217.13848937840541
 21
-333.36120857547849
 31
0.0
  0
LINE
  5
64
  8
1
 62
     7
 10
105.8049954181301
 20
-421.36120857547837
 30
0.0
 11
104.2049954181302
 21
-421.36120857547837
 31
0.0
  0
LINE
  5
65
  8
1
 62
     7
 10
105.8049954181301
 20
-355.36120857547849
 30
0.0
 11
105.8049954181301
 21
-421.36120857547837
 31
0.0
  0
LINE
  5
66
  8
1
 62
     7
 10
104.2049954181302
 20
-355.36120857547849
 30
0.0
 11
105.8049954181301
 21
-355.36120857547849
 31
0.0
  0
LINE
  5
67
  8
1
 62
     7
 10
188.43848937840551
 20
-360.96120857547851
 30
0.0
 11
188.43848937840551
 21
-415.76120857547841
 31
0.0
  0
LINE
  5
68
  8
1
 62
     7
 10
193.8384893784054
 20
-366.36120857547849
 30
0.0
 11
193.8384893784054
 21
-410.36120857547849
 31
0.0
  0
LINE
  5
69
  8
1
 62
     7
 10
204.8384893784054
 20
-336.61120857547849
 30
0.0
 11
204.8384893784054
 21
-352.86120857547849
 31
0.0
  0
LINE
  5
6A
  8
1
 62
     7
 10
193.8384893784054
 20
-366.36120857547849
 30
0.0
 11
205.8384893784054
 21
-366.36120857547849
 31
0.0
  0
LINE
  5
6B
  8
1
 62
     7
 10
188.43848937840551
 20
-360.96120857547851
 30
0.0
 11
193.8384893784054
 21
-366.36120857547849
 31
0.0
  0
LINE
  5
6C
  8
1
 62
     7
 10
205.8384893784054
 20
-367.36120857547849
 30
0.0
 11
210.93848937840551
 21
-367.36120857547849
 31
0.0
  0
LINE
  5
6D
  8
1
 62
     7
 10
205.8384893784054
 20
-355.61120857547849
 30
0.0
 11
205.8384893784054
 21
-368.86120857547849
 31
0.0
  0
LINE
  5
6E
  8
1
 62
     7
 10
204.63848937840541
 20
-355.61120857547849
 30
0.0
 11
205.8384893784054
 21
-355.61120857547849
 31
0.0
  0
LINE
  5
6F
  8
1
 62
     7
 10
204.63848937840541
 20
-352.86120857547849
 30
0.0
 11
204.63848937840541
 21
-355.61120857547849
 31
0.0
  0
LINE
  5
70
  8
1
 62
     7
 10
206.43848937840551
 20
-352.86120857547849
 30
0.0
 11
204.63848937840541
 21
-352.86120857547849
 31
0.0
  0
LINE
  5
71
  8
1
 62
     7
 10
212.7384893784054
 20
-407.86120857547849
 30
0.0
 11
212.7384893784054
 21
-443.36120857547832
 31
0.0
  0
LINE
  5
72
  8
1
 62
     7
 10
217.13848937840541
 20
-407.86120857547849
 30
0.0
 11
217.13848937840541
 21
-427.51120857547818
 31
0.0
  0
LINE
  5
73
  8
1
 62
     7
 10
219.13848937840541
 20
-405.86120857547849
 30
0.0
 11
197.43848937840539
 21
-405.86120857547849
 31
0.0
  0
LINE
  5
74
  8
1
 62
     7
 10
219.13848937840541
 20
-370.86120857547849
 30
0.0
 11
219.13848937840541
 21
-356.18620857547847
 31
0.0
  0
LINE
  5
75
  8
1
 62
     7
 10
197.43848937840539
 20
-370.86120857547849
 30
0.0
 11
197.43848937840539
 21
-405.86120857547849
 31
0.0
  0
LINE
  5
76
  8
1
 62
     7
 10
233.7384893784054
 20
-421.36120857547849
 30
0.0
 11
233.7384893784054
 21
-355.36120857547849
 31
0.0
  0
LINE
  5
77
  8
1
 62
     7
 10
232.1384893784053
 20
-367.36120857547849
 30
0.0
 11
232.1384893784053
 21
-355.36120857547849
 31
0.0
  0
LINE
  5
78
  8
1
 62
     7
 10
232.43848937840539
 20
-367.36120857547849
 30
0.0
 11
232.43848937840539
 21
-409.36120857547849
 31
0.0
  0
LINE
  5
79
  8
1
  6
DASHDOT
 62
     3
 10
173.73848937840549
 20
-388.36120857547849
 30
0.0
 11
176.43848937840539
 21
-388.36120857547849
 31
0.0
  0
LINE
  5
7A
  8
1
 62
     7
 10
210.93848937840551
 20
-352.36120857547849
 30
0.0
 11
212.43848937840551
 21
-352.36120857547849
 31
0.0
  0
LINE
  5
7B
  8
1
 62
     7
 10
212.43848937840551
 20
-333.36120857547849
 30
0.0
 11
212.43848937840551
 21
-368.86120857547849
 31
0.0
  0
LINE
  5
7C
  8
1
 62
     7
 10
212.43848937840551
 20
-333.36120857547849
 30
0.0
 11
199.43848937840551
 21
-333.36120857547849
 31
0.0
  0
LINE
  5
7D
  8
1
 62
     7
 10
198.43848937840551
 20
-336.36120857547849
 30
0.0
 11
198.43848937840551
 21
-334.36120857547849
 31
0.0
  0
LINE
  5
7E
  8
1
 62
     7
 10
198.43848937840551
 20
-336.36120857547849
 30
0.0
 11
206.43848937840551
 21
-336.36120857547849
 31
0.0
  0
LINE
  5
7F
  8
1
 62
     7
 10
206.43848937840551
 20
-336.36120857547849
 30
0.0
 11
206.43848937840551
 21
-352.86120857547849
 31
0.0
  0
LINE
  5
80
  8
1
 62
     7
 10
198.43848937840551
 20
-334.36120857547849
 30
0.0
 11
199.43848937840551
 21
-333.36120857547849
 31
0.0
  0
LINE
  5
81
  8
1
 62
     7
 10
212.7384893784054
 20
-333.36120857547849
 30
0.0
 11
217.13848937840541
 21
-333.36120857547849
 31
0.0
  0
LINE
  5
82
  8
1
 62
     7
 10
220.43848937840551
 20
-333.36120857547849
 30
0.0
 11
220.43848937840551
 21
-340.36120857547849
 31
0.0
  0
LINE
  5
83
  8
1
 62
     7
 10
212.7384893784054
 20
-352.36120857547849
 30
0.0
 11
217.13848937840541
 21
-352.36120857547849
 31
0.0
  0
LINE
  5
84
  8
1
 62
     7
 10
220.43848937840551
 20
-354.4711459944989
 30
0.0
 11
220.43848937840551
 21
-345.36120857547849
 31
0.0
  0
LINE
  5
85
  8
1
 62
     7
 10
210.93848937840551
 20
-352.36120857547849
 30
0.0
 11
210.93848937840551
 21
-368.86120857547849
 31
0.0
  0
LINE
  5
86
  8
1
 62
     7
 10
216.5509972006864
 20
-338.36120857547849
 30
0.0
 11
217.53848937840539
 21
-338.36120857547849
 31
0.0
  0
LINE
  5
87
  8
1
 62
     7
 10
216.5509972006864
 20
-347.36120857547849
 30
0.0
 11
217.53848937840539
 21
-347.36120857547849
 31
0.0
  0
LINE
  5
88
  8
1
 62
     7
 10
217.83848937840551
 20
-340.36120857547849
 30
0.0
 11
229.3384893784054
 21
-340.36120857547849
 31
0.0
  0
LINE
  5
89
  8
1
 62
     7
 10
229.3384893784054
 20
-340.36120857547849
 30
0.0
 11
229.8384893784054
 21
-340.86120857547849
 31
0.0
  0
LINE
  5
8A
  8
1
 62
     7
 10
229.8384893784054
 20
-340.86120857547849
 30
0.0
 11
229.8384893784054
 21
-344.86120857547849
 31
0.0
  0
LINE
  5
8B
  8
1
 62
     7
 10
229.8384893784054
 20
-344.86120857547849
 30
0.0
 11
229.3384893784054
 21
-345.36120857547849
 31
0.0
  0
LINE
  5
8C
  8
1
 62
     7
 10
229.3384893784054
 20
-345.36120857547849
 30
0.0
 11
217.83848937840551
 21
-345.36120857547849
 31
0.0
  0
LINE
  5
8D
  8
1
 62
     7
 10
229.3384893784054
 20
-340.36120857547849
 30
0.0
 11
229.3384893784054
 21
-345.36120857547849
 31
0.0
  0
LINE
  5
8E
  8
1
 62
     3
 10
229.8384893784054
 20
-340.86120857547849
 30
0.0
 11
219.2045147821899
 21
-340.86120857547849
 31
0.0
  0
LINE
  5
8F
  8
1
 62
     3
 10
219.2045147821899
 20
-340.86120857547849
 30
0.0
 11
218.3384893784054
 21
-340.36120857547849
 31
0.0
  0
LINE
  5
90
  8
1
 62
     3
 10
229.8384893784054
 20
-344.86120857547849
 30
0.0
 11
219.2045147821899
 21
-344.86120857547849
 31
0.0
  0
LINE
  5
91
  8
1
 62
     3
 10
219.2045147821899
 20
-344.86120857547849
 30
0.0
 11
218.3384893784054
 21
-345.36120857547849
 31
0.0
  0
LINE
  5
92
  8
1
 62
     3
 10
219.2045147821899
 20
-340.36120857547849
 30
0.0
 11
219.2045147821899
 21
-345.36120857547849
 31
0.0
  0
LINE
  5
93
  8
1
 62
     7
 10
212.7384893784054
 20
-337.61120857547849
 30
0.0
 11
217.13848937840541
 21
-337.61120857547849
 31
0.0
  0
LINE
  5
94
  8
1
 62
     7
 10
212.7384893784054
 20
-348.11120857547849
 30
0.0
 11
217.13848937840541
 21
-348.11120857547849
 31
0.0
  0
LINE
  5
95
  8
1
 62
     7
 10
222.43848937840539
 20
-337.86120857547849
 30
0.0
 11
222.43848937840539
 21
-340.36120857547849
 31
0.0
  0
LINE
  5
96
  8
1
 62
     7
 10
222.43848937840539
 20
-345.36120857547849
 30
0.0
 11
222.43848937840539
 21
-347.86120857547849
 31
0.0
  0
LINE
  5
97
  8
1
 62
     7
 10
225.78848937840539
 20
-348.36120857547849
 30
0.0
 11
222.43848937840539
 21
-348.36120857547849
 31
0.0
  0
LINE
  5
98
  8
1
 62
     7
 10
221.43848937840551
 20
-345.36120857547849
 30
0.0
 11
221.43848937840551
 21
-347.86120857547849
 31
0.0
  0
LINE
  5
99
  8
1
 62
     7
 10
221.43848937840551
 20
-337.86120857547849
 30
0.0
 11
221.43848937840551
 21
-340.36120857547849
 31
0.0
  0
LINE
  5
9A
  8
1
 62
     7
 10
219.13848937840541
 20
-358.36120857547849
 30
0.0
 11
232.1384893784053
 21
-358.36120857547849
 31
0.0
  0
LINE
  5
9B
  8
1
 62
     7
 10
231.2884893784055
 20
-358.36120857547849
 30
0.0
 11
231.2884893784055
 21
-338.86120857547849
 31
0.0
  0
LINE
  5
9C
  8
1
 62
     7
 10
223.43848937840551
 20
-337.86120857547849
 30
0.0
 11
223.43848937840551
 21
-340.36120857547849
 31
0.0
  0
LINE
  5
9D
  8
1
 62
     7
 10
225.78848937840539
 20
-352.36120857547849
 30
0.0
 11
226.7884893784055
 21
-352.36120857547849
 31
0.0
  0
LINE
  5
9E
  8
1
 62
     7
 10
226.7884893784055
 20
-352.36120857547849
 30
0.0
 11
226.7884893784055
 21
-358.36120857547849
 31
0.0
  0
LINE
  5
9F
  8
1
 62
     7
 10
231.2884893784055
 20
-338.86120857547849
 30
0.0
 11
230.28848937840539
 21
-337.86120857547849
 31
0.0
  0
LINE
  5
A0
  8
1
 62
     7
 10
220.43848937840551
 20
-349.36120857547849
 30
0.0
 11
220.93848937840551
 21
-349.36120857547849
 31
0.0
  0
LINE
  5
A1
  8
1
 62
     7
 10
226.43848937840539
 20
-354.68620857547847
 30
0.0
 11
226.43848937840539
 21
-355.68620857547847
 31
0.0
  0
LINE
  5
A2
  8
1
 62
     7
 10
220.43848937840551
 20
-350.36120857547849
 30
0.0
 11
220.93848937840551
 21
-350.36120857547849
 31
0.0
  0
LINE
  5
A3
  8
1
 62
     7
 10
221.93848937840551
 20
-351.36120857547849
 30
0.0
 11
221.93848937840551
 21
-353.68620857547847
 31
0.0
  0
LINE
  5
A4
  8
1
 62
     7
 10
222.93848937840551
 20
-353.36120857547849
 30
0.0
 11
223.93848937840551
 21
-353.36120857547849
 31
0.0
  0
LINE
  5
A5
  8
1
 62
     7
 10
222.93848937840551
 20
-350.36120857547849
 30
0.0
 11
223.93848937840551
 21
-350.36120857547849
 31
0.0
  0
LINE
  5
A6
  8
1
 62
     7
 10
223.93848937840551
 20
-423.36120857547832
 30
0.0
 11
222.93848937840551
 21
-423.36120857547832
 31
0.0
  0
LINE
  5
A7
  8
1
 62
     7
 10
221.93848937840551
 20
-423.03620857547838
 30
0.0
 11
221.93848937840551
 21
-425.36120857547837
 31
0.0
  0
LINE
  5
A8
  8
1
 62
     7
 10
220.93848937840551
 20
-426.36120857547832
 30
0.0
 11
220.43848937840551
 21
-426.36120857547832
 31
0.0
  0
LINE
  5
A9
  8
1
 62
     7
 10
226.43848937840539
 20
-421.03620857547833
 30
0.0
 11
226.43848937840539
 21
-422.03620857547838
 31
0.0
  0
LINE
  5
AA
  8
1
 62
     7
 10
226.43848937840539
 20
-422.03620857547838
 30
0.0
 11
223.93848937840551
 21
-422.03620857547838
 31
0.0
  0
LINE
  5
AB
  8
1
 62
     7
 10
220.93848937840551
 20
-427.36120857547832
 30
0.0
 11
220.43848937840551
 21
-427.36120857547832
 31
0.0
  0
LINE
  5
AC
  8
1
 62
     7
 10
230.28848937840539
 20
-428.86120857547837
 30
0.0
 11
231.2884893784055
 21
-427.86120857547832
 31
0.0
  0
LINE
  5
AD
  8
1
 62
     7
 10
226.7884893784055
 20
-418.36120857547832
 30
0.0
 11
226.7884893784055
 21
-424.36120857547832
 31
0.0
  0
LINE
  5
AE
  8
1
 62
     7
 10
226.7884893784055
 20
-424.36120857547832
 30
0.0
 11
225.78848937840539
 21
-424.36120857547832
 31
0.0
  0
LINE
  5
AF
  8
1
 62
     7
 10
225.78848937840539
 20
-424.36120857547832
 30
0.0
 11
225.78848937840539
 21
-428.86120857547837
 31
0.0
  0
LINE
  5
B0
  8
1
 62
     7
 10
219.13848937840541
 20
-420.53620857547833
 30
0.0
 11
219.13848937840541
 21
-405.86120857547849
 31
0.0
  0
LINE
  5
B1
  8
1
 62
     7
 10
232.1384893784053
 20
-421.36120857547849
 30
0.0
 11
232.1384893784053
 21
-409.36120857547849
 31
0.0
  0
LINE
  5
B2
  8
1
 62
     7
 10
220.43848937840551
 20
-424.36120857547832
 30
0.0
 11
217.83848937840551
 21
-424.36120857547832
 31
0.0
  0
LINE
  5
B3
  8
1
 62
     7
 10
220.43848937840551
 20
-443.36120857547832
 30
0.0
 11
220.43848937840551
 21
-422.25127115645779
 31
0.0
  0
LINE
  5
B4
  8
1
 62
     7
 10
220.43848937840551
 20
-443.36120857547832
 30
0.0
 11
217.83848937840551
 21
-443.36120857547832
 31
0.0
  0
LINE
  5
B5
  8
1
 62
     7
 10
222.93848937840551
 20
-438.86120857547832
 30
0.0
 11
223.93848937840551
 21
-438.86120857547832
 31
0.0
  0
LINE
  5
B6
  8
1
 62
     7
 10
217.83848937840551
 20
-407.86120857547849
 30
0.0
 11
217.83848937840551
 21
-443.36120857547832
 31
0.0
  0
LINE
  5
B7
  8
1
 62
     7
 10
212.7384893784054
 20
-436.51120857547818
 30
0.0
 11
214.3384893784054
 21
-436.51120857547818
 31
0.0
  0
LINE
  5
B8
  8
1
 62
     7
 10
214.3384893784054
 20
-436.51120857547818
 30
0.0
 11
214.3384893784054
 21
-441.21120857547851
 31
0.0
  0
LINE
  5
B9
  8
1
 62
     7
 10
214.3384893784054
 20
-441.21120857547851
 30
0.0
 11
212.7384893784054
 21
-441.21120857547851
 31
0.0
  0
LINE
  5
BA
  8
1
 62
     7
 10
214.3384893784054
 20
-437.51120857547829
 30
0.0
 11
217.83848937840551
 21
-437.51120857547829
 31
0.0
  0
LINE
  5
BB
  8
1
 62
     7
 10
214.3384893784054
 20
-440.21120857547851
 30
0.0
 11
217.83848937840551
 21
-440.21120857547851
 31
0.0
  0
LINE
  5
BC
  8
1
 62
     7
 10
212.7384893784054
 20
-426.51120857547829
 30
0.0
 11
214.3384893784054
 21
-426.51120857547829
 31
0.0
  0
LINE
  5
BD
  8
1
 62
     7
 10
214.3384893784054
 20
-426.51120857547829
 30
0.0
 11
214.3384893784054
 21
-431.21120857547851
 31
0.0
  0
LINE
  5
BE
  8
1
 62
     7
 10
212.7384893784054
 20
-431.21120857547851
 30
0.0
 11
214.3384893784054
 21
-431.21120857547851
 31
0.0
  0
LINE
  5
BF
  8
1
 62
     7
 10
214.3384893784054
 20
-427.51120857547818
 30
0.0
 11
217.83848937840551
 21
-427.51120857547818
 31
0.0
  0
LINE
  5
C0
  8
1
 62
     7
 10
214.3384893784054
 20
-430.21120857547839
 30
0.0
 11
217.83848937840551
 21
-430.21120857547839
 31
0.0
  0
LINE
  5
C1
  8
1
 62
     7
 10
217.83848937840551
 20
-430.21120857547839
 30
0.0
 11
220.43848937840551
 21
-431.75969037909073
 31
0.0
  0
LINE
  5
C2
  8
1
 62
     7
 10
217.83848937840551
 20
-427.51120857547818
 30
0.0
 11
220.43848937840551
 21
-425.99453535342008
 31
0.0
  0
LINE
  5
C3
  8
1
 62
     7
 10
217.83848937840551
 20
-437.51120857547829
 30
0.0
 11
220.43848937840551
 21
-436.11707499151612
 31
0.0
  0
LINE
  5
C4
  8
1
 62
     7
 10
217.83848937840551
 20
-440.21120857547851
 30
0.0
 11
220.43848937840551
 21
-441.64760161497929
 31
0.0
  0
LINE
  5
C5
  8
1
 62
     7
 10
217.13848937840541
 20
-430.21120857547839
 30
0.0
 11
217.13848937840541
 21
-437.51120857547829
 31
0.0
  0
LINE
  5
C6
  8
1
 62
     7
 10
217.13848937840541
 20
-440.21120857547851
 30
0.0
 11
217.13848937840541
 21
-443.36120857547832
 31
0.0
  0
LINE
  5
C7
  8
1
 62
     7
 10
199.43848937840551
 20
-443.36120857547849
 30
0.0
 11
198.43848937840551
 21
-442.36120857547849
 31
0.0
  0
LINE
  5
C8
  8
1
 62
     7
 10
206.43848937840551
 20
-440.36120857547849
 30
0.0
 11
206.43848937840551
 21
-423.86120857547849
 31
0.0
  0
LINE
  5
C9
  8
1
 62
     7
 10
206.43848937840551
 20
-440.36120857547849
 30
0.0
 11
198.43848937840551
 21
-440.36120857547849
 31
0.0
  0
LINE
  5
CA
  8
1
 62
     7
 10
198.43848937840551
 20
-442.36120857547849
 30
0.0
 11
198.43848937840551
 21
-440.36120857547849
 31
0.0
  0
LINE
  5
CB
  8
1
 62
     7
 10
199.43848937840551
 20
-443.36120857547849
 30
0.0
 11
212.43848937840551
 21
-443.36120857547849
 31
0.0
  0
LINE
  5
CC
  8
1
 62
     7
 10
212.43848937840551
 20
-407.86120857547849
 30
0.0
 11
212.43848937840551
 21
-443.36120857547849
 31
0.0
  0
LINE
  5
CD
  8
1
 62
     7
 10
212.43848937840551
 20
-424.36120857547849
 30
0.0
 11
210.93848937840551
 21
-424.36120857547849
 31
0.0
  0
LINE
  5
CE
  8
1
 62
     7
 10
204.63848937840541
 20
-423.86120857547849
 30
0.0
 11
206.43848937840551
 21
-423.86120857547849
 31
0.0
  0
LINE
  5
CF
  8
1
 62
     7
 10
204.63848937840541
 20
-421.11120857547849
 30
0.0
 11
204.63848937840541
 21
-423.86120857547849
 31
0.0
  0
LINE
  5
D0
  8
1
 62
     7
 10
205.8384893784054
 20
-421.11120857547849
 30
0.0
 11
204.63848937840541
 21
-421.11120857547849
 31
0.0
  0
LINE
  5
D1
  8
1
 62
     7
 10
210.93848937840551
 20
-409.36120857547849
 30
0.0
 11
205.8384893784054
 21
-409.36120857547849
 31
0.0
  0
LINE
  5
D2
  8
1
 62
     7
 10
188.43848937840551
 20
-415.76120857547841
 30
0.0
 11
179.8384893784054
 21
-415.76120857547841
 31
0.0
  0
LINE
  5
D3
  8
1
 62
     7
 10
193.8384893784054
 20
-410.36120857547849
 30
0.0
 11
188.43848937840551
 21
-415.76120857547841
 31
0.0
  0
LINE
  5
D4
  8
1
 62
     7
 10
205.8384893784054
 20
-410.36120857547849
 30
0.0
 11
193.8384893784054
 21
-410.36120857547849
 31
0.0
  0
LINE
  5
D5
  8
1
 62
     7
 10
204.8384893784054
 20
-423.86120857547849
 30
0.0
 11
204.8384893784054
 21
-440.11120857547849
 31
0.0
  0
LINE
  5
D6
  8
1
 62
     7
 10
217.13848937840541
 20
-368.86120857547849
 30
0.0
 11
217.13848937840541
 21
-347.36120857547849
 31
0.0
  0
LINE
  5
D7
  8
1
 62
     7
 10
217.83848937840551
 20
-368.86120857547849
 30
0.0
 11
217.83848937840551
 21
-333.36120857547849
 31
0.0
  0
LINE
  5
D8
  8
1
 62
     7
 10
176.43848937840539
 20
-320.86120857547849
 30
0.0
 11
176.43848937840539
 21
-439.86120857547849
 31
0.0
  0
LINE
  5
D9
  8
1
 62
     7
 10
176.43848937840539
 20
-320.86120857547849
 30
0.0
 11
178.83848937840531
 21
-320.86120857547849
 31
0.0
  0
LINE
  5
DA
  8
1
 62
     7
 10
176.43848937840539
 20
-361.36120857547849
 30
0.0
 11
178.8384893784054
 21
-361.36120857547849
 31
0.0
  0
LINE
  5
DB
  8
1
 62
     7
 10
176.43848937840539
 20
-415.36120857547849
 30
0.0
 11
178.8384893784054
 21
-415.36120857547849
 31
0.0
  0
LINE
  5
DC
  8
1
 62
     7
 10
176.43848937840539
 20
-439.86120857547849
 30
0.0
 11
178.83848937840531
 21
-439.86120857547849
 31
0.0
  0
LINE
  5
DD
  8
1
 62
     7
 10
176.43848937840539
 20
-326.11120857547849
 30
0.0
 11
178.83848937840531
 21
-326.11120857547849
 31
0.0
  0
LINE
  5
DE
  8
1
 62
     7
 10
176.43848937840539
 20
-330.61120857547849
 30
0.0
 11
178.83848937840531
 21
-330.61120857547849
 31
0.0
  0
LINE
  5
DF
  8
1
  6
DASHDOT
 62
     3
 10
174.3170181766686
 20
-328.36120857547849
 30
0.0
 11
181.32480158307939
 21
-328.36120857547849
 31
0.0
  0
LINE
  5
E0
  8
1
 62
     7
 10
204.8384893784054
 20
-336.61120857547849
 30
0.0
 11
179.838489378406
 21
-336.61120857547849
 31
0.0
  0
LINE
  5
E1
  8
1
 62
     7
 10
178.83848937840531
 20
-439.11120857547849
 30
0.0
 11
179.83848937840531
 21
-440.11120857547849
 31
0.0
  0
LINE
  5
E2
  8
1
 62
     7
 10
179.83848937840531
 20
-440.11120857547849
 30
0.0
 11
204.8384893784054
 21
-440.11120857547849
 31
0.0
  0
LINE
  5
E3
  8
1
 62
     7
 10
179.8384893784054
 20
-415.76120857547841
 30
0.0
 11
178.8384893784054
 21
-416.76120857547852
 31
0.0
  0
LINE
  5
E4
  8
1
 62
     7
 10
179.838489378406
 20
-336.61120857547849
 30
0.0
 11
178.83848937840531
 21
-337.61120857547849
 31
0.0
  0
LINE
  5
E5
  8
1
 62
     7
 10
178.8384893784054
 20
-359.96120857547851
 30
0.0
 11
179.8384893784058
 21
-360.96120857547851
 31
0.0
  0
LINE
  5
E6
  8
1
 62
     7
 10
179.8384893784058
 20
-360.96120857547851
 30
0.0
 11
188.43848937840551
 21
-360.96120857547851
 31
0.0
  0
LINE
  5
E7
  8
1
 62
     7
 10
217.83848937840551
 20
-333.36120857547849
 30
0.0
 11
220.43848937840551
 21
-333.36120857547849
 31
0.0
  0
LINE
  5
E8
  8
1
 62
     7
 10
217.83848937840551
 20
-352.36120857547849
 30
0.0
 11
220.43848937840551
 21
-352.36120857547849
 31
0.0
  0
LINE
  5
E9
  8
1
 62
     7
 10
217.13848937840541
 20
-424.36120857547832
 30
0.0
 11
212.7384893784054
 21
-424.36120857547832
 31
0.0
  0
LINE
  5
EA
  8
1
 62
     7
 10
217.13848937840541
 20
-443.36120857547832
 30
0.0
 11
212.7384893784054
 21
-443.36120857547832
 31
0.0
  0
LINE
  5
EB
  8
1
  6
DASHDOT
 62
     3
 10
389.21760891606982
 20
-348.75932615242277
 30
0.0
 11
395.33329236930712
 21
-342.64364269918531
 31
0.0
  0
LINE
  5
EC
  8
1
  6
DASHDOT
 62
     3
 10
105.8049954181301
 20
-388.36120857547849
 30
0.0
 11
108.63342993606
 21
-388.36120857547849
 31
0.0
  0
LINE
  5
ED
  8
1
 62
     7
 10
84.804995418130403
 20
-333.36120857547849
 30
0.0
 11
84.804995418130403
 21
-443.3612085754782
 31
0.0
  0
LINE
  5
EE
  8
1
 62
     7
 10
84.804995418130403
 20
-333.36120857547849
 30
0.0
 11
89.204995418130395
 21
-333.36120857547849
 31
0.0
  0
LINE
  5
EF
  8
1
 62
     7
 10
94.504995418130392
 20
-337.86120857547849
 30
0.0
 11
94.504995418130392
 21
-347.86120857547849
 31
0.0
  0
LINE
  5
F0
  8
1
 62
     7
 10
103.3549954181304
 20
-338.86120857547849
 30
0.0
 11
103.3549954181304
 21
-428.8612085754782
 31
0.0
  0
LINE
  5
F1
  8
1
 62
     7
 10
103.3549954181304
 20
-338.86120857547849
 30
0.0
 11
102.3549954181304
 21
-337.86120857547849
 31
0.0
  0
LINE
  5
F2
  8
1
 62
     7
 10
95.504995418130392
 20
-347.86120857547849
 30
0.0
 11
92.504995418130406
 21
-347.86120857547849
 31
0.0
  0
LINE
  5
F3
  8
1
 62
     7
 10
96.004995418130392
 20
-438.86120857547832
 30
0.0
 11
96.004995418130392
 21
-416.11120857547849
 31
0.0
  0
LINE
  5
F4
  8
1
 62
     7
 10
93.004995418130392
 20
-427.3612085754782
 30
0.0
 11
92.504995418130406
 21
-427.3612085754782
 31
0.0
  0
LINE
  5
F5
  8
1
 62
     7
 10
102.3549954181304
 20
-429.8612085754782
 30
0.0
 11
103.3549954181304
 21
-428.8612085754782
 31
0.0
  0
LINE
  5
F6
  8
1
 62
     7
 10
89.90499541813044
 20
-443.3612085754782
 30
0.0
 11
89.90499541813044
 21
-333.36120857547849
 31
0.0
  0
LINE
  5
F7
  8
1
 62
     7
 10
92.504995418130406
 20
-424.3612085754782
 30
0.0
 11
89.90499541813044
 21
-424.3612085754782
 31
0.0
  0
LINE
  5
F8
  8
1
 62
     7
 10
92.504995418130406
 20
-443.3612085754782
 30
0.0
 11
92.504995418130406
 21
-333.36120857547849
 31
0.0
  0
LINE
  5
F9
  8
1
 62
     7
 10
92.504995418130406
 20
-443.3612085754782
 30
0.0
 11
89.90499541813044
 21
-443.3612085754782
 31
0.0
  0
LINE
  5
FA
  8
1
 62
     7
 10
95.004995418130406
 20
-438.86120857547832
 30
0.0
 11
95.004995418130406
 21
-416.11120857547849
 31
0.0
  0
LINE
  5
FB
  8
1
 62
     7
 10
95.004995418130406
 20
-438.86120857547832
 30
0.0
 11
96.004995418130392
 21
-438.86120857547832
 31
0.0
  0
LINE
  5
FC
  8
1
 62
     7
 10
89.204995418130395
 20
-443.3612085754782
 30
0.0
 11
89.204995418130395
 21
-333.36120857547849
 31
0.0
  0
LINE
  5
FD
  8
1
 62
     7
 10
89.90499541813044
 20
-333.36120857547849
 30
0.0
 11
92.504995418130406
 21
-333.36120857547849
 31
0.0
  0
LINE
  5
FE
  8
1
 62
     7
 10
89.204995418130395
 20
-443.3612085754782
 30
0.0
 11
84.804995418130403
 21
-443.3612085754782
 31
0.0
  0
LINE
  5
FF
  8
1
  6
DASHDOT
 62
     3
 10
349.61572649301422
 20
-378.76572782217312
 30
0.0
 11
349.61572649301422
 21
-397.9566893287838
 31
0.0
  0
LINE
  5
100
  8
1
  6
DASHDOT
 62
     3
 10
359.21120724631959
 20
-388.36120857547849
 30
0.0
 11
340.02024573970868
 21
-388.36120857547849
 31
0.0
  0
LINE
  5
101
  8
1
 62
     7
 10
336.5453647153368
 20
-339.5819543478803
 30
0.0
 11
338.91019516489177
 21
-348.40762173690553
 31
0.0
  0
LINE
  5
102
  8
1
 62
     7
 10
313.9068340430934
 20
-424.07010102539903
 30
0.0
 11
320.36767098256371
 21
-417.609264085929
 31
0.0
  0
LINE
  5
103
  8
1
 62
     7
 10
398.39498072061212
 20
-401.43157035315579
 30
0.0
 11
389.56931333158713
 21
-399.06673990360082
 31
0.0
  0
LINE
  5
104
  8
1
 62
     7
 10
380.2575042177732
 20
-362.64970418801681
 30
0.0
 11
380.51738893250808
 21
-362.43163501973419
 31
0.0
  0
LINE
  5
105
  8
1
 62
     7
 10
312.02802166157778
 20
-374.6804028424516
 30
0.0
 11
311.70922586469561
 21
-374.5643706615773
 31
0.0
  0
LINE
  5
106
  8
1
 62
     7
 10
356.56165359969128
 20
-427.75351869596659
 30
0.0
 11
356.62056468183891
 21
-428.08762004512369
 31
0.0
  0
LINE
  5
107
  8
1
 62
     7
 10
401.11572649301422
 20
-344.72636011693561
 30
0.0
 11
401.11572649301422
 21
-369.05447399917068
 31
0.0
  0
LINE
  5
108
  8
1
 62
     7
 10
393.25057495155698
 20
-336.86120857547849
 30
0.0
 11
368.92246106932191
 21
-336.86120857547849
 31
0.0
  0
LINE
  5
109
  8
1
  6
DASHDOT
 62
     3
 10
310.01384406995862
 20
-348.75932615242277
 30
0.0
 11
303.89816061672121
 21
-342.64364269918548
 31
0.0
  0
LINE
  5
10A
  8
1
  6
DASHDOT
 62
     3
 10
310.01384406995862
 20
-427.96309099853408
 30
0.0
 11
303.89816061672133
 21
-434.07877445177161
 31
0.0
  0
LINE
  5
10B
  8
1
  6
DASHDOT
 62
     3
 10
389.21760891606982
 20
-427.96309099853408
 30
0.0
 11
395.33329236930729
 21
-434.07877445177138
 31
0.0
  0
LINE
  5
10C
  8
1
 62
     7
 10
305.98087803447129
 20
-336.86120857547849
 30
0.0
 11
330.30899191670642
 21
-336.86120857547849
 31
0.0
  0
LINE
  5
10D
  8
1
 62
     7
 10
298.11572649301422
 20
-431.99605703402148
 30
0.0
 11
298.11572649301422
 21
-407.66794315178629
 31
0.0
  0
LINE
  5
10E
  8
1
 62
     7
 10
393.2505749515571
 20
-439.86120857547849
 30
0.0
 11
368.92246106932208
 21
-439.86120857547849
 31
0.0
  0
LINE
  5
10F
  8
1
 62
     7
 10
298.11572649301411
 20
-344.72636011693561
 30
0.0
 11
298.11572649301411
 21
-369.05447399917068
 31
0.0
  0
LINE
  5
110
  8
1
 62
     7
 10
305.98087803447152
 20
-439.86120857547849
 30
0.0
 11
330.30899191670647
 21
-439.86120857547849
 31
0.0
  0
LINE
  5
111
  8
1
 62
     7
 10
401.11572649301422
 20
-431.99605703402131
 30
0.0
 11
401.11572649301422
 21
-407.66794315178629
 31
0.0
  0
LINE
  5
112
  8
1
 62
     7
 10
187.23848937840529
 20
-313.61120857547849
 30
0.0
 11
187.23848937840529
 21
-316.61120857547849
 31
0.0
  0
LINE
  5
113
  8
1
 62
     7
 10
187.5384893784053
 20
-316.61120857547849
 30
0.0
 11
187.5384893784053
 21
-313.61120857547849
 31
0.0
  0
LINE
  5
114
  8
1
 62
     7
 10
187.83848937840531
 20
-313.61120857547849
 30
0.0
 11
187.83848937840531
 21
-316.61120857547849
 31
0.0
  0
LINE
  5
115
  8
1
 62
     7
 10
188.13848937840521
 20
-316.61120857547849
 30
0.0
 11
188.13848937840521
 21
-313.61120857547849
 31
0.0
  0
LINE
  5
116
  8
1
 62
     7
 10
188.43848937840531
 20
-313.61120857547849
 30
0.0
 11
188.43848937840531
 21
-316.61120857547849
 31
0.0
  0
LINE
  5
117
  8
1
 62
     7
 10
84.504995418130406
 20
-333.36120857547849
 30
0.0
 11
71.504995418130392
 21
-333.36120857547849
 31
0.0
  0
LINE
  5
118
  8
1
 62
     7
 10
70.504995418130392
 20
-334.36120857547849
 30
0.0
 11
71.504995418130392
 21
-333.36120857547849
 31
0.0
  0
LINE
  5
119
  8
1
 62
     7
 10
51.904995418130859
 20
-336.61120857547849
 30
0.0
 11
70.504995418130392
 21
-336.61120857547849
 31
0.0
  0
LINE
  5
11A
  8
1
 62
     7
 10
48.50499541813025
 20
-320.86120857547849
 30
0.0
 11
50.90499541813017
 21
-320.86120857547849
 31
0.0
  0
LINE
  5
11B
  8
1
  6
DASHDOT
 62
     3
 10
46.38352421639344
 20
-328.36120857547849
 30
0.0
 11
53.391307622804362
 21
-328.36120857547849
 31
0.0
  0
LINE
  5
11C
  8
1
 62
     7
 10
51.904995418130859
 20
-336.61120857547849
 30
0.0
 11
50.904995418130127
 21
-337.61120857547849
 31
0.0
  0
LINE
  5
11D
  8
1
 62
     7
 10
48.50499541813025
 20
-320.86120857547849
 30
0.0
 11
48.50499541813025
 21
-439.86120857547849
 31
0.0
  0
LINE
  5
11E
  8
1
 62
     7
 10
84.504995418130406
 20
-333.36120857547849
 30
0.0
 11
84.504995418130406
 21
-443.36120857547849
 31
0.0
  0
LINE
  5
11F
  8
1
 62
     7
 10
70.504995418130392
 20
-334.36120857547849
 30
0.0
 11
70.504995418130392
 21
-442.3612085754782
 31
0.0
  0
LINE
  5
120
  8
1
 62
     7
 10
71.504995418130392
 20
-443.36120857547849
 30
0.0
 11
70.504995418130392
 21
-442.3612085754782
 31
0.0
  0
LINE
  5
121
  8
1
 62
     7
 10
50.90499541813017
 20
-439.86120857547849
 30
0.0
 11
48.50499541813025
 21
-439.86120857547849
 31
0.0
  0
LINE
  5
122
  8
1
 62
     7
 10
50.904995418130127
 20
-439.11120857547849
 30
0.0
 11
51.904995418130859
 21
-440.11120857547849
 31
0.0
  0
LINE
  5
123
  8
1
 62
     7
 10
70.504995418130392
 20
-440.11120857547849
 30
0.0
 11
51.904995418130859
 21
-440.11120857547849
 31
0.0
  0
LINE
  5
124
  8
1
 62
     7
 10
71.504995418130392
 20
-443.36120857547849
 30
0.0
 11
84.504995418130406
 21
-443.36120857547849
 31
0.0
  0
LINE
  5
125
  8
1
 62
     7
 10
70.504995418130392
 20
-388.36120857547849
 30
0.0
 11
70.504995418130392
 21
-440.11120857547849
 31
0.0
  0
LINE
  5
126
  8
1
  6
DASHDOT
 62
     3
 10
48.50499541813025
 20
-388.36120857547849
 30
0.0
 11
46.503029255355287
 21
-388.36120857547849
 31
0.0
  0
LINE
  5
127
  8
1
 62
     7
 10
347.96572649301419
 20
-313.36120857547849
 30
0.0
 11
347.96572649301419
 21
-316.36120857547849
 31
0.0
  0
LINE
  5
128
  8
1
 62
     7
 10
348.56572649301421
 20
-313.36120857547849
 30
0.0
 11
348.56572649301421
 21
-316.36120857547849
 31
0.0
  0
LINE
  5
129
  8
1
 62
     7
 10
349.16572649301429
 20
-313.36120857547849
 30
0.0
 11
349.16572649301429
 21
-316.36120857547849
 31
0.0
  0
LINE
  5
12A
  8
1
 62
     7
 10
349.61572649301422
 20
-316.36120857547849
 30
0.0
 11
351.61572649301422
 21
-316.36120857547849
 31
0.0
  0
LINE
  5
12B
  8
1
 62
     7
 10
350.96572649301419
 20
-313.36120857547849
 30
0.0
 11
350.96572649301419
 21
-316.36120857547849
 31
0.0
  0
LINE
  5
12C
  8
1
 62
     7
 10
350.36572649301422
 20
-313.36120857547849
 30
0.0
 11
350.36572649301422
 21
-316.36120857547849
 31
0.0
  0
LINE
  5
12D
  8
1
 62
     7
 10
349.61572649301422
 20
-316.36120857547849
 30
0.0
 11
349.61572649301422
 21
-333.36120857547849
 31
0.0
  0
LINE
  5
12E
  8
1
 62
     7
 10
89.90499541813044
 20
-339.88412188925179
 30
0.0
 11
89.204995418130395
 21
-339.88412188925179
 31
0.0
  0
LINE
  5
12F
  8
1
 62
     7
 10
89.90499541813044
 20
-389.9465722342286
 30
0.0
 11
89.204995418130395
 21
-389.9465722342286
 31
0.0
  0
LINE
  5
130
  8
1
 62
     7
 10
102.3549954181304
 20
-429.8612085754782
 30
0.0
 11
102.3549954181304
 21
-337.86120857547849
 31
0.0
  0
LINE
  5
131
  8
1
 62
     7
 10
95.504995418130392
 20
-406.11120857547849
 30
0.0
 11
95.504995418130392
 21
-416.11120857547849
 31
0.0
  0
LINE
  5
132
  8
1
 62
     7
 10
95.004995418130406
 20
-416.11120857547849
 30
0.0
 11
97.854995418130201
 21
-416.11120857547849
 31
0.0
  0
LINE
  5
133
  8
1
 62
     7
 10
92.504995418130406
 20
-406.71213137289902
 30
0.0
 11
94.504995418130392
 21
-406.71213137289902
 31
0.0
  0
LINE
  5
134
  8
1
 62
     7
 10
92.504995418130406
 20
-416.01120857547852
 30
0.0
 11
95.504995418130392
 21
-416.01120857547852
 31
0.0
  0
LINE
  5
135
  8
1
 62
     7
 10
93.504995418130392
 20
-406.71213137289902
 30
0.0
 11
93.504995418130392
 21
-416.01120857547852
 31
0.0
  0
LINE
  5
136
  8
1
 62
     7
 10
94.504995418130392
 20
-416.01120857547852
 30
0.0
 11
94.504995418130392
 21
-406.71213137289902
 31
0.0
  0
LINE
  5
137
  8
1
 62
     7
 10
97.854995418130201
 20
-406.11120857547849
 30
0.0
 11
95.504995418130392
 21
-406.11120857547849
 31
0.0
  0
LINE
  5
138
  8
1
 62
     7
 10
95.679009103768237
 20
-338.20734943912942
 30
0.0
 11
96.678862285906206
 21
-338.22448461256289
 31
0.0
  0
LINE
  5
139
  8
1
 62
     7
 10
96.678862285906206
 20
-338.22448461256289
 30
0.0
 11
95.50484860026836
 21
-406.7292665463325
 31
0.0
  0
LINE
  5
13A
  8
1
 62
     7
 10
94.504995418130392
 20
-406.71213137289902
 30
0.0
 11
95.679009103768237
 21
-338.20734943912942
 31
0.0
  0
LINE
  5
13B
  8
1
 62
     7
 10
96.505142257551086
 20
-348.36120857547849
 30
0.0
 11
97.854995418130201
 21
-348.36120857547849
 31
0.0
  0
LINE
  5
13C
  8
1
 62
     7
 10
97.854995418130201
 20
-429.8612085754782
 30
0.0
 11
97.854995418130201
 21
-337.86120857547849
 31
0.0
  0
LINE
  5
13D
  8
1
 62
     7
 10
97.854995418130201
 20
-422.03620857547821
 30
0.0
 11
96.004995418130392
 21
-422.03620857547821
 31
0.0
  0
LINE
  5
13E
  8
1
 62
     7
 10
95.836772365006254
 20
-387.36120857547849
 30
0.0
 11
97.854995418130201
 21
-387.36120857547849
 31
0.0
  0
LINE
  5
13F
  8
1
 62
     7
 10
97.854995418130201
 20
-389.36120857547849
 30
0.0
 11
95.802496985901456
 21
-389.36120857547849
 31
0.0
  0
LINE
  5
140
  8
1
 62
     7
 10
96.329635947037787
 20
-358.60216375070002
 30
0.0
 11
97.854995418130201
 21
-358.60216375070002
 31
0.0
  0
LINE
  5
141
  8
1
 62
     7
 10
97.854995418130201
 20
-359.8021637507
 30
0.0
 11
96.309070719574848
 21
-359.8021637507
 31
0.0
  0
LINE
  5
142
  8
1
 62
     7
 10
48.50499541813025
 20
-431.99605703402148
 30
0.0
 11
50.90499541813017
 21
-431.99605703402148
 31
0.0
  0
LINE
  5
143
  8
1
 62
     7
 10
178.83848937840531
 20
-439.86120857547849
 30
0.0
 11
178.83848937840531
 21
-320.86120857547849
 31
0.0
  0
LINE
  5
144
  8
1
 62
     7
 10
232.43848937840539
 20
-398.36120857547849
 30
0.0
 11
197.43848937840539
 21
-398.36120857547849
 31
0.0
  0
LINE
  5
145
  8
1
 62
     7
 10
347.11572649301422
 20
-378.67875020995967
 30
0.0
 11
347.11572649301422
 21
-376.36120857547849
 31
0.0
  0
LINE
  5
146
  8
1
 62
     7
 10
347.11572649301422
 20
-376.36120857547849
 30
0.0
 11
352.11572649301422
 21
-376.36120857547849
 31
0.0
  0
LINE
  5
147
  8
1
 62
     7
 10
352.11572649301422
 20
-376.36120857547849
 30
0.0
 11
352.11572649301422
 21
-378.67875020995967
 31
0.0
  0
LINE
  5
148
  8
1
 62
     7
 10
232.1384893784053
 20
-367.36120857547849
 30
0.0
 11
233.7384893784054
 21
-367.36120857547849
 31
0.0
  0
LINE
  5
149
  8
1
 62
     7
 10
232.1384893784053
 20
-355.36120857547849
 30
0.0
 11
233.7384893784054
 21
-355.36120857547849
 31
0.0
  0
LINE
  5
14A
  8
1
 62
     7
 10
219.13848937840541
 20
-356.18620857547847
 30
0.0
 11
219.6384893784053
 21
-355.68620857547847
 31
0.0
  0
LINE
  5
14B
  8
1
 62
     7
 10
231.63848937840541
 20
-355.68620857547847
 30
0.0
 11
232.1384893784053
 21
-355.9748837100733
 31
0.0
  0
LINE
  5
14C
  8
1
 62
     7
 10
231.63848937840541
 20
-355.68620857547847
 30
0.0
 11
219.6384893784053
 21
-355.68620857547847
 31
0.0
  0
LINE
  5
14D
  8
1
 62
     7
 10
212.7384893784054
 20
-368.86120857547849
 30
0.0
 11
212.7384893784054
 21
-333.36120857547849
 31
0.0
  0
LINE
  5
14E
  8
1
 62
     7
 10
219.6384893784053
 20
-421.03620857547833
 30
0.0
 11
231.63848937840541
 21
-421.03620857547833
 31
0.0
  0
LINE
  5
14F
  8
1
 62
     7
 10
219.13848937840541
 20
-418.36120857547832
 30
0.0
 11
232.1384893784053
 21
-418.36120857547832
 31
0.0
  0
LINE
  5
150
  8
1
 62
     7
 10
232.1384893784053
 20
-421.36120857547849
 30
0.0
 11
233.7384893784054
 21
-421.36120857547849
 31
0.0
  0
LINE
  5
151
  8
1
 62
     7
 10
219.13848937840541
 20
-420.53620857547833
 30
0.0
 11
219.6384893784053
 21
-421.03620857547833
 31
0.0
  0
LINE
  5
152
  8
1
 62
     7
 10
231.63848937840541
 20
-421.03620857547833
 30
0.0
 11
232.1384893784053
 21
-420.74753344088361
 31
0.0
  0
LINE
  5
153
  8
1
 62
     7
 10
89.204995418130395
 20
-334.41179959604119
 30
0.0
 11
89.90499541813044
 21
-334.41179959604119
 31
0.0
  0
LINE
  5
154
  8
1
 62
     7
 10
89.204995418130395
 20
-354.18300534520301
 30
0.0
 11
89.90499541813044
 21
-354.18300534520301
 31
0.0
  0
LINE
  5
155
  8
1
 62
     7
 10
89.204995418130395
 20
-368.03941180575401
 30
0.0
 11
89.90499541813044
 21
-368.03941180575401
 31
0.0
  0
LINE
  5
156
  8
1
 62
     7
 10
89.204995418130395
 20
-377.03941180575401
 30
0.0
 11
89.90499541813044
 21
-377.03941180575401
 31
0.0
  0
LINE
  5
157
  8
1
 62
     7
 10
89.204995418130395
 20
-386.82090503622362
 30
0.0
 11
89.90499541813044
 21
-386.82090503622362
 31
0.0
  0
LINE
  5
158
  8
1
 62
     7
 10
89.204995418130395
 20
-405.70349628242383
 30
0.0
 11
89.90499541813044
 21
-405.70349628242383
 31
0.0
  0
LINE
  5
159
  8
1
 62
     7
 10
89.204995418130395
 20
-424.86120857547849
 30
0.0
 11
89.90499541813044
 21
-424.86120857547849
 31
0.0
  0
LINE
  5
15A
  8
1
 62
     7
 10
89.204995418130395
 20
-435.25293160295502
 30
0.0
 11
89.90499541813044
 21
-435.25293160295502
 31
0.0
  0
LINE
  5
15B
  8
1
 62
     7
 10
89.204995418130395
 20
-442.86120857547849
 30
0.0
 11
89.90499541813044
 21
-442.86120857547849
 31
0.0
  0
LINE
  5
15C
  8
1
 62
     7
 10
97.854995418130201
 20
-429.8612085754782
 30
0.0
 11
102.3549954181304
 21
-429.8612085754782
 31
0.0
  0
LINE
  5
15D
  8
1
 62
     7
 10
102.3549954181304
 20
-337.86120857547849
 30
0.0
 11
92.504995418130406
 21
-337.86120857547849
 31
0.0
  0
LINE
  5
15E
  8
1
 62
     7
 10
95.504995418130392
 20
-348.36120857547849
 30
0.0
 11
95.504995418130392
 21
-337.86120857547849
 31
0.0
  0
LINE
  5
15F
  8
1
 62
     7
 10
93.504995418130392
 20
-347.86120857547849
 30
0.0
 11
93.504995418130392
 21
-337.86120857547849
 31
0.0
  0
LINE
  5
160
  8
1
 62
     7
 10
188.83848937840531
 20
-336.61120857547849
 30
0.0
 11
188.83848937840531
 21
-316.61120857547849
 31
0.0
  0
LINE
  5
161
  8
1
 62
     7
 10
186.83848937840531
 20
-336.61120857547849
 30
0.0
 11
186.83848937840531
 21
-316.61120857547849
 31
0.0
  0
LINE
  5
162
  8
1
 62
     7
 10
186.83848937840531
 20
-316.61120857547849
 30
0.0
 11
188.83848937840531
 21
-316.61120857547849
 31
0.0
  0
LINE
  5
163
  8
1
 62
     7
 10
59.304995418130112
 20
-313.61120857547849
 30
0.0
 11
59.304995418130112
 21
-316.61120857547849
 31
0.0
  0
LINE
  5
164
  8
1
 62
     7
 10
59.604995418130123
 20
-316.61120857547849
 30
0.0
 11
59.604995418130123
 21
-313.61120857547849
 31
0.0
  0
LINE
  5
165
  8
1
 62
     7
 10
59.90499541813012
 20
-313.61120857547849
 30
0.0
 11
59.90499541813012
 21
-316.61120857547849
 31
0.0
  0
LINE
  5
166
  8
1
 62
     7
 10
60.20499541813011
 20
-316.61120857547849
 30
0.0
 11
60.20499541813011
 21
-313.61120857547849
 31
0.0
  0
LINE
  5
167
  8
1
 62
     7
 10
60.504995418130122
 20
-313.61120857547849
 30
0.0
 11
60.504995418130122
 21
-316.61120857547849
 31
0.0
  0
LINE
  5
168
  8
1
 62
     7
 10
60.904995418130127
 20
-336.61120857547849
 30
0.0
 11
60.904995418130127
 21
-316.61120857547849
 31
0.0
  0
LINE
  5
169
  8
1
 62
     7
 10
58.904995418130127
 20
-336.61120857547849
 30
0.0
 11
58.904995418130127
 21
-316.61120857547849
 31
0.0
  0
LINE
  5
16A
  8
1
 62
     7
 10
58.904995418130127
 20
-316.61120857547849
 30
0.0
 11
60.904995418130127
 21
-316.61120857547849
 31
0.0
  0
LINE
  5
16B
  8
1
 62
     7
 10
50.90499541813017
 20
-439.86120857547849
 30
0.0
 11
50.90499541813017
 21
-320.86120857547849
 31
0.0
  0
LINE
  5
16C
  8
1
 62
     7
 10
103.3549954181304
 20
-355.68620857547847
 30
0.0
 11
103.7049954181302
 21
-355.68620857547847
 31
0.0
  0
LINE
  5
16D
  8
1
 62
     7
 10
104.2049954181302
 20
-355.36120857547849
 30
0.0
 11
104.2049954181302
 21
-421.36120857547837
 31
0.0
  0
LINE
  5
16E
  8
1
 62
     7
 10
103.7049954181302
 20
-355.68620857547847
 30
0.0
 11
104.2049954181302
 21
-355.9748837100733
 31
0.0
  0
LINE
  5
16F
  8
1
 62
     7
 10
103.3549954181304
 20
-421.03620857547833
 30
0.0
 11
103.7049954181302
 21
-421.03620857547833
 31
0.0
  0
LINE
  5
170
  8
1
 62
     7
 10
103.7049954181302
 20
-421.03620857547833
 30
0.0
 11
104.2049954181302
 21
-420.74753344088361
 31
0.0
  0
LINE
  5
171
  8
1
 62
     7
 10
350.06572649301421
 20
-316.36120857547849
 30
0.0
 11
350.06572649301421
 21
-313.36120857547849
 31
0.0
  0
LINE
  5
172
  8
1
 62
     7
 10
350.66572649301418
 20
-316.36120857547849
 30
0.0
 11
350.66572649301418
 21
-313.36120857547849
 31
0.0
  0
LINE
  5
173
  8
1
 62
     7
 10
351.2657264930142
 20
-316.36120857547849
 30
0.0
 11
351.2657264930142
 21
-313.36120857547849
 31
0.0
  0
LINE
  5
174
  8
1
 62
     7
 10
348.86572649301422
 20
-316.36120857547849
 30
0.0
 11
348.86572649301422
 21
-313.36120857547849
 31
0.0
  0
LINE
  5
175
  8
1
 62
     7
 10
348.26572649301409
 20
-316.36120857547849
 30
0.0
 11
348.26572649301409
 21
-313.36120857547849
 31
0.0
  0
LINE
  5
176
  8
1
 62
     7
 10
347.61572649301422
 20
-316.36120857547849
 30
0.0
 11
349.61572649301422
 21
-316.36120857547849
 31
0.0
  0
LINE
  5
177
  8
1
 62
     7
 10
347.61572649301422
 20
-316.36120857547849
 30
0.0
 11
347.61572649301422
 21
-333.39758424083328
 31
0.0
  0
LINE
  5
178
  8
1
 62
     7
 10
351.61572649301422
 20
-316.36120857547849
 30
0.0
 11
351.61572649301422
 21
-333.39758424083328
 31
0.0
  0
ARC
  5
179
  8
1
 62
     7
 10
216.5509972006864
 20
-339.96120857547851
 30
0.0
 40
1.600000000000023
 50
90.0
 51
163.80864836138329
  0
ARC
  5
17A
  8
1
 62
     7
 10
216.5509972006864
 20
-345.76120857547818
 30
0.0
 40
1.5999999999999821
 50
196.19135163861841
 51
270.0
  0
ARC
  5
17B
  8
1
 62
     7
 10
217.53848937840539
 20
-338.66120857547838
 30
0.0
 40
0.3000000000000114
 50
0.0
 51
90.0
  0
ARC
  5
17C
  8
1
 62
     7
 10
217.53848937840539
 20
-347.06120857547847
 30
0.0
 40
0.3000000000000114
 50
270.0
 51
0.0
  0
ARC
  5
17D
  8
1
  6
DASHDOT
 62
     3
 10
349.61572649301422
 20
-388.36120857547849
 30
0.0
 40
25.000000000000139
 50
139.3561201602989
 51
160.92739332469
  0
ARC
  5
17E
  8
1
  6
DASHDOT
 62
     3
 10
349.61572649301422
 20
-388.36120857547849
 30
0.0
 40
25.000000000000089
 50
19.356120160298691
 51
40.927393324690179
  0
ARC
  5
17F
  8
1
 62
     7
 10
371.90690604424782
 20
-403.25175303210119
 30
0.0
 40
1.4874999999999461
 50
59.999999999997307
 51
150.00000000000509
  0
ARC
  5
180
  8
1
 62
     7
 10
368.87581713100229
 20
-401.50175303210119
 30
0.0
 40
1.4875000000000731
 50
329.99999999999761
 51
59.999999999997307
  0
ARC
  5
181
  8
1
 62
     7
 10
370.62581713100229
 20
-398.47066411885561
 30
0.0
 40
1.487500000000016
 50
240.00000000000139
 51
330.00000000000131
  0
ARC
  5
182
  8
1
 62
     7
 10
373.65690604424782
 20
-400.22066411885561
 30
0.0
 40
1.4875000000000449
 50
149.99999999999949
 51
239.9999999999975
  0
ARC
  5
183
  8
1
 62
     7
 10
325.57454694178051
 20
-400.22066411885561
 30
0.0
 40
1.487500000000016
 50
299.99999999999858
 51
30.000000000002689
  0
ARC
  5
184
  8
1
 62
     7
 10
328.60563585502598
 20
-398.47066411885561
 30
0.0
 40
1.4874999999999181
 50
210.0000000000008
 51
300.00000000000051
  0
ARC
  5
185
  8
1
 62
     7
 10
330.35563585502598
 20
-401.50175303210119
 30
0.0
 40
1.4874999999999181
 50
120.0000000000008
 51
210.0000000000027
  0
ARC
  5
186
  8
1
 62
     7
 10
327.32454694178051
 20
-403.25175303210119
 30
0.0
 40
1.4874999999999181
 50
30.000000000000789
 51
120.0000000000027
  0
ARC
  5
187
  8
1
  6
DASHDOT
 62
     3
 10
349.61572649301422
 20
-388.36120857547849
 30
0.0
 40
25.000000000000011
 50
259.35612016029881
 51
280.92739332469012
  0
ARC
  5
188
  8
1
 62
     7
 10
351.36572649301422
 20
-361.61120857547849
 30
0.0
 40
1.48750000000001
 50
180.0
 51
270.0
  0
ARC
  5
189
  8
1
 62
     7
 10
351.36572649301422
 20
-365.11120857547849
 30
0.0
 40
1.48750000000001
 50
90.0
 51
180.0
  0
ARC
  5
18A
  8
1
 62
     7
 10
347.86572649301422
 20
-365.11120857547849
 30
0.0
 40
1.4874999999999541
 50
0.0
 51
90.0
  0
ARC
  5
18B
  8
1
 62
     7
 10
347.86572649301422
 20
-361.61120857547849
 30
0.0
 40
1.48750000000001
 50
270.0
 51
0.0
  0
ARC
  5
18C
  8
1
 62
     7
 10
226.5384893784055
 20
-342.86120857547849
 30
0.0
 40
11.99999999999998
 50
163.80864836138329
 51
196.191351638616
  0
ARC
  5
18D
  8
1
 62
     7
 10
349.61572649301422
 20
-388.36120857547849
 30
0.0
 40
67.5
 50
40.273892940010171
 51
49.726107059989907
  0
ARC
  5
18E
  8
1
  6
DASHDOT
 62
     3
 10
349.61572649301422
 20
-388.36120857547849
 30
0.0
 40
60.000000000000107
 50
39.575598156564823
 51
49.721337186015113
  0
ARC
  5
18F
  8
1
 62
     7
 10
349.61572649301422
 20
-388.36120857547849
 30
0.0
 40
10.000000000000149
 50
104.4775121859296
 51
75.522487814070303
  0
ARC
  5
190
  8
1
 62
     7
 10
349.61572649301422
 20
-347.86120857547849
 30
0.0
 40
10.0
 50
90.0
 51
167.19967386887311
  0
ARC
  5
191
  8
1
 62
     7
 10
349.61572649301422
 20
-347.86120857547849
 30
0.0
 40
9.9999999999999538
 50
12.800326131126919
 51
90.0
  0
ARC
  5
192
  8
1
 62
     7
 10
333.8521832236363
 20
-345.11469958387858
 30
0.0
 40
6.0354636196220559
 50
292.32460407764859
 51
345.28005195254889
  0
ARC
  5
193
  8
1
 62
     7
 10
349.61572649301422
 20
-347.86120857547849
 30
0.0
 40
10.0
 50
167.19967386887311
 51
173.0332704641059
  0
ARC
  5
194
  8
1
 62
     7
 10
365.37926976239208
 20
-345.11469958387858
 30
0.0
 40
6.0354636196218241
 50
194.71994804745111
 51
247.67539592235289
  0
ARC
  5
195
  8
1
 62
     7
 10
349.61572649301422
 20
-347.86120857547849
 30
0.0
 40
10.00000000000003
 50
6.9667295358941157
 51
12.800326131126919
  0
ARC
  5
196
  8
1
 62
     7
 10
349.61572649301422
 20
-347.86120857547849
 30
0.0
 40
9.9999999999999538
 50
12.800326131126919
 51
90.0
  0
ARC
  5
197
  8
1
 62
     7
 10
314.54169763974431
 20
-408.61120857547849
 30
0.0
 40
10.000000000000091
 50
132.80032613112601
 51
209.99999999999989
  0
ARC
  5
198
  8
1
 62
     7
 10
314.54169763974431
 20
-408.61120857547849
 30
0.0
 40
10.00000000000011
 50
126.96672953589319
 51
132.80032613112601
  0
ARC
  5
199
  8
1
 62
     7
 10
304.28137944660762
 20
-396.33283414634172
 30
0.0
 40
6.0354636196219502
 50
314.71994804745032
 51
7.6753959223503481
  0
ARC
  5
19A
  8
1
 62
     7
 10
314.5416976397434
 20
-408.61120857547888
 30
0.0
 40
9.9999999999998597
 50
287.1996738688805
 51
293.03327046411312
  0
ARC
  5
19B
  8
1
 62
     7
 10
320.04492271598559
 20
-423.63609199621487
 30
0.0
 40
6.0354636196220044
 50
52.324604077650392
 51
105.280051952549
  0
ARC
  5
19C
  8
1
 62
     7
 10
314.54169763974431
 20
-408.61120857547849
 30
0.0
 40
10.000000000000091
 50
132.80032613112601
 51
209.99999999999989
  0
ARC
  5
19D
  8
1
 62
     7
 10
314.54169763974431
 20
-408.61120857547849
 30
0.0
 40
10.00000000000003
 50
209.99999999999989
 51
287.19967386887407
  0
ARC
  5
19E
  8
1
 62
     7
 10
384.68975534628402
 20
-408.61120857547849
 30
0.0
 40
9.9999999999999378
 50
252.8003261311257
 51
329.99999999999977
  0
ARC
  5
19F
  8
1
 62
     7
 10
384.68975534628402
 20
-408.61120857547849
 30
0.0
 40
9.9999999999999805
 50
246.96672953589291
 51
252.8003261311257
  0
ARC
  5
1A0
  8
1
 62
     7
 10
379.18653027004268
 20
-423.63609199621487
 30
0.0
 40
6.0354636196219573
 50
74.71994804745124
 51
127.6753959223503
  0
ARC
  5
1A1
  8
1
 62
     7
 10
384.68975534628402
 20
-408.61120857547849
 30
0.0
 40
9.9999999999999396
 50
47.199673868874463
 51
53.033270464105733
  0
ARC
  5
1A2
  8
1
 62
     7
 10
394.95007353942071
 20
-396.33283414634201
 30
0.0
 40
6.0354636196219378
 50
172.3246040776485
 51
225.28005195255031
  0
ARC
  5
1A3
  8
1
 62
     7
 10
384.68975534628402
 20
-408.61120857547849
 30
0.0
 40
9.9999999999999378
 50
252.8003261311257
 51
329.99999999999977
  0
ARC
  5
1A4
  8
1
 62
     7
 10
384.68975534628402
 20
-408.61120857547849
 30
0.0
 40
9.9999999999999361
 50
329.99999999999977
 51
47.199673868874463
  0
ARC
  5
1A5
  8
1
 62
     7
 10
349.61572649301422
 20
-388.36120857547849
 30
0.0
 40
50.500000000000142
 50
105.0
 51
210.0
  0
ARC
  5
1A6
  8
1
 62
     7
 10
349.61572649301422
 20
-388.36120857547849
 30
0.0
 40
50.5
 50
345.0
 51
90.0
  0
ARC
  5
1A7
  8
1
 62
     7
 10
349.61572649301422
 20
-388.36120857547849
 30
0.0
 40
50.499999999999972
 50
224.99999999999989
 51
329.99999999999977
  0
ARC
  5
1A8
  8
1
 62
     7
 10
379.55267155633658
 20
-361.54582347620777
 30
0.0
 40
1.309710543032873
 50
317.44159073246152
 51
43.150461340583348
  0
ARC
  5
1A9
  8
1
 62
     7
 10
349.61572649301422
 20
-388.36120857547849
 30
0.0
 40
41.500000000000007
 50
41.892704727840837
 51
75.203244387776465
  0
ARC
  5
1AA
  8
1
 62
     7
 10
349.61572649301422
 20
-388.36120857547849
 30
0.0
 40
41.499999999999929
 50
161.8927047278406
 51
195.2032443877761
  0
ARC
  5
1AB
  8
1
 62
     7
 10
311.42444925312191
 20
-375.84274618857711
 30
0.0
 40
1.3097105430328391
 50
77.441590732460966
 51
163.1504613405871
  0
ARC
  5
1AC
  8
1
 62
     7
 10
314.54169763974431
 20
-408.61120857547849
 30
0.0
 40
10.00000000000011
 50
126.96672953589319
 51
132.80032613112601
  0
ARC
  5
1AD
  8
1
 62
     7
 10
304.28137944660762
 20
-396.33283414634172
 30
0.0
 40
6.0354636196219502
 50
314.71994804745032
 51
7.6753959223503481
  0
ARC
  5
1AE
  8
1
 62
     7
 10
349.61572649301422
 20
-388.36120857547849
 30
0.0
 40
41.499999999999893
 50
281.89270472784068
 51
315.20324438777629
  0
ARC
  5
1AF
  8
1
 62
     7
 10
357.8700586695839
 20
-427.69505606165012
 30
0.0
 40
1.309710543032885
 50
197.44159073246229
 51
283.15046134058713
  0
ARC
  5
1B0
  8
1
 62
     7
 10
384.68975534628402
 20
-408.61120857547849
 30
0.0
 40
9.9999999999999805
 50
246.96672953589291
 51
252.8003261311257
  0
ARC
  5
1B1
  8
1
 62
     7
 10
379.18653027004268
 20
-423.63609199621487
 30
0.0
 40
6.0354636196219573
 50
74.71994804745124
 51
127.6753959223503
  0
ARC
  5
1B2
  8
1
 62
     7
 10
349.61572649301422
 20
-388.36120857547849
 30
0.0
 40
55.0
 50
0.0
 51
180.0
  0
ARC
  5
1B3
  8
1
 62
     7
 10
349.61572649301422
 20
-388.36120857547849
 30
0.0
 40
55.0
 50
180.0
 51
0.0
  0
ARC
  5
1B4
  8
1
 62
     7
 10
349.61572649301422
 20
-388.36120857547849
 30
0.0
 40
67.500000000000071
 50
130.27389294001009
 51
139.72610705998991
  0
ARC
  5
1B5
  8
1
  6
DASHDOT
 62
     3
 10
349.61572649301422
 20
-388.36120857547849
 30
0.0
 40
60.0
 50
129.57559815656469
 51
139.72133718601501
  0
ARC
  5
1B6
  8
1
 62
     7
 10
349.61572649301422
 20
-388.36120857547849
 30
0.0
 40
67.500000000000043
 50
220.27389294001031
 51
229.72610705998991
  0
ARC
  5
1B7
  8
1
  6
DASHDOT
 62
     3
 10
349.61572649301422
 20
-388.36120857547849
 30
0.0
 40
60.000000000000071
 50
219.57559815656489
 51
229.72133718601521
  0
ARC
  5
1B8
  8
1
 62
     7
 10
349.61572649301422
 20
-388.36120857547849
 30
0.0
 40
67.500000000000099
 50
310.27389294001011
 51
319.72610705998977
  0
ARC
  5
1B9
  8
1
  6
DASHDOT
 62
     3
 10
349.61572649301422
 20
-388.36120857547849
 30
0.0
 40
60.000000000000107
 50
309.57559815656481
 51
319.72133718601509
  0
CIRCLE
  5
1BA
  8
1
 62
     3
 10
327.96509139840322
 20
-375.86120857547849
 30
0.0
 40
2.499999999999885
  0
CIRCLE
  5
1BB
  8
1
 62
     7
 10
327.96509139840322
 20
-375.86120857547849
 30
0.0
 40
1.9000000000000901
  0
CIRCLE
  5
1BC
  8
1
 62
     7
 10
327.96509139840322
 20
-375.86120857547849
 30
0.0
 40
3.0
  0
CIRCLE
  5
1BD
  8
1
 62
     3
 10
371.26636158762523
 20
-375.86120857547849
 30
0.0
 40
2.5
  0
CIRCLE
  5
1BE
  8
1
 62
     7
 10
371.26636158762523
 20
-375.86120857547849
 30
0.0
 40
1.8999999999999759
  0
CIRCLE
  5
1BF
  8
1
 62
     7
 10
371.26636158762523
 20
-375.86120857547849
 30
0.0
 40
3.0
  0
CIRCLE
  5
1C0
  8
1
 62
     7
 10
371.26636158762511
 20
-400.86120857547849
 30
0.0
 40
3.0
  0
CIRCLE
  5
1C1
  8
1
 62
     7
 10
327.96509139840327
 20
-400.86120857547849
 30
0.0
 40
2.9999999999999432
  0
CIRCLE
  5
1C2
  8
1
 62
     3
 10
349.61572649301422
 20
-413.36120857547849
 30
0.0
 40
2.5
  0
CIRCLE
  5
1C3
  8
1
 62
     7
 10
349.61572649301422
 20
-413.36120857547849
 30
0.0
 40
1.8999999999999759
  0
CIRCLE
  5
1C4
  8
1
 62
     7
 10
349.61572649301422
 20
-413.36120857547849
 30
0.0
 40
3.0
  0
CIRCLE
  5
1C5
  8
1
 62
     7
 10
349.61572649301422
 20
-363.36120857547849
 30
0.0
 40
3.0
  0
CIRCLE
  5
1C6
  8
1
 62
     7
 10
392.04213336420702
 20
-345.93480170428552
 30
0.0
 40
2.25
  0
CIRCLE
  5
1C7
  8
1
 62
     7
 10
349.61572649301422
 20
-388.36120857547849
 30
0.0
 40
21.0
  0
CIRCLE
  5
1C8
  8
1
 62
     7
 10
349.61572649301422
 20
-388.36120857547849
 30
0.0
 40
33.0
  0
CIRCLE
  5
1C9
  8
1
 62
     7
 10
349.61572649301422
 20
-388.36120857547849
 30
0.0
 40
40.0
  0
CIRCLE
  5
1CA
  8
1
 62
     7
 10
349.61572649301422
 20
-342.86120857547849
 30
0.0
 40
2.5
  0
CIRCLE
  5
1CB
  8
1
 62
     7
 10
349.61572649301422
 20
-342.86120857547849
 30
0.0
 40
1.5
  0
CIRCLE
  5
1CC
  8
1
 62
     7
 10
310.2115706208221
 20
-411.11120857547849
 30
0.0
 40
1.500000000000056
  0
CIRCLE
  5
1CD
  8
1
 62
     7
 10
310.2115706208221
 20
-411.11120857547849
 30
0.0
 40
2.5
  0
CIRCLE
  5
1CE
  8
1
 62
     7
 10
389.01988236520617
 20
-411.11120857547849
 30
0.0
 40
1.5
  0
CIRCLE
  5
1CF
  8
1
 62
     7
 10
389.01988236520617
 20
-411.11120857547849
 30
0.0
 40
2.5
  0
CIRCLE
  5
1D0
  8
1
 62
     7
 10
307.1893196218212
 20
-345.93480170428558
 30
0.0
 40
2.25
  0
CIRCLE
  5
1D1
  8
1
 62
     7
 10
307.18931962182148
 20
-430.78761544667151
 30
0.0
 40
2.25
  0
CIRCLE
  5
1D2
  8
1
 62
     7
 10
392.04213336420707
 20
-430.78761544667123
 30
0.0
 40
2.25
  0
ARC
  5
1D3
  8
1
 62
     7
 10
223.93848937840551
 20
-423.03620857547838
 30
0.0
 40
1.0
 50
90.0
 51
180.0
  0
ARC
  5
1D4
  8
1
 62
     7
 10
223.93848937840551
 20
-423.03620857547838
 30
0.0
 40
2.0
 50
90.0
 51
180.0
  0
ARC
  5
1D5
  8
1
 62
     7
 10
220.93848937840551
 20
-425.36120857547837
 30
0.0
 40
2.0
 50
270.0
 51
0.0
  0
ARC
  5
1D6
  8
1
 62
     7
 10
220.93848937840551
 20
-425.36120857547837
 30
0.0
 40
1.0
 50
270.0
 51
0.0
  0
ARC
  5
1D7
  8
1
 62
     7
 10
223.93848937840551
 20
-353.68620857547847
 30
0.0
 40
2.0
 50
180.0
 51
270.0
  0
ARC
  5
1D8
  8
1
 62
     7
 10
223.93848937840551
 20
-353.68620857547847
 30
0.0
 40
1.0
 50
180.0
 51
270.0
  0
ARC
  5
1D9
  8
1
 62
     7
 10
220.93848937840551
 20
-351.36120857547849
 30
0.0
 40
2.0
 50
0.0
 51
90.0
  0
ARC
  5
1DA
  8
1
 62
     7
 10
220.93848937840551
 20
-351.36120857547849
 30
0.0
 40
1.0
 50
0.0
 51
90.0
  0
ARC
  5
1DB
  8
1
 62
     7
 10
93.004995418130392
 20
-425.3612085754782
 30
0.0
 40
2.0
 50
270.0
 51
0.0
  0
TEXT
  5
1DD
  8
1
 62
     7
 10
63.774548459689591
 20
-274.38076294858593
 30
0.0
 40
5.0
  1
MSB2.5
 41
0.9
  7
SIMPLEX
  0
ENDSEC
  0
EOF
