  0
SECTION
  2
HEADER
  9
$ACADVER
  1
AC1009
  9
$INSBASE
 10
0.0
 20
0.0
 30
0.0
  9
$EXTMIN
 10
-3.3754308348134141
 20
-708.7996787007703
 30
0.0
  9
$EXTMAX
 10
807.27913700643467
 20
-308.08269467374288
 30
0.0
  9
$LIMMIN
 10
-3.3754308348134141
 20
-707.90911954166813
  9
$LIMMAX
 10
807.27913700643467
 20
-308.08269467374288
  9
$ORTHOMODE
 70
     0
  9
$REGENMODE
 70
     1
  9
$FILLMODE
 70
     1
  9
$QTEXTMODE
 70
     0
  9
$MIRRTEXT
 70
     1
  9
$DRAGMODE
 70
     2
  9
$LTSCALE
 40
1.0
  9
$OSMODE
 70
    37
  9
$ATTMODE
 70
     1
  9
$TEXTSIZE
 40
3.5
  9
$TRACEWID
 40
0.5
  9
$TEXTSTYLE
  7
STANDARD
  9
$CLAYER
  8
0
  9
$CELTYPE
  6
BYLAYER
  9
$CECOLOR
 62
   256
  9
$DIMSCALE
 40
1.0
  9
$DIMASZ
 40
0.18
  9
$DIMEXO
 40
0.0625
  9
$DIMDLI
 40
0.38
  9
$DIMRND
 40
0.0
  9
$DIMDLE
 40
0.0
  9
$DIMEXE
 40
0.18
  9
$DIMTP
 40
0.0
  9
$DIMTM
 40
0.0
  9
$DIMTXT
 40
0.18
  9
$DIMCEN
 40
0.09
  9
$DIMTSZ
 40
0.0
  9
$DIMTOL
 70
     0
  9
$DIMLIM
 70
     0
  9
$DIMTIH
 70
     1
  9
$DIMTOH
 70
     1
  9
$DIMSE1
 70
     0
  9
$DIMSE2
 70
     0
  9
$DIMTAD
 70
     0
  9
$DIMZIN
 70
     0
  9
$DIMBLK
  1

  9
$DIMASO
 70
     1
  9
$DIMSHO
 70
     1
  9
$DIMPOST
  1

  9
$DIMAPOST
  1

  9
$DIMALT
 70
     0
  9
$DIMALTD
 70
     2
  9
$DIMALTF
 40
25.399999999999999
  9
$DIMLFAC
 40
1.0
  9
$DIMTOFL
 70
     0
  9
$DIMTVP
 40
0.0
  9
$DIMTIX
 70
     0
  9
$DIMSOXD
 70
     0
  9
$DIMSAH
 70
     0
  9
$DIMBLK1
  1

  9
$DIMBLK2
  1

  9
$DIMSTYLE
  2
STANDARD
  9
$DIMCLRD
 70
     0
  9
$DIMCLRE
 70
     0
  9
$DIMCLRT
 70
     0
  9
$DIMTFAC
 40
1.0
  9
$DIMGAP
 40
0.09
  9
$LUNITS
 70
     2
  9
$LUPREC
 70
     4
  9
$SKETCHINC
 40
0.1
  9
$FILLETRAD
 40
2.0
  9
$AUNITS
 70
     0
  9
$AUPREC
 70
     0
  9
$MENU
  1
ACAD
  9
$ELEVATION
 40
0.0
  9
$PELEVATION
 40
0.0
  9
$THICKNESS
 40
0.0
  9
$LIMCHECK
 70
     0
  9
$BLIPMODE
 70
     0
  9
$CHAMFERA
 40
0.0
  9
$CHAMFERB
 40
0.0
  9
$SKPOLY
 70
     0
  9
$TDCREATE
 40
2452094.7547010412
  9
$TDUPDATE
 40
2452094.7559540509
  9
$TDINDWG
 40
0.0012555556
  9
$TDUSRTIMER
 40
0.0012555556
  9
$USRTIMER
 70
     1
  9
$ANGBASE
 50
0.0
  9
$ANGDIR
 70
     0
  9
$PDMODE
 70
     0
  9
$PDSIZE
 40
0.0
  9
$PLINEWID
 40
0.0
  9
$COORDS
 70
     1
  9
$SPLFRAME
 70
     0
  9
$SPLINETYPE
 70
     6
  9
$SPLINESEGS
 70
     8
  9
$ATTDIA
 70
     0
  9
$ATTREQ
 70
     1
  9
$HANDLING
 70
 10241
  9
$HANDSEED
  5
236
  9
$SURFTAB1
 70
     6
  9
$SURFTAB2
 70
     6
  9
$SURFTYPE
 70
     6
  9
$SURFU
 70
     6
  9
$SURFV
 70
     6
  9
$UCSNAME
  2

  9
$UCSORG
 10
0.0
 20
0.0
 30
0.0
  9
$UCSXDIR
 10
1.0
 20
0.0
 30
0.0
  9
$UCSYDIR
 10
0.0
 20
1.0
 30
0.0
  9
$PUCSNAME
  2

  9
$PUCSORG
 10
0.0
 20
0.0
 30
0.0
  9
$PUCSXDIR
 10
1.0
 20
0.0
 30
0.0
  9
$PUCSYDIR
 10
0.0
 20
1.0
 30
0.0
  9
$USERI1
 70
     0
  9
$USERI2
 70
     0
  9
$USERI3
 70
     0
  9
$USERI4
 70
     0
  9
$USERI5
 70
     0
  9
$USERR1
 40
0.0
  9
$USERR2
 40
0.0
  9
$USERR3
 40
0.0
  9
$USERR4
 40
0.0
  9
$USERR5
 40
0.0
  9
$WORLDVIEW
 70
     1
  9
$SHADEDGE
 70
     3
  9
$SHADEDIF
 70
    70
  9
$TILEMODE
 70
     1
  9
$MAXACTVP
 70
    64
  9
$PLIMCHECK
 70
     0
  9
$PEXTMIN
 10
1.0000000000000000E+020
 20
1.0000000000000000E+020
 30
1.0000000000000000E+020
  9
$PEXTMAX
 10
-1.0000000000000000E+020
 20
-1.0000000000000000E+020
 30
-1.0000000000000000E+020
  9
$PLIMMIN
 10
0.0
 20
0.0
  9
$PLIMMAX
 10
12.0
 20
9.0
  9
$UNITMODE
 70
     0
  9
$VISRETAIN
 70
     1
  9
$PLINEGEN
 70
     0
  9
$PSLTSCALE
 70
     1
  0
ENDSEC
  0
SECTION
  2
TABLES
  0
TABLE
  2
VPORT
 70
     2
  0
VPORT
  2
*ACTIVE
 70
     0
 10
0.0
 20
0.0
 11
1.0
 21
1.0
 12
18.798802087233518
 22
-330.94722296251177
 13
0.0
 23
0.0
 14
1.0
 24
1.0
 15
0.0
 25
0.0
 16
0.0
 26
0.0
 36
1.0
 17
0.0
 27
0.0
 37
0.0
 40
9.0000004071171134
 41
2.418918918918918
 42
50.0
 43
0.0
 44
0.0
 50
0.0
 51
0.0
 71
     0
 72
   100
 73
     1
 74
     1
 75
     0
 76
     0
 77
     0
 78
     0
  0
ENDTAB
  0
TABLE
  2
LTYPE
 70
     9
  0
LTYPE
  2
CONTINUOUS
 70
     0
  3
Solid line
 72
    65
 73
     0
 40
0.0
  0
LTYPE
  2
BORDER
 70
     0
  3
__ __ . __ __ .
 72
    65
 73
     6
 40
37.33277615058379
 49
10.66650747159537
 49
-5.3332537357976832
 49
10.66650747159537
 49
-5.3332537357976832
 49
0.0
 49
-5.3332537357976832
  0
LTYPE
  2
CENTER
 70
     0
  3
____ _ ____ _
 72
    65
 73
     4
 40
42.666029886381473
 49
26.66626867898842
 49
-5.3332537357976832
 49
5.3332537357976832
 49
-5.3332537357976832
  0
LTYPE
  2
DASHDOT
 70
     0
  3
__ . __ . __ .
 72
    65
 73
     4
 40
21.33301494319074
 49
10.66650747159537
 49
-5.3332537357976832
 49
0.0
 49
-5.3332537357976832
  0
LTYPE
  2
DASHED
 70
     0
  3
__ __ __ __ __
 72
    65
 73
     2
 40
15.99976120739305
 49
10.66650747159537
 49
-5.3332537357976832
  0
LTYPE
  2
DIVIDE
 70
     0
  3
__ . . __ . . 
 72
    65
 73
     6
 40
26.66626867898842
 49
10.66650747159537
 49
-5.3332537357976832
 49
0.0
 49
-5.3332537357976832
 49
0.0
 49
-5.3332537357976832
  0
LTYPE
  2
DOT
 70
     0
  3
..............
 72
    65
 73
     4
 40
10.66650747159537
 49
0.0
 49
-5.3332537357976832
 49
0.0
 49
-5.3332537357976832
  0
LTYPE
  2
HIDDEN
 70
     0
  3
_ _ _ _ _ _ _
 72
    65
 73
     2
 40
7.9998806036965266
 49
5.3332537357976832
 49
-2.6666268678988412
  0
LTYPE
  2
PHANTOM
 70
     0
  3
_____ _ _ _____ _ _ 
 72
    65
 73
     6
 40
53.332537357976847
 49
26.66626867898842
 49
-5.3332537357976832
 49
5.3332537357976832
 49
-5.3332537357976832
 49
5.3332537357976832
 49
-5.3332537357976832
  0
ENDTAB
  0
TABLE
  2
LAYER
 70
     2
  0
LAYER
  2
0
 70
     0
 62
     7
  6
CONTINUOUS
  0
LAYER
  2
1
 70
     0
 62
     7
  6
CONTINUOUS
  0
ENDTAB
  0
TABLE
  2
STYLE
 70
     4
  0
STYLE
  2
STANDARD
 70
     0
 40
0.0
 41
1.0
 50
0.0
 71
     0
 42
3.5
  3
txt
  4

  0
STYLE
  2
SIMPLEX
 70
     0
 40
0.0
 41
1.0
 50
0.0
 71
     0
 42
3.5
  3
simplex
  4

  0
STYLE
  2
COMPLEX
 70
     0
 40
0.0
 41
1.0
 50
0.0
 71
     0
 42
3.5
  3
complex
  4

  0
STYLE
  2
ITALIC
 70
     0
 40
0.0
 41
1.0
 50
0.0
 71
     0
 42
3.5
  3
italic
  4

  0
ENDTAB
  0
TABLE
  2
VIEW
 70
     0
  0
ENDTAB
  0
TABLE
  2
UCS
 70
     0
  0
ENDTAB
  0
TABLE
  2
APPID
 70
     1
  0
APPID
  2
ACAD
 70
     0
  0
ENDTAB
  0
TABLE
  2
DIMSTYLE
 70
     1
  0
DIMSTYLE
  2
STANDARD
 70
     0
  3

  4

  5

  6

  7

 40
1.0
 41
0.18
 42
0.0625
 43
0.38
 44
0.18
 45
0.0
 46
0.0
 47
0.0
 48
0.0
140
0.18
141
0.09
142
0.0
143
25.399999999999999
144
1.0
145
0.0
146
1.0
147
0.09
 71
     0
 72
     0
 73
     1
 74
     1
 75
     0
 76
     0
 77
     0
 78
     0
170
     0
171
     2
172
     0
173
     0
174
     0
175
     0
176
     0
177
     0
178
     0
  0
ENDTAB
  0
ENDSEC
  0
SECTION
  2
BLOCKS
  0
BLOCK
  8
0
  2
$MODEL_SPACE
 70
     0
 10
0.0
 20
0.0
 30
0.0
  3
$MODEL_SPACE
  1

  0
ENDBLK
  5
20
  8
0
  0
BLOCK
 67
     1
  8
0
  2
$PAPER_SPACE
 70
     0
 10
0.0
 20
0.0
 30
0.0
  3
$PAPER_SPACE
  1

  0
ENDBLK
  5
1C
 67
     1
  8
0
  0
ENDSEC
  0
SECTION
  2
ENTITIES
  0
LINE
  5
33
  8
1
 62
     7
 10
353.88199506374491
 20
-669.90911954166813
 30
0.0
 11
353.88199506374491
 21
-699.40911954166791
 31
0.0
  0
LINE
  5
34
  8
1
 62
     7
 10
353.88199506374491
 20
-456.40911954166819
 30
0.0
 11
353.88199506374491
 21
-485.90911954166802
 31
0.0
  0
LINE
  5
35
  8
1
 62
     7
 10
675.27913700643478
 20
-380.75437024742121
 30
0.0
 11
675.27913700643478
 21
-386.75437024742109
 31
0.0
  0
LINE
  5
36
  8
1
 62
     7
 10
677.77913700643467
 20
-386.75437024742109
 30
0.0
 11
677.77913700643467
 21
-380.75437024742121
 31
0.0
  0
LINE
  5
37
  8
1
 62
     7
 10
19.809330137474031
 20
-456.40911954166819
 30
0.0
 11
19.809330137474031
 21
-386.75437024742109
 31
0.0
  0
LINE
  5
38
  8
1
 62
     7
 10
19.809330137474031
 20
-386.75437024742109
 30
0.0
 11
22.409330137474061
 21
-386.75437024742109
 31
0.0
  0
LINE
  5
39
  8
1
 62
     7
 10
22.409330137474061
 20
-386.75437024742109
 30
0.0
 11
22.409330137474061
 21
-456.40911954166819
 31
0.0
  0
LINE
  5
3A
  8
1
 62
     7
 10
20.10933013747405
 20
-380.75437024742121
 30
0.0
 11
20.10933013747405
 21
-386.75437024742109
 31
0.0
  0
LINE
  5
3B
  8
1
 62
     7
 10
20.609330137474039
 20
-386.75437024742109
 30
0.0
 11
20.609330137474039
 21
-380.75437024742121
 31
0.0
  0
LINE
  5
3C
  8
1
 62
     7
 10
21.609330137474039
 20
-380.75437024742121
 30
0.0
 11
21.609330137474039
 21
-386.75437024742109
 31
0.0
  0
LINE
  5
3D
  8
1
 62
     7
 10
22.10933013747405
 20
-386.75437024742109
 30
0.0
 11
22.10933013747405
 21
-380.75437024742121
 31
0.0
  0
LINE
  5
3E
  8
1
 62
     7
 10
21.10933013747405
 20
-380.75437024742121
 30
0.0
 11
21.10933013747405
 21
-386.75437024742109
 31
0.0
  0
LINE
  5
3F
  8
1
 62
     7
 10
404.88199506374491
 20
-661.05724695022104
 30
0.0
 11
406.88199506374502
 21
-659.05724695022104
 31
0.0
  0
LINE
  5
40
  8
1
 62
     7
 10
404.5819950637449
 20
-494.90911954166808
 30
0.0
 11
404.88199506374491
 21
-494.90911954166808
 31
0.0
  0
LINE
  5
41
  8
1
 62
     7
 10
406.88199506374502
 20
-496.90911954166802
 30
0.0
 11
406.88199506374502
 21
-512.80911954166811
 31
0.0
  0
LINE
  5
42
  8
1
 62
     7
 10
404.88199506374491
 20
-494.90911954166808
 30
0.0
 11
406.88199506374502
 21
-496.90911954166802
 31
0.0
  0
LINE
  5
43
  8
1
 62
     7
 10
603.79662295106573
 20
-510.08345973579151
 30
0.0
 11
605.91969500521077
 21
-512.20653178993655
 31
0.0
  0
LINE
  5
44
  8
1
 62
     7
 10
410.18199506374492
 20
-507.90911954166808
 30
0.0
 11
408.18199506374492
 21
-507.90911954166808
 31
0.0
  0
LINE
  5
45
  8
1
 62
     7
 10
410.18199506374492
 20
-647.90911954166813
 30
0.0
 11
408.18199506374492
 21
-647.90911954166813
 31
0.0
  0
LINE
  5
46
  8
1
 62
     7
 10
102.4093301374739
 20
-507.7591195416681
 30
0.0
 11
102.4093301374739
 21
-648.05911954166788
 31
0.0
  0
LINE
  5
47
  8
1
 62
     7
 10
89.809330137474007
 20
-498.90911954166808
 30
0.0
 11
89.809330137474078
 21
-566.90911954166813
 31
0.0
  0
LINE
  5
48
  8
1
 62
     7
 10
83.709330137474083
 20
-496.90911954166802
 30
0.0
 11
83.709330137474083
 21
-478.90911954166808
 31
0.0
  0
LINE
  5
49
  8
1
 62
     7
 10
82.109330137474018
 20
-478.90911954166808
 30
0.0
 11
94.809330137474007
 21
-478.90911954166808
 31
0.0
  0
LINE
  5
4A
  8
1
 62
     7
 10
82.109330137474018
 20
-495.90911954166802
 30
0.0
 11
80.109330137474018
 21
-495.90911954166802
 31
0.0
  0
LINE
  5
4B
  8
1
 62
     7
 10
80.109330137474018
 20
-479.90911954166802
 30
0.0
 11
82.109330137474018
 21
-479.90911954166802
 31
0.0
  0
LINE
  5
4C
  8
1
 62
     7
 10
80.109330137474018
 20
-447.90911954166819
 30
0.0
 11
80.109330137474018
 21
-479.90911954166802
 31
0.0
  0
LINE
  5
4D
  8
1
 62
     7
 10
87.209330137474097
 20
-506.15911954166808
 30
0.0
 11
89.809330137474007
 21
-506.15911954166808
 31
0.0
  0
LINE
  5
4E
  8
1
 62
     7
 10
85.209330137474083
 20
-501.50911954166833
 30
0.0
 11
85.209330137474083
 21
-504.15911954166802
 31
0.0
  0
LINE
  5
4F
  8
1
 62
     7
 10
82.112181245144697
 20
-496.90911954166802
 30
0.0
 11
85.519150042381483
 21
-496.90911954166802
 31
0.0
  0
LINE
  5
50
  8
1
 62
     7
 10
81.513669176870309
 20
-497.9207141273327
 30
0.0
 11
80.109330137474018
 21
-497.9207141273327
 31
0.0
  0
LINE
  5
51
  8
1
 62
     7
 10
61.109330137473997
 20
-447.90911954166819
 30
0.0
 11
70.4093301374741
 21
-447.90911954166819
 31
0.0
  0
LINE
  5
52
  8
1
  6
DASHDOT
 62
     3
 10
104.4093301374739
 20
-577.90911954166813
 30
0.0
 11
109.409330137474
 21
-577.90911954166813
 31
0.0
  0
LINE
  5
53
  8
1
 62
     7
 10
96.809330137474007
 20
-568.90911954166813
 30
0.0
 11
83.709330137473984
 21
-568.90911954166813
 31
0.0
  0
LINE
  5
54
  8
1
 62
     7
 10
83.709330137473984
 20
-568.90911954166813
 30
0.0
 11
83.709330137473984
 21
-586.90911954166813
 31
0.0
  0
LINE
  5
55
  8
1
 62
     7
 10
82.109330137474018
 20
-496.90911954166802
 30
0.0
 11
82.109330137474018
 21
-478.90911954166808
 31
0.0
  0
LINE
  5
56
  8
1
 62
     7
 10
82.109330137474018
 20
-569.90911954166813
 30
0.0
 11
80.109330137474018
 21
-569.90911954166813
 31
0.0
  0
LINE
  5
57
  8
1
 62
     7
 10
86.809330137474021
 20
-504.15911954166802
 30
0.0
 11
83.709330137473984
 21
-568.90911954166813
 31
0.0
  0
LINE
  5
58
  8
1
 62
     7
 10
85.209330137474083
 20
-504.15911954166802
 30
0.0
 11
85.039596297169865
 21
-507.75911954166833
 31
0.0
  0
LINE
  5
59
  8
1
 62
     7
 10
86.809330137474021
 20
-506.11871133589472
 30
0.0
 11
86.809330137474021
 21
-568.90911954166813
 31
0.0
  0
LINE
  5
5A
  8
1
 62
     7
 10
85.186565164028906
 20
-538.29066980827906
 30
0.0
 11
85.186565164028906
 21
-568.90911954166813
 31
0.0
  0
LINE
  5
5B
  8
1
 62
     7
 10
96.809330137474007
 20
-557.90911954166813
 30
0.0
 11
89.809330137474078
 21
-557.90911954166813
 31
0.0
  0
LINE
  5
5C
  8
1
 62
     7
 10
83.709330137474083
 20
-658.90911954166813
 30
0.0
 11
87.809330137474021
 21
-658.90911954166813
 31
0.0
  0
LINE
  5
5D
  8
1
 62
     7
 10
83.709330137474083
 20
-676.90911954166813
 30
0.0
 11
83.709330137474083
 21
-658.90911954166813
 31
0.0
  0
LINE
  5
5E
  8
1
 62
     7
 10
101.109330137474
 20
-658.90911954166813
 30
0.0
 11
101.109330137474
 21
-496.90911954166802
 31
0.0
  0
LINE
  5
5F
  8
1
 62
     7
 10
80.109330137474018
 20
-659.90911954166813
 30
0.0
 11
82.109330137474018
 21
-659.90911954166813
 31
0.0
  0
LINE
  5
60
  8
1
 62
     7
 10
82.109330137474018
 20
-675.90911954166813
 30
0.0
 11
80.109330137474018
 21
-675.90911954166813
 31
0.0
  0
LINE
  5
61
  8
1
 62
     7
 10
70.409330137474186
 20
-707.90911954166791
 30
0.0
 11
70.4093301374741
 21
-447.90911954166819
 31
0.0
  0
LINE
  5
62
  8
1
 62
     7
 10
80.109330137474018
 20
-707.90911954166791
 30
0.0
 11
80.109330137474018
 21
-507.75911954166833
 31
0.0
  0
LINE
  5
63
  8
1
 62
     7
 10
80.109330137474018
 20
-657.89752495600351
 30
0.0
 11
82.109330137474018
 21
-657.89752495600351
 31
0.0
  0
LINE
  5
64
  8
1
 62
     7
 10
61.109330137474117
 20
-707.90911954166791
 30
0.0
 11
61.109330137473997
 21
-447.90911954166819
 31
0.0
  0
LINE
  5
65
  8
1
 62
     7
 10
70.409330137474186
 20
-707.90911954166791
 30
0.0
 11
61.109330137474117
 21
-707.90911954166791
 31
0.0
  0
LINE
  5
66
  8
1
 62
     7
 10
82.109330137474018
 20
-676.90911954166813
 30
0.0
 11
82.109330137474018
 21
-658.90911954166813
 31
0.0
  0
LINE
  5
67
  8
1
 62
     7
 10
80.109330137474018
 20
-585.90911954166813
 30
0.0
 11
82.109330137474018
 21
-585.90911954166813
 31
0.0
  0
LINE
  5
68
  8
1
 62
     7
 10
85.186565164028906
 20
-676.90911954166813
 30
0.0
 11
85.186565164028906
 21
-627.45750663844126
 31
0.0
  0
LINE
  5
69
  8
1
 62
     7
 10
94.809330137474007
 20
-676.90911954166813
 30
0.0
 11
82.109330137474018
 21
-676.90911954166813
 31
0.0
  0
LINE
  5
6A
  8
1
 62
     7
 10
86.809330137474021
 20
-586.90911954166813
 30
0.0
 11
86.809330137474021
 21
-593.90911954166813
 31
0.0
  0
LINE
  5
6B
  8
1
 62
     7
 10
85.186565164028906
 20
-586.90911954166813
 30
0.0
 11
85.186565164028906
 21
-593.90911954166813
 31
0.0
  0
LINE
  5
6C
  8
1
 62
     7
 10
96.809330137474007
 20
-597.90911954166813
 30
0.0
 11
89.809330137474078
 21
-597.90911954166813
 31
0.0
  0
LINE
  5
6D
  8
1
 62
     7
 10
82.109330137474018
 20
-586.90911954166813
 30
0.0
 11
82.109330137474018
 21
-569.90911954166813
 31
0.0
  0
LINE
  5
6E
  8
1
 62
     7
 10
86.809330137474021
 20
-593.90911954166813
 30
0.0
 11
85.186565164028906
 21
-593.90911954166813
 31
0.0
  0
LINE
  5
6F
  8
1
 62
     7
 10
86.809330137474021
 20
-593.90911954166813
 30
0.0
 11
85.209330137474083
 21
-627.45750663844126
 31
0.0
  0
LINE
  5
70
  8
1
 62
     7
 10
82.112181245144697
 20
-658.90911954166813
 30
0.0
 11
82.62536686852772
 21
-648.05911954166788
 31
0.0
  0
LINE
  5
71
  8
1
 62
     7
 10
85.186565164028906
 20
-649.65911954166813
 30
0.0
 11
89.809330137474078
 21
-649.65911954166813
 31
0.0
  0
LINE
  5
72
  8
1
 62
     7
 10
85.209330137474083
 20
-627.45750663844126
 30
0.0
 11
83.709330137474083
 21
-658.90911954166813
 31
0.0
  0
LINE
  5
73
  8
1
 62
     7
 10
81.299621371612204
 20
-657.89752495600351
 30
0.0
 11
81.513669176870309
 21
-657.89752495600351
 31
0.0
  0
LINE
  5
74
  8
1
 62
     7
 10
80.109330137474018
 20
-507.75911954166833
 30
0.0
 11
85.039596297169865
 21
-507.75911954166833
 31
0.0
  0
LINE
  5
75
  8
1
 62
     7
 10
80.109330137474018
 20
-507.75911954166833
 30
0.0
 11
80.109330137474018
 21
-479.90911954166802
 31
0.0
  0
LINE
  5
76
  8
1
 62
     7
 10
85.039596297169865
 20
-507.75911954166833
 30
0.0
 11
82.109330137474018
 21
-569.90911954166813
 31
0.0
  0
LINE
  5
77
  8
1
 62
     7
 10
80.109330137474018
 20
-648.05911954166788
 30
0.0
 11
82.62536686852772
 21
-648.05911954166788
 31
0.0
  0
LINE
  5
78
  8
1
 62
     7
 10
82.62536686852772
 20
-648.05911954166788
 30
0.0
 11
85.186565164028906
 21
-593.90911954166813
 31
0.0
  0
LINE
  5
79
  8
1
 62
     7
 10
88.00160181576021
 20
-478.90911954166808
 30
0.0
 11
86.809330137474021
 21
-503.32896594706932
 31
0.0
  0
LINE
  5
7A
  8
1
 62
     7
 10
86.399824434051993
 20
-478.90911954166808
 30
0.0
 11
85.209330137474083
 21
-503.24149202925167
 31
0.0
  0
LINE
  5
7B
  8
1
 62
     7
 10
86.814976439528522
 20
-503.21331962967241
 30
0.0
 11
86.809330137474021
 21
-504.15911954166802
 31
0.0
  0
LINE
  5
7C
  8
1
 62
     7
 10
87.122771955290503
 20
-496.90911954166802
 30
0.0
 11
87.809330137474021
 21
-496.90911954166802
 31
0.0
  0
LINE
  5
7D
  8
1
 62
     7
 10
96.809330137474007
 20
-586.90911954166813
 30
0.0
 11
82.109330137474018
 21
-586.90911954166813
 31
0.0
  0
LINE
  5
7E
  8
1
 62
     7
 10
382.48199506374488
 20
-670.90911954166813
 30
0.0
 11
385.88199506374491
 21
-670.90911954166813
 31
0.0
  0
LINE
  5
7F
  8
1
 62
     7
 10
390.95923009029991
 20
-499.90911954166808
 30
0.0
 11
392.5819950637449
 21
-499.90911954166808
 31
0.0
  0
LINE
  5
80
  8
1
 62
     7
 10
385.88199506374491
 20
-500.40911954166802
 30
0.0
 11
382.48199506374488
 21
-500.40911954166802
 31
0.0
  0
LINE
  5
81
  8
1
 62
     7
 10
383.88199506374491
 20
-648.05911954166811
 30
0.0
 11
382.88199506374491
 21
-647.059119541668
 31
0.0
  0
LINE
  5
82
  8
1
 62
     7
 10
385.88199506374491
 20
-705.60911954166795
 30
0.0
 11
384.48199506374488
 21
-705.60911954166795
 31
0.0
  0
LINE
  5
83
  8
1
 62
     7
 10
385.88199506374491
 20
-677.90911954166813
 30
0.0
 11
382.48199506374488
 21
-677.90911954166813
 31
0.0
  0
LINE
  5
84
  8
1
 62
     7
 10
385.88199506374491
 20
-655.40911954166813
 30
0.0
 11
382.48199506374488
 21
-655.20911954166797
 31
0.0
  0
LINE
  5
85
  8
1
 62
     7
 10
406.88199506374502
 20
-643.00911954166816
 30
0.0
 11
406.88199506374502
 21
-659.05724695022104
 31
0.0
  0
LINE
  5
86
  8
1
 62
     7
 10
397.5819950637449
 20
-504.90911954166802
 30
0.0
 11
397.5819950637449
 21
-512.80911954166811
 31
0.0
  0
LINE
  5
87
  8
1
 62
     7
 10
395.5819950637449
 20
-498.90911954166808
 30
0.0
 11
395.5819950637449
 21
-502.90911954166808
 31
0.0
  0
LINE
  5
88
  8
1
 62
     7
 10
393.5819950637449
 20
-496.90911954166802
 30
0.0
 11
387.88484617141557
 21
-496.90911954166802
 31
0.0
  0
LINE
  5
89
  8
1
 62
     7
 10
387.88199506374491
 20
-478.90911954166808
 30
0.0
 11
389.48199506374499
 21
-478.90911954166808
 31
0.0
  0
LINE
  5
8A
  8
1
 62
     7
 10
389.48199506374499
 20
-492.90911954166802
 30
0.0
 11
389.48199506374499
 21
-496.90911954166802
 31
0.0
  0
LINE
  5
8B
  8
1
 62
     7
 10
389.48199506374499
 20
-478.90911954166808
 30
0.0
 11
389.48199506374499
 21
-482.90911954166808
 31
0.0
  0
LINE
  5
8C
  8
1
 62
     7
 10
389.48199506374499
 20
-478.90911954166808
 30
0.0
 11
400.5819950637449
 21
-478.90911954166808
 31
0.0
  0
LINE
  5
8D
  8
1
 62
     7
 10
403.68199506374498
 20
-482.90911954166808
 30
0.0
 11
380.18199506374492
 21
-482.90911954166808
 31
0.0
  0
LINE
  5
8E
  8
1
 62
     7
 10
402.5819950637449
 20
-480.90911954166802
 30
0.0
 11
402.5819950637449
 21
-482.90911954166808
 31
0.0
  0
LINE
  5
8F
  8
1
 62
     7
 10
387.88199506374491
 20
-495.90911954166802
 30
0.0
 11
385.88199506374491
 21
-495.90911954166802
 31
0.0
  0
LINE
  5
90
  8
1
 62
     7
 10
387.88199506374491
 20
-492.90911954166802
 30
0.0
 11
387.88199506374491
 21
-495.90911954166802
 31
0.0
  0
LINE
  5
91
  8
1
 62
     7
 10
387.88199506374491
 20
-482.90911954166808
 30
0.0
 11
387.88199506374491
 21
-478.90911954166808
 31
0.0
  0
LINE
  5
92
  8
1
 62
     7
 10
385.88199506374491
 20
-479.90911954166802
 30
0.0
 11
387.88199506374491
 21
-479.90911954166802
 31
0.0
  0
LINE
  5
93
  8
1
 62
     7
 10
385.88199506374491
 20
-500.40911954166802
 30
0.0
 11
385.88199506374491
 21
-504.90911954166802
 31
0.0
  0
LINE
  5
94
  8
1
 62
     7
 10
382.48199506374488
 20
-477.90911954166808
 30
0.0
 11
385.88199506374491
 21
-477.90911954166808
 31
0.0
  0
LINE
  5
95
  8
1
 62
     7
 10
376.18199506374492
 20
-497.88283638348321
 30
0.0
 11
376.18199506374492
 21
-523.90911954166813
 31
0.0
  0
LINE
  5
96
  8
1
 62
     7
 10
376.18199506374492
 20
-455.30339790378969
 30
0.0
 11
376.18199506374492
 21
-447.90911954166819
 31
0.0
  0
LINE
  5
97
  8
1
 62
     7
 10
376.18199506374492
 20
-479.90911954166802
 30
0.0
 11
376.18199506374492
 21
-455.30339790378969
 31
0.0
  0
LINE
  5
98
  8
1
 62
     3
 10
382.48199506374488
 20
-483.13894894945099
 30
0.0
 11
382.08391885239161
 21
-482.90911954166808
 31
0.0
  0
LINE
  5
99
  8
1
 62
     7
 10
382.48199506374488
 20
-452.20911954166809
 30
0.0
 11
382.48199506374488
 21
-483.13894894945099
 31
0.0
  0
LINE
  5
9A
  8
1
 62
     7
 10
385.88199506374491
 20
-447.90911954166819
 30
0.0
 11
385.88199506374491
 21
-482.90911954166808
 31
0.0
  0
LINE
  5
9B
  8
1
 62
     7
 10
382.48199506374488
 20
-492.90911954166802
 30
0.0
 11
382.48199506374488
 21
-500.60911954166812
 31
0.0
  0
LINE
  5
9C
  8
1
 62
     7
 10
385.88199506374491
 20
-492.90911954166802
 30
0.0
 11
385.88199506374491
 21
-500.40911954166802
 31
0.0
  0
LINE
  5
9D
  8
1
 62
     7
 10
385.88199506374491
 20
-502.60911954166812
 30
0.0
 11
384.48199506374488
 21
-502.60911954166818
 31
0.0
  0
LINE
  5
9E
  8
1
 62
     7
 10
384.48199506374488
 20
-450.20911954166809
 30
0.0
 11
385.88199506374491
 21
-450.20911954166809
 31
0.0
  0
LINE
  5
9F
  8
1
 62
     7
 10
370.78199506374489
 20
-495.90911954166802
 30
0.0
 11
380.18199506374492
 21
-495.90911954166802
 31
0.0
  0
LINE
  5
A0
  8
1
 62
     7
 10
376.18199506374492
 20
-495.90911954166802
 30
0.0
 11
376.18199506374492
 21
-497.88283638348321
 31
0.0
  0
LINE
  5
A1
  8
1
 62
     7
 10
370.78199506374489
 20
-495.90911954166802
 30
0.0
 11
370.78199506374489
 21
-479.90911954166802
 31
0.0
  0
LINE
  5
A2
  8
1
 62
     7
 10
370.78199506374489
 20
-479.90911954166802
 30
0.0
 11
380.18199506374492
 21
-479.90911954166802
 31
0.0
  0
LINE
  5
A3
  8
1
 62
     7
 10
370.78199506374489
 20
-495.90911954166802
 30
0.0
 11
370.18199506374498
 21
-495.30911954166811
 31
0.0
  0
LINE
  5
A4
  8
1
 62
     7
 10
370.78199506374489
 20
-479.90911954166802
 30
0.0
 11
370.18199506374498
 21
-480.5091195416681
 31
0.0
  0
LINE
  5
A5
  8
1
 62
     7
 10
370.18199506374498
 20
-480.5091195416681
 30
0.0
 11
370.18199506374498
 21
-495.30911954166811
 31
0.0
  0
LINE
  5
A6
  8
1
 62
     7
 10
403.68199506374498
 20
-492.90911954166802
 30
0.0
 11
403.68199506374498
 21
-482.90911954166808
 31
0.0
  0
LINE
  5
A7
  8
1
 62
     7
 10
405.18199506374492
 20
-484.40911954166802
 30
0.0
 11
403.68199506374498
 21
-482.90911954166808
 31
0.0
  0
LINE
  5
A8
  8
1
 62
     7
 10
405.18199506374492
 20
-491.40911954166808
 30
0.0
 11
405.18199506374492
 21
-484.40911954166802
 31
0.0
  0
LINE
  5
A9
  8
1
 62
     7
 10
403.68199506374498
 20
-492.90911954166802
 30
0.0
 11
405.18199506374492
 21
-491.40911954166808
 31
0.0
  0
LINE
  5
AA
  8
1
 62
     7
 10
403.68199506374498
 20
-492.90911954166802
 30
0.0
 11
380.18199506374492
 21
-492.90911954166802
 31
0.0
  0
LINE
  5
AB
  8
1
 62
     3
 10
384.68199506374492
 20
-491.40911954166808
 30
0.0
 11
384.68199506374492
 21
-492.90911954166802
 31
0.0
  0
LINE
  5
AC
  8
1
 62
     3
 10
384.68199506374492
 20
-491.40911954166808
 30
0.0
 11
382.08391885239161
 21
-492.90911954166802
 31
0.0
  0
LINE
  5
AD
  8
1
 62
     3
 10
384.68199506374492
 20
-484.40911954166802
 30
0.0
 11
384.68199506374492
 21
-491.40911954166808
 31
0.0
  0
LINE
  5
AE
  8
1
 62
     3
 10
384.68199506374492
 20
-484.40911954166802
 30
0.0
 11
382.48199506374488
 21
-483.13894894945099
 31
0.0
  0
LINE
  5
AF
  8
1
 62
     3
 10
384.68199506374492
 20
-482.90911954166808
 30
0.0
 11
384.68199506374492
 21
-484.40911954166802
 31
0.0
  0
LINE
  5
B0
  8
1
 62
     3
 10
384.68199506374492
 20
-491.40911954166808
 30
0.0
 11
405.18199506374492
 21
-491.40911954166808
 31
0.0
  0
LINE
  5
B1
  8
1
 62
     3
 10
384.68199506374492
 20
-484.40911954166802
 30
0.0
 11
405.18199506374492
 21
-484.40911954166802
 31
0.0
  0
LINE
  5
B2
  8
1
 62
     7
 10
382.88199506374491
 20
-508.7591195416681
 30
0.0
 11
383.88199506374491
 21
-507.7591195416681
 31
0.0
  0
LINE
  5
B3
  8
1
 62
     7
 10
382.88199506374491
 20
-508.7591195416681
 30
0.0
 11
382.88199506374491
 21
-535.40911954166813
 31
0.0
  0
LINE
  5
B4
  8
1
 62
     7
 10
382.88199506374491
 20
-512.80911954166811
 30
0.0
 11
408.18199506374492
 21
-512.80911954166811
 31
0.0
  0
LINE
  5
B5
  8
1
 62
     7
 10
383.88199506374491
 20
-507.7591195416681
 30
0.0
 11
408.18199506374492
 21
-507.7591195416681
 31
0.0
  0
LINE
  5
B6
  8
1
 62
     7
 10
353.88199506374491
 20
-456.40911954166819
 30
0.0
 11
317.88199506374502
 21
-456.40911954166819
 31
0.0
  0
LINE
  5
B7
  8
1
 62
     7
 10
335.88199506374502
 20
-455.90911954166819
 30
0.0
 11
355.88199506374491
 21
-455.90911954166819
 31
0.0
  0
LINE
  5
B8
  8
1
 62
     7
 10
353.88199506374491
 20
-482.40911954166808
 30
0.0
 11
355.88199506374491
 21
-482.40911954166808
 31
0.0
  0
LINE
  5
B9
  8
1
 62
     7
 10
366.18199506374498
 20
-447.90911954166819
 30
0.0
 11
337.88199506374502
 21
-447.90911954166819
 31
0.0
  0
LINE
  5
BA
  8
1
 62
     7
 10
362.88199506374491
 20
-492.90911954166802
 30
0.0
 11
366.18199506374498
 21
-492.90911954166802
 31
0.0
  0
LINE
  5
BB
  8
1
 62
     7
 10
392.98199506374488
 20
-506.15911954166808
 30
0.0
 11
396.88199506374491
 21
-506.15911954166808
 31
0.0
  0
LINE
  5
BC
  8
1
 62
     7
 10
396.88199506374491
 20
-506.15911954166808
 30
0.0
 11
396.88199506374491
 21
-507.7591195416681
 31
0.0
  0
LINE
  5
BD
  8
1
 62
     7
 10
385.88199506374491
 20
-499.5091195416681
 30
0.0
 11
387.38199506374491
 21
-499.5091195416681
 31
0.0
  0
LINE
  5
BE
  8
1
 62
     7
 10
390.98199506374488
 20
-504.15911954166802
 30
0.0
 11
390.98199506374488
 21
-496.90911954166802
 31
0.0
  0
LINE
  5
BF
  8
1
 62
     7
 10
385.88199506374491
 20
-650.90911954166813
 30
0.0
 11
385.88199506374491
 21
-655.40911954166813
 31
0.0
  0
LINE
  5
C0
  8
1
 62
     7
 10
387.88199506374491
 20
-495.90911954166802
 30
0.0
 11
387.88484617141557
 21
-496.90911954166802
 31
0.0
  0
LINE
  5
C1
  8
1
 62
     7
 10
390.98199506374488
 20
-504.15911954166802
 30
0.0
 11
392.5819950637449
 21
-504.15911954166802
 31
0.0
  0
LINE
  5
C2
  8
1
 62
     7
 10
392.5819950637449
 20
-504.15911954166802
 30
0.0
 11
392.5819950637449
 21
-496.90911954166802
 31
0.0
  0
LINE
  5
C3
  8
1
 62
     7
 10
387.28633410314097
 20
-497.9207141273327
 30
0.0
 11
385.88199506374491
 21
-497.9207141273327
 31
0.0
  0
LINE
  5
C4
  8
1
 62
     7
 10
389.38199506374491
 20
-501.5091195416681
 30
0.0
 11
389.38199506374491
 21
-503.7591195416681
 31
0.0
  0
LINE
  5
C5
  8
1
 62
     7
 10
392.5819950637449
 20
-651.65911954166813
 30
0.0
 11
390.98199506374488
 21
-651.65911954166813
 31
0.0
  0
LINE
  5
C6
  8
1
 62
     7
 10
385.88199506374491
 20
-650.90911954166813
 30
0.0
 11
385.88199506374491
 21
-655.40911954166813
 31
0.0
  0
LINE
  5
C7
  8
1
 62
     7
 10
370.68199506374492
 20
-671.40911954166813
 30
0.0
 11
370.68199506374492
 21
-678.40911954166813
 31
0.0
  0
LINE
  5
C8
  8
1
 62
     7
 10
370.68199506374492
 20
-672.80911954166811
 30
0.0
 11
378.48199506374488
 21
-672.80911954166811
 31
0.0
  0
LINE
  5
C9
  8
1
 62
     7
 10
370.68199506374492
 20
-677.00911954166816
 30
0.0
 11
378.48199506374488
 21
-677.00911954166816
 31
0.0
  0
LINE
  5
CA
  8
1
 62
     7
 10
378.48199506374488
 20
-671.40911954166813
 30
0.0
 11
379.31480051902082
 21
-671.40911954166813
 31
0.0
  0
LINE
  5
CB
  8
1
 62
     7
 10
378.48199506374488
 20
-678.40911954166813
 30
0.0
 11
379.31480051902082
 21
-678.40911954166813
 31
0.0
  0
LINE
  5
CC
  8
1
 62
     7
 10
378.48199506374488
 20
-671.40911954166813
 30
0.0
 11
378.48199506374488
 21
-678.40911954166813
 31
0.0
  0
LINE
  5
CD
  8
1
 62
     7
 10
378.48199506374488
 20
-693.40911954166813
 30
0.0
 11
378.48199506374488
 21
-700.40911954166813
 31
0.0
  0
LINE
  5
CE
  8
1
 62
     7
 10
370.68199506374492
 20
-699.00911954166816
 30
0.0
 11
378.48199506374488
 21
-699.00911954166816
 31
0.0
  0
LINE
  5
CF
  8
1
 62
     7
 10
370.68199506374492
 20
-694.809119541668
 30
0.0
 11
378.48199506374488
 21
-694.809119541668
 31
0.0
  0
LINE
  5
D0
  8
1
 62
     7
 10
370.68199506374492
 20
-693.40911954166813
 30
0.0
 11
370.68199506374492
 21
-700.40911954166813
 31
0.0
  0
LINE
  5
D1
  8
1
 62
     7
 10
378.48199506374488
 20
-693.40911954166813
 30
0.0
 11
378.48199506374488
 21
-657.89700481303441
 31
0.0
  0
LINE
  5
D2
  8
1
 62
     7
 10
385.88199506374491
 20
-650.90911954166813
 30
0.0
 11
385.88199506374491
 21
-707.90911954166813
 31
0.0
  0
LINE
  5
D3
  8
1
 62
     7
 10
380.83790495812929
 20
-702.69082415683522
 30
0.0
 11
381.1455024856707
 21
-702.73646230404267
 31
0.0
  0
LINE
  5
D4
  8
1
 62
     7
 10
378.48199506374488
 20
-700.40911954166813
 30
0.0
 11
378.42804995661498
 21
-700.76045056690145
 31
0.0
  0
LINE
  5
D5
  8
1
 62
     7
 10
378.48199506374488
 20
-700.40911954166813
 30
0.0
 11
379.31480051902082
 21
-700.40911954166813
 31
0.0
  0
LINE
  5
D6
  8
1
 62
     7
 10
379.31480051902082
 20
-693.40911954166813
 30
0.0
 11
378.48199506374488
 21
-693.40911954166813
 31
0.0
  0
LINE
  5
D7
  8
1
 62
     7
 10
378.48199506374488
 20
-693.40911954166813
 30
0.0
 11
378.48199506374488
 21
-700.40911954166813
 31
0.0
  0
LINE
  5
D8
  8
1
 62
     7
 10
395.5819950637449
 20
-667.90911954166813
 30
0.0
 11
402.5819950637449
 21
-667.90911954166813
 31
0.0
  0
LINE
  5
D9
  8
1
 62
     7
 10
404.5819950637449
 20
-661.05724695022104
 30
0.0
 11
404.88199506374491
 21
-661.05724695022104
 31
0.0
  0
LINE
  5
DA
  8
1
 62
     7
 10
402.5819950637449
 20
-663.05724695022104
 30
0.0
 11
402.5819950637449
 21
-667.90911954166813
 31
0.0
  0
LINE
  5
DB
  8
1
 62
     7
 10
366.88199506374491
 20
-447.90911954166819
 30
0.0
 11
376.18199506374492
 21
-447.90911954166819
 31
0.0
  0
LINE
  5
DC
  8
1
 62
     7
 10
366.88199506374491
 20
-523.90911954166813
 30
0.0
 11
366.88199506374491
 21
-447.90911954166819
 31
0.0
  0
LINE
  5
DD
  8
1
 62
     7
 10
366.88199506374491
 20
-492.90911954166802
 30
0.0
 11
370.18199506374498
 21
-492.90911954166802
 31
0.0
  0
LINE
  5
DE
  8
1
 62
     7
 10
366.88199506374491
 20
-662.90911954166813
 30
0.0
 11
376.18199506374492
 21
-662.90911954166813
 31
0.0
  0
LINE
  5
DF
  8
1
 62
     7
 10
366.88199506374491
 20
-671.40911954166813
 30
0.0
 11
370.68199506374492
 21
-671.40911954166813
 31
0.0
  0
LINE
  5
E0
  8
1
 62
     7
 10
366.88199506374491
 20
-678.40911954166813
 30
0.0
 11
370.68199506374492
 21
-678.40911954166813
 31
0.0
  0
LINE
  5
E1
  8
1
 62
     7
 10
366.88199506374491
 20
-707.90911954166813
 30
0.0
 11
376.18199506374492
 21
-707.90911954166813
 31
0.0
  0
LINE
  5
E2
  8
1
 62
     7
 10
366.88199506374491
 20
-700.40911954166813
 30
0.0
 11
370.68199506374492
 21
-700.40911954166813
 31
0.0
  0
LINE
  5
E3
  8
1
 62
     7
 10
366.88199506374491
 20
-693.40911954166813
 30
0.0
 11
370.68199506374492
 21
-693.40911954166813
 31
0.0
  0
LINE
  5
E4
  8
1
 62
     7
 10
410.18199506374492
 20
-507.90911954166808
 30
0.0
 11
410.18199506374492
 21
-647.90911954166813
 31
0.0
  0
LINE
  5
E5
  8
1
 62
     7
 10
382.88199506374491
 20
-535.40911954166813
 30
0.0
 11
335.18199506374492
 21
-535.40911954166813
 31
0.0
  0
LINE
  5
E6
  8
1
 62
     7
 10
334.18199506374492
 20
-547.90911954166813
 30
0.0
 11
410.18199506374492
 21
-547.90911954166813
 31
0.0
  0
LINE
  5
E7
  8
1
 62
     7
 10
334.18199506374492
 20
-552.90911954166813
 30
0.0
 11
410.18199506374492
 21
-552.90911954166813
 31
0.0
  0
LINE
  5
E8
  8
1
 62
     7
 10
408.18199506374492
 20
-523.90911954166813
 30
0.0
 11
408.18199506374492
 21
-507.7591195416681
 31
0.0
  0
LINE
  5
E9
  8
1
 62
     7
 10
408.18199506374492
 20
-523.90911954166813
 30
0.0
 11
410.18199506374492
 21
-523.90911954166813
 31
0.0
  0
LINE
  5
EA
  8
1
 62
     7
 10
335.18199506374492
 20
-535.40911954166813
 30
0.0
 11
334.18199506374492
 21
-536.40911954166813
 31
0.0
  0
LINE
  5
EB
  8
1
 62
     7
 10
334.18199506374492
 20
-619.40911954166813
 30
0.0
 11
335.18199506374492
 21
-620.40911954166813
 31
0.0
  0
LINE
  5
EC
  8
1
 62
     7
 10
410.18199506374492
 20
-631.90911954166813
 30
0.0
 11
408.18199506374492
 21
-631.90911954166813
 31
0.0
  0
LINE
  5
ED
  8
1
 62
     7
 10
410.18199506374492
 20
-602.90911954166813
 30
0.0
 11
334.18199506374492
 21
-602.90911954166813
 31
0.0
  0
LINE
  5
EE
  8
1
 62
     7
 10
335.18199506374492
 20
-620.40911954166813
 30
0.0
 11
382.88199506374491
 21
-620.40911954166813
 31
0.0
  0
LINE
  5
EF
  8
1
 62
     7
 10
334.18199506374492
 20
-619.40911954166813
 30
0.0
 11
334.18199506374492
 21
-536.40911954166813
 31
0.0
  0
LINE
  5
F0
  8
1
 62
     7
 10
392.5819950637449
 20
-651.65911954166813
 30
0.0
 11
390.98199506374488
 21
-651.65911954166813
 31
0.0
  0
LINE
  5
F1
  8
1
 62
     7
 10
383.88199506374491
 20
-648.05911954166811
 30
0.0
 11
382.88199506374491
 21
-647.059119541668
 31
0.0
  0
LINE
  5
F2
  8
1
 62
     7
 10
385.88199506374491
 20
-655.40911954166813
 30
0.0
 11
382.48199506374488
 21
-655.20911954166797
 31
0.0
  0
LINE
  5
F3
  8
1
 62
     7
 10
366.88199506374491
 20
-631.90911954166813
 30
0.0
 11
366.88199506374491
 21
-707.90911954166813
 31
0.0
  0
LINE
  5
F4
  8
1
 62
     7
 10
408.18199506374492
 20
-631.90911954166813
 30
0.0
 11
408.18199506374492
 21
-648.05911954166811
 31
0.0
  0
LINE
  5
F5
  8
1
 62
     7
 10
366.18199506374498
 20
-447.90911954166819
 30
0.0
 11
366.18199506374498
 21
-523.90911954166813
 31
0.0
  0
LINE
  5
F6
  8
1
 62
     7
 10
362.88199506374491
 20
-492.90911954166802
 30
0.0
 11
362.88199506374491
 21
-523.90911954166813
 31
0.0
  0
LINE
  5
F7
  8
1
 62
     7
 10
355.88199506374491
 20
-485.90911954166802
 30
0.0
 11
355.88199506374491
 21
-523.90911954166813
 31
0.0
  0
LINE
  5
F8
  8
1
 62
     7
 10
355.88199506374491
 20
-503.90911954166808
 30
0.0
 11
362.88199506374491
 21
-503.90911954166808
 31
0.0
  0
LINE
  5
F9
  8
1
 62
     7
 10
355.88199506374491
 20
-485.90911954166802
 30
0.0
 11
353.88199506374491
 21
-485.90911954166802
 31
0.0
  0
LINE
  5
FA
  8
1
 62
     7
 10
355.88199506374491
 20
-455.90911954166819
 30
0.0
 11
355.88199506374491
 21
-482.40911954166808
 31
0.0
  0
LINE
  5
FB
  8
1
 62
     7
 10
335.88199506374502
 20
-455.90911954166819
 30
0.0
 11
335.88199506374502
 21
-449.90911954166808
 31
0.0
  0
LINE
  5
FC
  8
1
 62
     7
 10
335.88199506374502
 20
-449.90911954166808
 30
0.0
 11
337.88199506374502
 21
-447.90911954166819
 31
0.0
  0
LINE
  5
FD
  8
1
 62
     7
 10
313.88199506374502
 20
-497.40911954166802
 30
0.0
 11
335.38199506374502
 21
-497.40911954166802
 31
0.0
  0
LINE
  5
FE
  8
1
 62
     7
 10
335.38199506374502
 20
-497.40911954166802
 30
0.0
 11
338.88199506374502
 21
-500.90911954166802
 31
0.0
  0
LINE
  5
FF
  8
1
 62
     7
 10
338.88199506374502
 20
-500.90911954166802
 30
0.0
 11
355.88199506374491
 21
-500.90911954166802
 31
0.0
  0
LINE
  5
100
  8
1
 62
     7
 10
338.88199506374502
 20
-500.90911954166802
 30
0.0
 11
338.88199506374502
 21
-523.90911954166813
 31
0.0
  0
LINE
  5
101
  8
1
 62
     7
 10
335.38199506374502
 20
-497.40911954166802
 30
0.0
 11
335.38199506374502
 21
-523.90911954166813
 31
0.0
  0
LINE
  5
102
  8
1
 62
     7
 10
313.88199506374502
 20
-460.40911954166819
 30
0.0
 11
317.88199506374502
 21
-456.40911954166819
 31
0.0
  0
LINE
  5
103
  8
1
 62
     7
 10
313.88199506374502
 20
-460.40911954166819
 30
0.0
 11
313.88199506374502
 21
-695.40911954166791
 31
0.0
  0
LINE
  5
104
  8
1
  6
DASHDOT
 62
     3
 10
302.39723409145762
 20
-577.90911954166813
 30
0.0
 11
310.18199506374492
 21
-577.90911954166813
 31
0.0
  0
LINE
  5
105
  8
1
 62
     7
 10
317.88199506374502
 20
-699.40911954166791
 30
0.0
 11
313.88199506374502
 21
-695.40911954166791
 31
0.0
  0
LINE
  5
106
  8
1
 62
     7
 10
353.88199506374491
 20
-699.40911954166791
 30
0.0
 11
317.88199506374502
 21
-699.40911954166791
 31
0.0
  0
LINE
  5
107
  8
1
 62
     7
 10
335.38199506374502
 20
-631.90911954166813
 30
0.0
 11
335.38199506374502
 21
-658.40911954166813
 31
0.0
  0
LINE
  5
108
  8
1
 62
     7
 10
338.88199506374502
 20
-631.90911954166813
 30
0.0
 11
338.88199506374502
 21
-654.90911954166813
 31
0.0
  0
LINE
  5
109
  8
1
 62
     7
 10
355.88199506374491
 20
-654.90911954166813
 30
0.0
 11
338.88199506374502
 21
-654.90911954166813
 31
0.0
  0
LINE
  5
10A
  8
1
 62
     7
 10
338.88199506374502
 20
-654.90911954166813
 30
0.0
 11
335.38199506374502
 21
-658.40911954166813
 31
0.0
  0
LINE
  5
10B
  8
1
 62
     7
 10
335.38199506374502
 20
-658.40911954166813
 30
0.0
 11
313.88199506374502
 21
-658.40911954166813
 31
0.0
  0
LINE
  5
10C
  8
1
 62
     7
 10
337.88199506374502
 20
-707.90911954166791
 30
0.0
 11
335.88199506374502
 21
-705.90911954166779
 31
0.0
  0
LINE
  5
10D
  8
1
 62
     7
 10
335.88199506374502
 20
-705.90911954166779
 30
0.0
 11
335.88199506374502
 21
-699.90911954166791
 31
0.0
  0
LINE
  5
10E
  8
1
 62
     7
 10
355.88199506374491
 20
-631.90911954166813
 30
0.0
 11
355.88199506374491
 21
-669.90911954166813
 31
0.0
  0
LINE
  5
10F
  8
1
 62
     7
 10
335.88199506374502
 20
-699.90911954166791
 30
0.0
 11
355.88199506374491
 21
-699.90911954166791
 31
0.0
  0
LINE
  5
110
  8
1
 62
     7
 10
355.88199506374491
 20
-673.40911954166813
 30
0.0
 11
355.88199506374491
 21
-699.90911954166791
 31
0.0
  0
LINE
  5
111
  8
1
 62
     7
 10
353.88199506374491
 20
-669.90911954166813
 30
0.0
 11
355.88199506374491
 21
-669.90911954166813
 31
0.0
  0
LINE
  5
112
  8
1
 62
     7
 10
362.88199506374491
 20
-651.90911954166813
 30
0.0
 11
355.88199506374491
 21
-651.90911954166813
 31
0.0
  0
LINE
  5
113
  8
1
 62
     7
 10
362.88199506374491
 20
-631.90911954166813
 30
0.0
 11
362.88199506374491
 21
-662.90911954166813
 31
0.0
  0
LINE
  5
114
  8
1
 62
     7
 10
366.18199506374498
 20
-631.90911954166813
 30
0.0
 11
366.18199506374498
 21
-707.90911954166813
 31
0.0
  0
LINE
  5
115
  8
1
 62
     7
 10
334.18199506374492
 20
-619.40911954166813
 30
0.0
 11
335.18199506374492
 21
-620.40911954166813
 31
0.0
  0
LINE
  5
116
  8
1
 62
     7
 10
366.18199506374498
 20
-707.90911954166813
 30
0.0
 11
337.88199506374502
 21
-707.90911954166791
 31
0.0
  0
LINE
  5
117
  8
1
 62
     7
 10
353.88199506374491
 20
-673.40911954166813
 30
0.0
 11
355.88199506374491
 21
-673.40911954166813
 31
0.0
  0
LINE
  5
118
  8
1
 62
     7
 10
310.18199506374492
 20
-463.90911954166802
 30
0.0
 11
310.18199506374492
 21
-691.90911954166813
 31
0.0
  0
LINE
  5
119
  8
1
 62
     7
 10
310.18199506374492
 20
-463.90911954166802
 30
0.0
 11
313.88199506374502
 21
-463.90911954166802
 31
0.0
  0
LINE
  5
11A
  8
1
 62
     7
 10
310.18199506374492
 20
-506.65911954166802
 30
0.0
 11
313.88199506374502
 21
-506.65911954166802
 31
0.0
  0
LINE
  5
11B
  8
1
  6
DASHDOT
 62
     3
 10
306.90735711729729
 20
-511.90911954166808
 30
0.0
 11
317.80293414679812
 21
-511.90911954166808
 31
0.0
  0
LINE
  5
11C
  8
1
 62
     7
 10
310.18199506374492
 20
-517.15911954166813
 30
0.0
 11
313.88199506374502
 21
-517.15911954166813
 31
0.0
  0
LINE
  5
11D
  8
1
 62
     7
 10
310.18199506374492
 20
-522.90911954166813
 30
0.0
 11
313.88199506374502
 21
-522.90911954166813
 31
0.0
  0
LINE
  5
11E
  8
1
 62
     7
 10
310.18199506374492
 20
-632.90911954166813
 30
0.0
 11
313.88199506374502
 21
-632.90911954166813
 31
0.0
  0
LINE
  5
11F
  8
1
 62
     7
 10
310.18199506374492
 20
-691.90911954166813
 30
0.0
 11
313.88199506374502
 21
-691.90911954166813
 31
0.0
  0
LINE
  5
120
  8
1
 62
     7
 10
408.18199506374492
 20
-643.00911954166816
 30
0.0
 11
382.88199506374491
 21
-643.00911954166816
 31
0.0
  0
LINE
  5
121
  8
1
 62
     7
 10
383.88199506374491
 20
-648.05911954166811
 30
0.0
 11
393.38199506374491
 21
-648.05911954166811
 31
0.0
  0
LINE
  5
122
  8
1
 62
     7
 10
397.5819950637449
 20
-650.90911954166813
 30
0.0
 11
397.5819950637449
 21
-643.00911954166816
 31
0.0
  0
LINE
  5
123
  8
1
 62
     7
 10
392.98199506374488
 20
-649.65911954166813
 30
0.0
 11
396.88199506374491
 21
-649.65911954166813
 31
0.0
  0
LINE
  5
124
  8
1
 62
     7
 10
396.88199506374491
 20
-649.65911954166813
 30
0.0
 11
396.88199506374491
 21
-648.05911954166811
 31
0.0
  0
LINE
  5
125
  8
1
 62
     7
 10
393.38199506374491
 20
-648.05911954166811
 30
0.0
 11
408.18199506374492
 21
-648.05911954166811
 31
0.0
  0
LINE
  5
126
  8
1
 62
     7
 10
389.38199506374491
 20
-651.72548333209522
 30
0.0
 11
389.38199506374491
 21
-654.30911954166811
 31
0.0
  0
LINE
  5
127
  8
1
 62
     7
 10
390.98199506374488
 20
-676.90911954166813
 30
0.0
 11
390.98199506374488
 21
-651.65911954166813
 31
0.0
  0
LINE
  5
128
  8
1
 62
     7
 10
390.98199506374488
 20
-676.90911954166813
 30
0.0
 11
392.5819950637449
 21
-676.90911954166813
 31
0.0
  0
LINE
  5
129
  8
1
 62
     7
 10
392.5819950637449
 20
-676.90911954166813
 30
0.0
 11
392.5819950637449
 21
-651.65911954166813
 31
0.0
  0
LINE
  5
12A
  8
1
 62
     7
 10
387.38199506374491
 20
-656.30911954166811
 30
0.0
 11
385.88199506374491
 21
-656.30911954166811
 31
0.0
  0
LINE
  5
12B
  8
1
 62
     7
 10
387.28633410314097
 20
-657.89752495600328
 30
0.0
 11
385.88199506374491
 21
-657.89752495600328
 31
0.0
  0
LINE
  5
12C
  8
1
 62
     7
 10
385.88199506374491
 20
-650.90911954166813
 30
0.0
 11
384.48199506374488
 21
-650.90911954166813
 31
0.0
  0
LINE
  5
12D
  8
1
 62
     7
 10
384.48199506374488
 20
-653.20911954166809
 30
0.0
 11
385.88199506374491
 21
-653.20911954166809
 31
0.0
  0
LINE
  5
12E
  8
1
 62
     7
 10
362.88199506374491
 20
-662.90911954166813
 30
0.0
 11
366.18199506374498
 21
-662.90911954166813
 31
0.0
  0
LINE
  5
12F
  8
1
 62
     7
 10
382.88199506374491
 20
-647.059119541668
 30
0.0
 11
382.88199506374491
 21
-620.40911954166813
 31
0.0
  0
LINE
  5
130
  8
1
 62
     7
 10
376.18199506374492
 20
-631.90911954166813
 30
0.0
 11
376.18199506374492
 21
-672.80911954166811
 31
0.0
  0
LINE
  5
131
  8
1
 62
     7
 10
376.18199506374492
 20
-694.809119541668
 30
0.0
 11
376.18199506374492
 21
-677.00911954166816
 31
0.0
  0
LINE
  5
132
  8
1
 62
     7
 10
376.18199506374492
 20
-699.00911954166816
 30
0.0
 11
376.18199506374492
 21
-707.90911954166813
 31
0.0
  0
LINE
  5
133
  8
1
 62
     7
 10
385.88199506374491
 20
-707.90911954166813
 30
0.0
 11
384.48199506374488
 21
-707.90911954166813
 31
0.0
  0
LINE
  5
134
  8
1
 62
     7
 10
395.5819950637449
 20
-652.90911954166813
 30
0.0
 11
395.5819950637449
 21
-667.90911954166813
 31
0.0
  0
LINE
  5
135
  8
1
 62
     7
 10
382.48199506374488
 20
-655.20911954166797
 30
0.0
 11
382.48199506374488
 21
-703.85448509498735
 31
0.0
  0
LINE
  5
136
  8
1
  6
DASHDOT
 62
     3
 10
410.18199506374492
 20
-577.90911954166813
 30
0.0
 11
418.28199506374489
 21
-577.90911954166813
 31
0.0
  0
LINE
  5
137
  8
1
 62
     7
 10
699.27662439908045
 20
-480.35856573283331
 30
0.0
 11
698.49952609319848
 21
-483.25873609286032
 31
0.0
  0
LINE
  5
138
  8
1
 62
     7
 10
647.55424300347636
 20
-482.42911809365341
 30
0.0
 11
648.33134130935821
 21
-485.32928845368031
 31
0.0
  0
LINE
  5
139
  8
1
 62
     7
 10
656.05874791967085
 20
-483.25873609286032
 30
0.0
 11
655.28164961378877
 21
-480.35856573283331
 31
0.0
  0
LINE
  5
13A
  8
1
 62
     7
 10
611.5765492547032
 20
-506.54967754044412
 30
0.0
 11
609.45347720055781
 21
-504.42660548629908
 31
0.0
  0
LINE
  5
13B
  8
1
 62
     7
 10
579.72858319759962
 20
-555.91163214902235
 30
0.0
 11
582.62875355762662
 21
-556.68873045490432
 31
0.0
  0
LINE
  5
13C
  8
1
 62
     7
 10
584.69930591844695
 20
-548.96132384459179
 30
0.0
 11
581.79913555841995
 21
-548.18422553870982
 31
0.0
  0
LINE
  5
13D
  8
1
 62
     7
 10
581.79913555841995
 20
-607.63401354462644
 30
0.0
 11
584.69930591844695
 21
-606.85691523874436
 31
0.0
  0
LINE
  5
13E
  8
1
 62
     7
 10
582.62875355762662
 20
-599.12950862843206
 30
0.0
 11
579.72858319759962
 21
-599.90660693431391
 31
0.0
  0
LINE
  5
13F
  8
1
 62
     7
 10
609.45347720055781
 20
-651.39163359703696
 30
0.0
 11
611.57654925470285
 21
-649.26856154289203
 31
0.0
  0
LINE
  5
140
  8
1
 62
     7
 10
605.91969500521077
 20
-643.6117072933996
 30
0.0
 11
603.79662295106539
 21
-645.73477934754487
 31
0.0
  0
LINE
  5
141
  8
1
 62
     7
 10
655.28164961378877
 20
-675.45967335050318
 30
0.0
 11
656.05874791967062
 21
-672.55950299047595
 31
0.0
  0
LINE
  5
142
  8
1
 62
     7
 10
648.33134130935809
 20
-670.48895062965585
 30
0.0
 11
647.55424300347613
 21
-673.38912098968285
 31
0.0
  0
LINE
  5
143
  8
1
 62
     7
 10
707.00403100939275
 20
-673.38912098968319
 30
0.0
 11
706.22693270351101
 21
-670.48895062965585
 31
0.0
  0
LINE
  5
144
  8
1
 62
     7
 10
698.49952609319826
 20
-672.55950299047606
 30
0.0
 11
699.27662439908022
 21
-675.45967335050318
 31
0.0
  0
LINE
  5
145
  8
1
 62
     7
 10
750.7616510618036
 20
-645.73477934754487
 30
0.0
 11
748.63857900765822
 21
-643.6117072933996
 31
0.0
  0
LINE
  5
146
  8
1
 62
     7
 10
742.98172475816591
 20
-649.26856154289214
 30
0.0
 11
745.10479681231129
 21
-651.3916335970373
 31
0.0
  0
LINE
  5
147
  8
1
 62
     7
 10
774.82969081526949
 20
-599.90660693431414
 30
0.0
 11
771.92952045524237
 21
-599.12950862843218
 31
0.0
  0
LINE
  5
148
  8
1
 62
     7
 10
769.85896809442215
 20
-606.85691523874459
 30
0.0
 11
772.75913845444916
 21
-607.63401354462667
 31
0.0
  0
LINE
  5
149
  8
1
 62
     7
 10
772.75913845444961
 20
-548.18422553871005
 30
0.0
 11
769.85896809442215
 21
-548.96132384459202
 31
0.0
  0
LINE
  5
14A
  8
1
 62
     7
 10
771.92952045524282
 20
-556.68873045490443
 30
0.0
 11
774.82969081526983
 21
-555.91163214902247
 31
0.0
  0
LINE
  5
14B
  8
1
 62
     7
 10
745.10479681231141
 20
-504.42660548629908
 30
0.0
 11
742.98172475816625
 21
-506.54967754044452
 31
0.0
  0
LINE
  5
14C
  8
1
 62
     7
 10
748.63857900765856
 20
-512.20653178993655
 30
0.0
 11
750.7616510618036
 21
-510.08345973579151
 31
0.0
  0
LINE
  5
14D
  8
1
  6
DASHDOT
 62
     3
 10
687.27913700643478
 20
-577.90911954166813
 30
0.0
 11
667.27913700643478
 21
-577.90911954166813
 31
0.0
  0
LINE
  5
14E
  8
1
  6
DASHDOT
 62
     3
 10
677.27913700643467
 20
-567.90911954166813
 30
0.0
 11
677.27913700643467
 21
-587.90911954166813
 31
0.0
  0
LINE
  5
14F
  8
1
  6
DASHDOT
 62
     3
 10
677.27913700643467
 20
-633.90911954166813
 30
0.0
 11
677.27913700643467
 21
-619.90911954166813
 31
0.0
  0
LINE
  5
150
  8
1
  6
DASHDOT
 62
     3
 10
725.77655961836319
 20
-549.90911954166813
 30
0.0
 11
713.6522039653812
 21
-556.90911954166813
 31
0.0
  0
LINE
  5
151
  8
1
  6
DASHDOT
 62
     3
 10
628.78171439450614
 20
-549.90911954166813
 30
0.0
 11
640.90607004748824
 21
-556.90911954166813
 31
0.0
  0
LINE
  5
152
  8
1
 62
     7
 10
669.77913700643467
 20
-554.06063950624446
 30
0.0
 11
669.77913700643467
 21
-547.90911954166813
 31
0.0
  0
LINE
  5
153
  8
1
 62
     7
 10
669.77913700643467
 20
-547.90911954166813
 30
0.0
 11
684.77913700643478
 21
-547.90911954166813
 31
0.0
  0
LINE
  5
154
  8
1
 62
     7
 10
684.77913700643478
 20
-547.90911954166813
 30
0.0
 11
684.77913700643478
 21
-554.06063950624446
 31
0.0
  0
LINE
  5
155
  8
1
 62
     7
 10
60.409330137474001
 20
-447.90911954166819
 30
0.0
 11
32.109330137474053
 21
-447.90911954166819
 31
0.0
  0
LINE
  5
156
  8
1
 62
     7
 10
30.10933013747405
 20
-449.90911954166808
 30
0.0
 11
32.109330137474053
 21
-447.90911954166819
 31
0.0
  0
LINE
  5
157
  8
1
 62
     7
 10
8.1093301374740463
 20
-460.40911954166819
 30
0.0
 11
12.10933013747405
 21
-456.40911954166819
 31
0.0
  0
LINE
  5
158
  8
1
 62
     7
 10
8.1093301374740463
 20
-460.40911954166819
 30
0.0
 11
8.1093301374740463
 21
-695.40911954166791
 31
0.0
  0
LINE
  5
159
  8
1
  6
DASHDOT
 62
     3
 10
-3.3754308348134141
 20
-577.90911954166813
 30
0.0
 11
4.4093301374739999
 21
-577.90911954166813
 31
0.0
  0
LINE
  5
15A
  8
1
 62
     7
 10
12.10933013747405
 20
-699.40911954166791
 30
0.0
 11
8.1093301374740463
 21
-695.40911954166791
 31
0.0
  0
LINE
  5
15B
  8
1
 62
     7
 10
32.109330137474053
 20
-707.90911954166791
 30
0.0
 11
30.10933013747405
 21
-705.90911954166779
 31
0.0
  0
LINE
  5
15C
  8
1
 62
     7
 10
60.409330137474001
 20
-707.90911954166813
 30
0.0
 11
32.109330137474053
 21
-707.90911954166791
 31
0.0
  0
LINE
  5
15D
  8
1
 62
     7
 10
4.4093301374739999
 20
-463.90911954166802
 30
0.0
 11
4.4093301374739999
 21
-691.90911954166813
 31
0.0
  0
LINE
  5
15E
  8
1
 62
     7
 10
4.4093301374739999
 20
-463.90911954166802
 30
0.0
 11
8.1093301374740463
 21
-463.90911954166802
 31
0.0
  0
LINE
  5
15F
  8
1
 62
     7
 10
4.4093301374739999
 20
-691.90911954166813
 30
0.0
 11
8.1093301374740463
 21
-691.90911954166813
 31
0.0
  0
LINE
  5
160
  8
1
 62
     7
 10
30.10933013747405
 20
-705.90911954166779
 30
0.0
 11
30.10933013747405
 21
-449.90911954166808
 31
0.0
  0
LINE
  5
161
  8
1
 62
     7
 10
30.10933013747405
 20
-699.40911954166791
 30
0.0
 11
12.10933013747405
 21
-699.40911954166791
 31
0.0
  0
LINE
  5
162
  8
1
 62
     7
 10
30.10933013747405
 20
-456.40911954166819
 30
0.0
 11
12.10933013747405
 21
-456.40911954166819
 31
0.0
  0
LINE
  5
163
  8
1
 62
     7
 10
60.409330137474001
 20
-447.90911954166819
 30
0.0
 11
60.409330137474001
 21
-707.90911954166813
 31
0.0
  0
LINE
  5
164
  8
1
 62
     7
 10
89.809330137474007
 20
-656.90911954166813
 30
0.0
 11
89.809330137474078
 21
-588.90911954166813
 31
0.0
  0
LINE
  5
165
  8
1
 62
     7
 10
410.18199506374492
 20
-630.10911954166829
 30
0.0
 11
385.78199506374489
 21
-630.10911954166829
 31
0.0
  0
LINE
  5
166
  8
1
 62
     7
 10
385.78199506374489
 20
-630.10911954166829
 30
0.0
 11
385.78199506374489
 21
-623.70911954166809
 31
0.0
  0
LINE
  5
167
  8
1
 62
     7
 10
385.78199506374489
 20
-623.70911954166809
 30
0.0
 11
410.18199506374492
 21
-623.70911954166809
 31
0.0
  0
LINE
  5
168
  8
1
 62
     7
 10
385.78199506374489
 20
-630.10911954166829
 30
0.0
 11
383.4725939869864
 21
-626.90911954166813
 31
0.0
  0
LINE
  5
169
  8
1
 62
     7
 10
383.4725939869864
 20
-626.90911954166813
 30
0.0
 11
385.78199506374489
 21
-623.70911954166809
 31
0.0
  0
LINE
  5
16A
  8
1
 62
     3
 10
410.18199506374492
 20
-630.90911954166813
 30
0.0
 11
392.18199506374492
 21
-630.90911954166813
 31
0.0
  0
LINE
  5
16B
  8
1
 62
     3
 10
392.18199506374492
 20
-630.90911954166813
 30
0.0
 11
392.18199506374492
 21
-622.90911954166813
 31
0.0
  0
LINE
  5
16C
  8
1
 62
     3
 10
392.18199506374492
 20
-622.90911954166813
 30
0.0
 11
410.18199506374492
 21
-622.90911954166813
 31
0.0
  0
LINE
  5
16D
  8
1
 62
     3
 10
392.18199506374492
 20
-630.90911954166813
 30
0.0
 11
390.79635441768983
 21
-630.10911954166829
 31
0.0
  0
LINE
  5
16E
  8
1
 62
     3
 10
392.18199506374492
 20
-622.90911954166813
 30
0.0
 11
390.79635441768983
 21
-623.70911954166809
 31
0.0
  0
LINE
  5
16F
  8
1
  6
DASHDOT
 62
     3
 10
413.18199506374492
 20
-626.90911954166813
 30
0.0
 11
379.33447420233819
 21
-626.90911954166813
 31
0.0
  0
LINE
  5
170
  8
1
 62
     7
 10
674.77913700643478
 20
-517.53411954166813
 30
0.0
 11
674.77913700643478
 21
-518.28411954166813
 31
0.0
  0
LINE
  5
171
  8
1
 62
     7
 10
676.90413700643467
 20
-520.40911954166813
 30
0.0
 11
677.65413700643467
 21
-520.40911954166813
 31
0.0
  0
LINE
  5
172
  8
1
 62
     7
 10
679.77913700643478
 20
-518.28411954166813
 30
0.0
 11
679.77913700643478
 21
-517.53411954166813
 31
0.0
  0
LINE
  5
173
  8
1
 62
     7
 10
677.65413700643467
 20
-515.40911954166813
 30
0.0
 11
676.90413700643467
 21
-515.40911954166813
 31
0.0
  0
LINE
  5
174
  8
1
 62
     7
 10
737.65413700643467
 20
-575.40911954166813
 30
0.0
 11
736.90413700643478
 21
-575.40911954166813
 31
0.0
  0
LINE
  5
175
  8
1
 62
     7
 10
734.77913700643478
 20
-577.53411954166813
 30
0.0
 11
734.77913700643478
 21
-578.28411954166813
 31
0.0
  0
LINE
  5
176
  8
1
 62
     7
 10
736.90413700643478
 20
-580.40911954166813
 30
0.0
 11
737.65413700643467
 21
-580.40911954166813
 31
0.0
  0
LINE
  5
177
  8
1
 62
     7
 10
739.77913700643467
 20
-578.28411954166813
 30
0.0
 11
739.77913700643467
 21
-577.53411954166813
 31
0.0
  0
LINE
  5
178
  8
1
 62
     7
 10
679.77913700643478
 20
-638.28411954166813
 30
0.0
 11
679.77913700643478
 21
-637.53411954166813
 31
0.0
  0
LINE
  5
179
  8
1
 62
     7
 10
677.65413700643467
 20
-635.40911954166813
 30
0.0
 11
676.90413700643467
 21
-635.40911954166813
 31
0.0
  0
LINE
  5
17A
  8
1
 62
     7
 10
674.77913700643478
 20
-637.53411954166813
 30
0.0
 11
674.77913700643478
 21
-638.28411954166813
 31
0.0
  0
LINE
  5
17B
  8
1
 62
     7
 10
676.90413700643467
 20
-640.40911954166813
 30
0.0
 11
677.65413700643467
 21
-640.40911954166813
 31
0.0
  0
LINE
  5
17C
  8
1
 62
     7
 10
616.90413700643478
 20
-580.40911954166813
 30
0.0
 11
617.65413700643478
 21
-580.40911954166813
 31
0.0
  0
LINE
  5
17D
  8
1
 62
     7
 10
619.77913700643467
 20
-578.28411954166813
 30
0.0
 11
619.77913700643467
 21
-577.53411954166813
 31
0.0
  0
LINE
  5
17E
  8
1
 62
     7
 10
617.65413700643478
 20
-575.40911954166813
 30
0.0
 11
616.90413700643478
 21
-575.40911954166813
 31
0.0
  0
LINE
  5
17F
  8
1
 62
     7
 10
614.77913700643467
 20
-577.53411954166813
 30
0.0
 11
614.77913700643467
 21
-578.28411954166813
 31
0.0
  0
LINE
  5
180
  8
1
 62
     7
 10
674.67913700643464
 20
-447.93512214218828
 30
0.0
 11
674.67913700643464
 21
-386.75437024742109
 31
0.0
  0
LINE
  5
181
  8
1
 62
     7
 10
674.67913700643464
 20
-386.75437024742109
 30
0.0
 11
679.8791370064348
 21
-386.75437024742109
 31
0.0
  0
LINE
  5
182
  8
1
 62
     7
 10
679.8791370064348
 20
-386.75437024742109
 30
0.0
 11
679.8791370064348
 21
-447.93512214218828
 31
0.0
  0
LINE
  5
183
  8
1
 62
     7
 10
677.27913700643467
 20
-386.75437024742109
 30
0.0
 11
677.27913700643467
 21
-447.90911954166819
 31
0.0
  0
LINE
  5
184
  8
1
 62
     7
 10
675.77913700643478
 20
-380.75437024742121
 30
0.0
 11
675.77913700643478
 21
-386.75437024742109
 31
0.0
  0
LINE
  5
185
  8
1
 62
     7
 10
676.27913700643478
 20
-386.75437024742109
 30
0.0
 11
676.27913700643478
 21
-380.75437024742121
 31
0.0
  0
LINE
  5
186
  8
1
 62
     7
 10
676.77913700643467
 20
-380.75437024742121
 30
0.0
 11
676.77913700643467
 21
-386.75437024742109
 31
0.0
  0
LINE
  5
187
  8
1
 62
     7
 10
678.27913700643467
 20
-386.75437024742109
 30
0.0
 11
678.27913700643467
 21
-380.75437024742121
 31
0.0
  0
LINE
  5
188
  8
1
 62
     7
 10
678.77913700643467
 20
-380.75437024742121
 30
0.0
 11
678.77913700643467
 21
-386.75437024742109
 31
0.0
  0
LINE
  5
189
  8
1
 62
     7
 10
679.27913700643478
 20
-386.75437024742109
 30
0.0
 11
679.27913700643478
 21
-380.75437024742121
 31
0.0
  0
LINE
  5
18A
  8
1
 62
     7
 10
325.58199506374501
 20
-456.40911954166819
 30
0.0
 11
325.58199506374501
 21
-386.75437024742109
 31
0.0
  0
LINE
  5
18B
  8
1
 62
     7
 10
325.58199506374501
 20
-386.75437024742109
 30
0.0
 11
328.18199506374492
 21
-386.75437024742109
 31
0.0
  0
LINE
  5
18C
  8
1
 62
     7
 10
328.18199506374492
 20
-386.75437024742109
 30
0.0
 11
328.18199506374492
 21
-456.40911954166819
 31
0.0
  0
LINE
  5
18D
  8
1
 62
     7
 10
325.88199506374502
 20
-380.75437024742121
 30
0.0
 11
325.88199506374502
 21
-386.75437024742109
 31
0.0
  0
LINE
  5
18E
  8
1
 62
     7
 10
326.38199506374502
 20
-386.75437024742109
 30
0.0
 11
326.38199506374502
 21
-380.75437024742121
 31
0.0
  0
LINE
  5
18F
  8
1
 62
     7
 10
327.38199506374502
 20
-380.75437024742121
 30
0.0
 11
327.38199506374502
 21
-386.75437024742109
 31
0.0
  0
LINE
  5
190
  8
1
 62
     7
 10
327.88199506374502
 20
-386.75437024742109
 30
0.0
 11
327.88199506374502
 21
-380.75437024742121
 31
0.0
  0
LINE
  5
191
  8
1
 62
     7
 10
326.88199506374502
 20
-380.75437024742121
 30
0.0
 11
326.88199506374502
 21
-386.75437024742109
 31
0.0
  0
LINE
  5
192
  8
1
 62
     7
 10
78.709330137474012
 20
-707.90911954166813
 30
0.0
 11
80.109330137474018
 21
-707.90911954166791
 31
0.0
  0
LINE
  5
193
  8
1
 62
     7
 10
74.4093301374742
 20
-703.60911954166818
 30
0.0
 11
74.4093301374742
 21
-452.20911954166831
 31
0.0
  0
LINE
  5
194
  8
1
 62
     7
 10
78.709330137474197
 20
-447.90911954166819
 30
0.0
 11
80.109330137474018
 21
-447.90911954166819
 31
0.0
  0
LINE
  5
195
  8
1
 62
     7
 10
74.419231426148343
 20
-451.81934883791507
 30
0.0
 11
74.42703182949802
 21
-451.81934883791507
 31
0.0
  0
LINE
  5
196
  8
1
 62
     7
 10
74.419231426148571
 20
-703.99889024542108
 30
0.0
 11
74.427031829497992
 21
-703.99889024542108
 31
0.0
  0
LINE
  5
197
  8
1
 62
     7
 10
101.109330137474
 20
-496.90911954166802
 30
0.0
 11
99.109330137474103
 21
-494.90911954166808
 31
0.0
  0
LINE
  5
198
  8
1
 62
     7
 10
102.4093301374739
 20
-507.7591195416681
 30
0.0
 11
104.4093301374739
 21
-507.75911954166833
 31
0.0
  0
LINE
  5
199
  8
1
 62
     7
 10
101.109330137474
 20
-507.90911954166808
 30
0.0
 11
102.4093301374739
 21
-507.90911954166808
 31
0.0
  0
LINE
  5
19A
  8
1
 62
     7
 10
99.109330137474103
 20
-660.90911954166813
 30
0.0
 11
101.109330137474
 21
-658.90911954166813
 31
0.0
  0
LINE
  5
19B
  8
1
 62
     7
 10
104.4093301374739
 20
-647.90911954166802
 30
0.0
 11
104.4093301374739
 21
-507.75911954166833
 31
0.0
  0
LINE
  5
19C
  8
1
 62
     7
 10
102.4093301374739
 20
-647.90911954166802
 30
0.0
 11
104.4093301374739
 21
-647.90911954166802
 31
0.0
  0
LINE
  5
19D
  8
1
 62
     7
 10
101.109330137474
 20
-648.05911954166811
 30
0.0
 11
102.4093301374739
 21
-648.05911954166788
 31
0.0
  0
LINE
  5
19E
  8
1
 62
     7
 10
384.48199506374488
 20
-447.90911954166819
 30
0.0
 11
385.88199506374491
 21
-447.90911954166819
 31
0.0
  0
LINE
  5
19F
  8
1
 62
     7
 10
380.18199506374492
 20
-452.20911954166809
 30
0.0
 11
380.18199506374492
 21
-500.60911954166801
 31
0.0
  0
LINE
  5
1A0
  8
1
 62
     7
 10
384.48199506374488
 20
-504.90911954166802
 30
0.0
 11
385.88199506374491
 21
-504.90911954166802
 31
0.0
  0
LINE
  5
1A1
  8
1
 62
     7
 10
380.22262480556702
 20
-501.30103403777491
 30
0.0
 11
380.23802824836127
 21
-501.30103403777491
 31
0.0
  0
LINE
  5
1A2
  8
1
 62
     7
 10
99.109330137474103
 20
-494.90911954166808
 30
0.0
 11
98.809330137474021
 21
-494.90911954166808
 31
0.0
  0
LINE
  5
1A3
  8
1
 62
     7
 10
99.109330137474103
 20
-660.90911954166813
 30
0.0
 11
98.809330137474021
 21
-660.90911954166813
 31
0.0
  0
LINE
  5
1A4
  8
1
 62
     7
 10
96.809330137474007
 20
-674.90911954166813
 30
0.0
 11
96.809330137474007
 21
-480.90911954166802
 31
0.0
  0
ARC
  5
1A5
  8
1
  6
DASHDOT
 62
     3
 10
677.27913700643467
 20
-577.90911954166813
 30
0.0
 40
48.999999999999943
 50
141.37619253949859
 51
156.7837943566405
  0
ARC
  5
1A6
  8
1
  6
DASHDOT
 62
     3
 10
677.27913700643467
 20
-577.90911954166813
 30
0.0
 40
48.999999999999922
 50
21.376192539498572
 51
36.783794356640669
  0
ARC
  5
1A7
  8
1
  6
DASHDOT
 62
     3
 10
677.27913700643467
 20
-577.90911954166813
 30
0.0
 40
48.999999999999943
 50
261.37619253949862
 51
276.78379435664073
  0
ARC
  5
1A8
  8
1
 62
     7
 10
87.809330137474021
 20
-498.90911954166808
 30
0.0
 40
2.0
 50
0.0
 51
90.0
  0
ARC
  5
1A9
  8
1
 62
     7
 10
94.809330137474007
 20
-480.90911954166802
 30
0.0
 40
2.0
 50
0.0
 51
90.0
  0
ARC
  5
1AA
  8
1
 62
     7
 10
74.402582793764083
 20
-455.84977248615081
 30
0.0
 40
4.0304580336754618
 50
89.763327374950492
 51
172.20891512794361
  0
ARC
  5
1AB
  8
1
 62
     7
 10
87.209330137474097
 20
-504.15911954166802
 30
0.0
 40
2.0000000000001119
 50
258.46304096718251
 51
270.0
  0
ARC
  5
1AC
  8
1
 62
     7
 10
81.209330137474083
 20
-501.90911954166802
 30
0.0
 40
4.0
 50
0.0
 51
90.0
  0
ARC
  5
1AD
  8
1
 62
     7
 10
87.209330137475433
 20
-504.15911954166842
 30
0.0
 40
2.0000000000000449
 50
255.73539614388801
 51
258.46304096714312
  0
ARC
  5
1AE
  8
1
 62
     7
 10
87.809330137474021
 20
-656.90911954166813
 30
0.0
 40
2.0
 50
270.0
 51
0.0
  0
ARC
  5
1AF
  8
1
 62
     7
 10
94.809330137474007
 20
-674.90911954166813
 30
0.0
 40
2.0
 50
270.0
 51
0.0
  0
ARC
  5
1B0
  8
1
 62
     7
 10
74.402582793764196
 20
-699.96846659718528
 30
0.0
 40
4.030458033675262
 50
187.7910848720544
 51
270.2366726250512
  0
ARC
  5
1B1
  8
1
 62
     7
 10
384.48199506374488
 20
-655.20911954166797
 30
0.0
 40
2.0
 50
90.0
 51
180.0
  0
ARC
  5
1B2
  8
1
 62
     7
 10
380.17524772003497
 20
-699.96846659718551
 30
0.0
 40
4.0304580336752469
 50
187.79108487205281
 51
270.23667262505347
  0
ARC
  5
1B3
  8
1
 62
     7
 10
393.5819950637449
 20
-498.90911954166808
 30
0.0
 40
2.0
 50
0.0
 51
90.0
  0
ARC
  5
1B4
  8
1
 62
     7
 10
404.5819950637449
 20
-492.90911954166802
 30
0.0
 40
2.0
 50
180.0
 51
270.0
  0
ARC
  5
1B5
  8
1
 62
     7
 10
400.5819950637449
 20
-480.90911954166802
 30
0.0
 40
2.0
 50
0.0
 51
90.0
  0
ARC
  5
1B6
  8
1
 62
     7
 10
380.17763524921952
 20
-497.2569156994611
 30
0.0
 40
4.0443685779693208
 50
188.9030809734426
 51
270.63737140090092
  0
ARC
  5
1B7
  8
1
 62
     7
 10
380.17524772003497
 20
-455.84977248615081
 30
0.0
 40
4.030458033675349
 50
89.763327374948048
 51
172.20891512794651
  0
ARC
  5
1B8
  8
1
 62
     7
 10
384.48199506374488
 20
-500.60911954166812
 30
0.0
 40
2.0
 50
180.0
 51
270.0
  0
ARC
  5
1B9
  8
1
 62
     7
 10
384.48199506374488
 20
-452.20911954166809
 30
0.0
 40
2.0
 50
90.0
 51
180.0
  0
ARC
  5
1BA
  8
1
 62
     7
 10
392.98199506374488
 20
-504.15911954166802
 30
0.0
 40
2.0
 50
180.0
 51
270.0
  0
ARC
  5
1BB
  8
1
 62
     7
 10
387.38199506374491
 20
-501.5091195416681
 30
0.0
 40
2.0
 50
0.0
 51
90.0
  0
ARC
  5
1BC
  8
1
 62
     7
 10
393.38199506374491
 20
-503.7591195416681
 30
0.0
 40
4.0
 50
180.0
 51
270.0
  0
ARC
  5
1BD
  8
1
 62
     7
 10
392.98199506374488
 20
-651.65911954166813
 30
0.0
 40
2.0
 50
90.0
 51
180.0
  0
ARC
  5
1BE
  8
1
 62
     7
 10
376.18199506374492
 20
-674.90911954166813
 30
0.0
 40
4.6972832595667944
 50
311.83131906611891
 51
48.168680933881092
  0
ARC
  5
1BF
  8
1
 62
     7
 10
376.18199506374492
 20
-696.90911954166813
 30
0.0
 40
4.6972832595667944
 50
311.83131906611891
 51
48.168680933881092
  0
ARC
  5
1C0
  8
1
 62
     7
 10
381.08888685776668
 20
-654.66474399680453
 30
0.0
 40
1.4357456071918
 50
272.8456338815642
 51
349.80095317374781
  0
ARC
  5
1C1
  8
1
 62
     7
 10
380.8254171786017
 20
-700.23701006133217
 30
0.0
 40
2.4538458712655351
 50
192.31665193983989
 51
270.29158316715302
  0
ARC
  5
1C2
  8
1
 62
     7
 10
381.08152302987429
 20
-704.17078168193825
 30
0.0
 40
1.4357456071918591
 50
12.726728898268689
 51
87.445949285589691
  0
ARC
  5
1C3
  8
1
 62
     7
 10
404.5819950637449
 20
-663.05724695022104
 30
0.0
 40
2.0
 50
90.0
 51
180.0
  0
ARC
  5
1C4
  8
1
 62
     7
 10
392.98199506374488
 20
-651.65911954166813
 30
0.0
 40
2.0
 50
90.0
 51
180.0
  0
ARC
  5
1C5
  8
1
 62
     7
 10
384.48199506374488
 20
-655.20911954166797
 30
0.0
 40
2.0
 50
90.0
 51
180.0
  0
ARC
  5
1C6
  8
1
 62
     7
 10
387.28633410314097
 20
-501.62711864410608
 30
0.0
 40
3.7064045167733011
 50
355.63644742807571
 51
90.0
  0
ARC
  5
1C7
  8
1
 62
     7
 10
395.5819950637449
 20
-504.90911954166802
 30
0.0
 40
2.0
 50
0.0
 51
90.0
  0
ARC
  5
1C8
  8
1
 62
     7
 10
393.06227299421431
 20
-651.72548333209522
 30
0.0
 40
3.6802779304693809
 50
85.016179056742786
 51
180.0
  0
ARC
  5
1C9
  8
1
 62
     7
 10
387.38199506374491
 20
-654.30911954166811
 30
0.0
 40
2.0
 50
270.0
 51
0.0
  0
ARC
  5
1CA
  8
1
 62
     7
 10
387.28633410314097
 20
-654.20026108952948
 30
0.0
 40
3.697263866473917
 50
270.0
 51
358.31279789633652
  0
ARC
  5
1CB
  8
1
 62
     7
 10
384.48199506374488
 20
-655.2272705342142
 30
0.0
 40
4.3181509925460659
 50
90.0
 51
170.535446989847
  0
ARC
  5
1CC
  8
1
 62
     7
 10
379.64813347583208
 20
-657.93540269985306
 30
0.0
 40
3.4661384120870209
 50
80.459547625656086
 51
180.0
  0
ARC
  5
1CD
  8
1
 62
     7
 10
381.31548521743571
 20
-659.22346566059218
 30
0.0
 40
3.128604294436427
 50
92.845633881562449
 51
154.91397928111039
  0
ARC
  5
1CE
  8
1
 62
     7
 10
384.48199506374488
 20
-703.60056912820698
 30
0.0
 40
4.3085504134610222
 50
185.30451121422749
 51
270.0
  0
ARC
  5
1CF
  8
1
 62
     7
 10
395.5819950637449
 20
-650.90911954166813
 30
0.0
 40
2.0
 50
270.0
 51
0.0
  0
ARC
  5
1D0
  8
1
 62
     7
 10
384.48199506374488
 20
-703.59196375891509
 30
0.0
 40
2.0171557827528259
 50
187.4779311881432
 51
270.0
  0
ARC
  5
1D1
  8
1
 62
     7
 10
647.76481745459841
 20
-471.80885199275042
 30
0.0
 40
20.151650227518239
 50
288.0095417323929
 51
313.77715538635931
  0
ARC
  5
1D2
  8
1
 62
     7
 10
677.27913700643467
 20
-498.90911954166808
 30
0.0
 40
19.999999999999801
 50
38.866093027195539
 51
141.13390697280499
  0
ARC
  5
1D3
  8
1
 62
     7
 10
706.79345655827092
 20
-684.00938709058573
 30
0.0
 40
20.151650227518012
 50
108.009541732393
 51
133.77715538636019
  0
ARC
  5
1D4
  8
1
 62
     7
 10
702.38458438137923
 20
-484.21431439162848
 30
0.0
 40
4.0008508829545928
 50
166.1816913510545
 51
343.81830864894579
  0
ARC
  5
1D5
  8
1
 62
     7
 10
677.27913700643467
 20
-577.90911954166813
 30
0.0
 40
100.0000000000002
 50
167.29244277595589
 51
180.0
  0
ARC
  5
1D6
  8
1
 62
     7
 10
652.17368963149011
 20
-484.21431439162831
 30
0.0
 40
4.0008508829544827
 50
196.18169135105461
 51
13.818308648944569
  0
ARC
  5
1D7
  8
1
 62
     7
 10
608.68977923133923
 20
-509.31976176657292
 30
0.0
 40
4.0008508829545022
 50
226.181691351056
 51
43.818308648944473
  0
ARC
  5
1D8
  8
1
 62
     7
 10
583.5843318563949
 20
-552.80367216672369
 30
0.0
 40
4.0008508829546461
 50
256.18169135105148
 51
73.818308648946143
  0
ARC
  5
1D9
  8
1
 62
     7
 10
583.5843318563949
 20
-603.01456691661269
 30
0.0
 40
4.0008508829544676
 50
286.18169135105381
 51
103.8183086489484
  0
ARC
  5
1DA
  8
1
 62
     7
 10
608.68977923133923
 20
-646.49847731676323
 30
0.0
 40
4.0008508829545777
 50
316.18169135105262
 51
133.81830864894491
  0
ARC
  5
1DB
  8
1
 62
     7
 10
652.17368963149011
 20
-671.60392469170779
 30
0.0
 40
4.0008508829543716
 50
346.18169135105381
 51
163.8183086489471
  0
ARC
  5
1DC
  8
1
 62
     7
 10
702.38458438137889
 20
-671.60392469170779
 30
0.0
 40
4.000850882954686
 50
16.181691351052951
 51
193.81830864894849
  0
ARC
  5
1DD
  8
1
 62
     7
 10
745.86849478152953
 20
-646.49847731676346
 30
0.0
 40
4.0008508829545777
 50
46.181691351052699
 51
223.81830864894729
  0
ARC
  5
1DE
  8
1
 62
     7
 10
770.9739421564741
 20
-603.01456691661269
 30
0.0
 40
4.0008508829546461
 50
76.181691351051469
 51
253.8183086489492
  0
ARC
  5
1DF
  8
1
 62
     7
 10
770.97394215647432
 20
-552.8036721667238
 30
0.0
 40
4.0008508829544676
 50
106.1816913510539
 51
283.81830864894857
  0
ARC
  5
1E0
  8
1
 62
     7
 10
745.86849478152965
 20
-509.31976176657309
 30
0.0
 40
4.0008508829543343
 50
136.1816913510516
 51
313.81830864894903
  0
ARC
  5
1E1
  8
1
 62
     7
 10
677.27913700643467
 20
-577.90911954166813
 30
0.0
 40
99.999999999999943
 50
77.292442775955863
 51
102.707557224044
  0
ARC
  5
1E2
  8
1
 62
     7
 10
677.27913700643467
 20
-577.90911954166813
 30
0.0
 40
99.999999999999872
 50
107.29244277595591
 51
132.70755722404419
  0
ARC
  5
1E3
  8
1
 62
     7
 10
677.27913700643467
 20
-577.90911954166813
 30
0.0
 40
99.999999999999915
 50
137.29244277595589
 51
162.707557224044
  0
ARC
  5
1E4
  8
1
 62
     7
 10
677.27913700643467
 20
-577.90911954166813
 30
0.0
 40
100.0000000000002
 50
180.0
 51
192.70755722404411
  0
ARC
  5
1E5
  8
1
 62
     7
 10
677.27913700643467
 20
-577.90911954166813
 30
0.0
 40
100.0
 50
197.29244277595589
 51
222.707557224044
  0
ARC
  5
1E6
  8
1
 62
     7
 10
677.27913700643467
 20
-577.90911954166813
 30
0.0
 40
100.0000000000001
 50
227.29244277595581
 51
252.707557224044
  0
ARC
  5
1E7
  8
1
 62
     7
 10
677.27913700643467
 20
-577.90911954166813
 30
0.0
 40
100.0000000000002
 50
257.29244277595569
 51
282.70755722404402
  0
ARC
  5
1E8
  8
1
 62
     7
 10
677.27913700643467
 20
-577.90911954166813
 30
0.0
 40
100.0000000000001
 50
287.29244277595581
 51
312.70755722404402
  0
ARC
  5
1E9
  8
1
 62
     7
 10
677.27913700643467
 20
-577.90911954166813
 30
0.0
 40
100.0000000000001
 50
317.29244277595581
 51
342.70755722404402
  0
ARC
  5
1EA
  8
1
 62
     7
 10
677.27913700643467
 20
-577.90911954166813
 30
0.0
 40
100.0
 50
347.29244277595581
 51
12.70755722404397
  0
ARC
  5
1EB
  8
1
 62
     7
 10
677.27913700643467
 20
-577.90911954166813
 30
0.0
 40
100.0000000000001
 50
17.292442775955731
 51
42.707557224044088
  0
ARC
  5
1EC
  8
1
 62
     7
 10
677.27913700643467
 20
-577.90911954166813
 30
0.0
 40
100.0000000000001
 50
47.29244277595582
 51
72.707557224044123
  0
ARC
  5
1ED
  8
1
 62
     7
 10
677.27913700643467
 20
-577.90911954166813
 30
0.0
 40
89.999999999999844
 50
104.9935487178422
 51
165.0064512821576
  0
ARC
  5
1EE
  8
1
 62
     7
 10
706.79345655827092
 20
-471.80885199275042
 30
0.0
 40
20.1516502275182
 50
226.22284461364001
 51
251.99045826760701
  0
ARC
  5
1EF
  8
1
 62
     7
 10
571.17886945751707
 20
-548.39479998983177
 30
0.0
 40
20.151650227518122
 50
316.22284461363978
 51
341.99045826760721
  0
ARC
  5
1F0
  8
1
 62
     7
 10
647.76481745459841
 20
-684.00938709058585
 30
0.0
 40
20.151650227518122
 50
46.222844613639822
 51
71.990458267607025
  0
ARC
  5
1F1
  8
1
 62
     7
 10
783.37940455535227
 20
-607.42343909350438
 30
0.0
 40
20.15165022751804
 50
136.22284461363961
 51
161.9904582676069
  0
ARC
  5
1F2
  8
1
 62
     7
 10
598.27913700643467
 20
-577.90911954166813
 30
0.0
 40
19.999999999999869
 50
128.8660930271958
 51
231.13390697280471
  0
ARC
  5
1F3
  8
1
 62
     7
 10
677.27913700643467
 20
-656.90911954166825
 30
0.0
 40
19.999999999999869
 50
218.8660930271958
 51
321.1339069728042
  0
ARC
  5
1F4
  8
1
 62
     7
 10
756.27913700643467
 20
-577.90911954166813
 30
0.0
 40
19.999999999999869
 50
308.8660930271958
 51
51.133906972804461
  0
ARC
  5
1F5
  8
1
 62
     7
 10
571.17886945751707
 20
-607.42343909350438
 30
0.0
 40
20.151650227517941
 50
18.00954173239246
 51
43.777155386359738
  0
ARC
  5
1F6
  8
1
 62
     7
 10
706.79345655827092
 20
-684.00938709058573
 30
0.0
 40
20.151650227518012
 50
108.009541732393
 51
133.77715538636019
  0
ARC
  5
1F7
  8
1
 62
     7
 10
783.37940455535227
 20
-548.39479998983177
 30
0.0
 40
20.151650227518122
 50
198.00954173239299
 51
223.77715538635991
  0
ARC
  5
1F8
  8
1
 62
     7
 10
677.27913700643467
 20
-577.90911954166813
 30
0.0
 40
90.000000000000099
 50
194.9935487178424
 51
255.0064512821578
  0
ARC
  5
1F9
  8
1
 62
     7
 10
677.27913700643467
 20
-577.90911954166813
 30
0.0
 40
90.000000000000057
 50
284.99354871784232
 51
345.00645128215768
  0
ARC
  5
1FA
  8
1
 62
     7
 10
677.27913700643467
 20
-577.90911954166813
 30
0.0
 40
90.000000000000057
 50
14.99354871784227
 51
75.006451282157713
  0
ARC
  5
1FB
  8
1
 62
     7
 10
677.27913700643467
 20
-577.90911954166813
 30
0.0
 40
25.000000000000028
 50
107.45760312372209
 51
72.542396876277934
  0
ARC
  5
1FC
  8
1
 62
     7
 10
674.77913700643478
 20
-515.40911954166813
 30
0.0
 40
2.125
 50
270.0
 51
0.0
  0
ARC
  5
1FD
  8
1
 62
     7
 10
674.77913700643478
 20
-520.40911954166813
 30
0.0
 40
2.125
 50
0.0
 51
90.0
  0
ARC
  5
1FE
  8
1
 62
     7
 10
679.77913700643478
 20
-520.40911954166813
 30
0.0
 40
2.125
 50
90.0
 51
180.0
  0
ARC
  5
1FF
  8
1
 62
     7
 10
679.77913700643478
 20
-515.40911954166813
 30
0.0
 40
2.125
 50
180.0
 51
270.0
  0
ARC
  5
200
  8
1
 62
     7
 10
739.77913700643467
 20
-575.40911954166813
 30
0.0
 40
2.125
 50
180.0
 51
270.0
  0
ARC
  5
201
  8
1
 62
     7
 10
734.77913700643478
 20
-575.40911954166813
 30
0.0
 40
2.125
 50
270.0
 51
0.0
  0
ARC
  5
202
  8
1
 62
     7
 10
734.77913700643478
 20
-580.40911954166813
 30
0.0
 40
2.125
 50
0.0
 51
90.0
  0
ARC
  5
203
  8
1
 62
     7
 10
739.77913700643467
 20
-580.40911954166813
 30
0.0
 40
2.125
 50
90.0
 51
180.0
  0
ARC
  5
204
  8
1
 62
     7
 10
679.77913700643478
 20
-640.40911954166813
 30
0.0
 40
2.125
 50
90.0
 51
180.0
  0
ARC
  5
205
  8
1
 62
     7
 10
679.77913700643478
 20
-635.40911954166813
 30
0.0
 40
2.125
 50
180.0
 51
270.0
  0
ARC
  5
206
  8
1
 62
     7
 10
674.77913700643478
 20
-635.40911954166813
 30
0.0
 40
2.125
 50
270.0
 51
0.0
  0
ARC
  5
207
  8
1
 62
     7
 10
674.77913700643478
 20
-640.40911954166813
 30
0.0
 40
2.125
 50
0.0
 51
90.0
  0
ARC
  5
208
  8
1
 62
     7
 10
614.77913700643467
 20
-580.40911954166813
 30
0.0
 40
2.125
 50
0.0
 51
90.0
  0
ARC
  5
209
  8
1
 62
     7
 10
619.77913700643467
 20
-580.40911954166813
 30
0.0
 40
2.125
 50
90.0
 51
180.0
  0
ARC
  5
20A
  8
1
 62
     7
 10
619.77913700643467
 20
-575.40911954166813
 30
0.0
 40
2.125
 50
180.0
 51
270.0
  0
ARC
  5
20B
  8
1
 62
     7
 10
614.77913700643467
 20
-575.40911954166813
 30
0.0
 40
2.125
 50
270.0
 51
0.0
  0
ARC
  5
20C
  8
1
 62
     7
 10
87.809330137474092
 20
-566.90911954166813
 30
0.0
 40
2.0
 50
270.0
 51
0.0
  0
ARC
  5
20D
  8
1
 62
     7
 10
87.809330137474092
 20
-588.90911954166813
 30
0.0
 40
2.0
 50
0.0
 51
90.0
  0
CIRCLE
  5
20E
  8
1
 62
     7
 10
677.27913700643467
 20
-577.90911954166813
 30
0.0
 40
129.99999999999989
  0
CIRCLE
  5
20F
  8
1
 62
     7
 10
677.27913700643467
 20
-577.90911954166813
 30
0.0
 40
127.7000000000001
  0
CIRCLE
  5
210
  8
1
 62
     7
 10
677.27913700643467
 20
-577.90911954166813
 30
0.0
 40
83.0
  0
CIRCLE
  5
211
  8
1
 62
     7
 10
677.27913700643467
 20
-487.90911954166802
 30
0.0
 40
5.0
  0
CIRCLE
  5
212
  8
1
 62
     7
 10
677.27913700643467
 20
-487.90911954166802
 30
0.0
 40
4.0
  0
CIRCLE
  5
213
  8
1
 62
     7
 10
587.27913700643467
 20
-577.90911954166813
 30
0.0
 40
4.0
  0
CIRCLE
  5
214
  8
1
 62
     7
 10
677.27913700643467
 20
-667.90911954166813
 30
0.0
 40
4.0
  0
CIRCLE
  5
215
  8
1
 62
     7
 10
767.27913700643478
 20
-577.90911954166825
 30
0.0
 40
4.0
  0
CIRCLE
  5
216
  8
1
 62
     7
 10
587.27913700643467
 20
-577.90911954166813
 30
0.0
 40
4.0
  0
CIRCLE
  5
217
  8
1
 62
     7
 10
677.27913700643467
 20
-667.90911954166813
 30
0.0
 40
4.0
  0
CIRCLE
  5
218
  8
1
 62
     7
 10
767.27913700643478
 20
-577.90911954166825
 30
0.0
 40
4.0
  0
CIRCLE
  5
219
  8
1
 62
     7
 10
587.27913700643467
 20
-577.90911954166813
 30
0.0
 40
5.0
  0
CIRCLE
  5
21A
  8
1
 62
     7
 10
677.27913700643467
 20
-667.90911954166813
 30
0.0
 40
5.0
  0
CIRCLE
  5
21B
  8
1
 62
     7
 10
767.27913700643478
 20
-577.90911954166825
 30
0.0
 40
5.0
  0
CIRCLE
  5
21C
  8
1
 62
     7
 10
677.27913700643467
 20
-577.90911954166813
 30
0.0
 40
54.0
  0
CIRCLE
  5
21D
  8
1
 62
     7
 10
677.27913700643467
 20
-626.90911954166813
 30
0.0
 40
3.2000000000000459
  0
CIRCLE
  5
21E
  8
1
 62
     3
 10
677.27913700643467
 20
-626.90911954166813
 30
0.0
 40
4.0
  0
CIRCLE
  5
21F
  8
1
 62
     7
 10
719.71438179187214
 20
-553.40911954166813
 30
0.0
 40
3.2000000000000459
  0
CIRCLE
  5
220
  8
1
 62
     3
 10
719.71438179187214
 20
-553.40911954166813
 30
0.0
 40
4.0
  0
CIRCLE
  5
221
  8
1
 62
     7
 10
634.84389222099719
 20
-553.40911954166813
 30
0.0
 40
3.2000000000000459
  0
CIRCLE
  5
222
  8
1
 62
     3
 10
634.84389222099719
 20
-553.40911954166813
 30
0.0
 40
4.0
  0
CIRCLE
  5
223
  8
1
 62
     7
 10
677.27913700643467
 20
-517.90911954166813
 30
0.0
 40
5.0
  0
CIRCLE
  5
224
  8
1
 62
     7
 10
737.27913700643478
 20
-577.90911954166813
 30
0.0
 40
5.0
  0
CIRCLE
  5
225
  8
1
 62
     7
 10
677.27913700643467
 20
-637.90911954166813
 30
0.0
 40
5.0
  0
CIRCLE
  5
226
  8
1
 62
     7
 10
617.27913700643478
 20
-577.90911954166813
 30
0.0
 40
5.0
  0
ARC
  5
227
  8
1
 62
     7
 10
78.709330137474197
 20
-452.20911954166809
 30
0.0
 40
4.3000000000000114
 50
90.0
 51
180.0
  0
ARC
  5
228
  8
1
 62
     7
 10
78.709330137474197
 20
-703.60911954166818
 30
0.0
 40
4.2999999999999972
 50
180.0
 51
270.0
  0
ARC
  5
229
  8
1
 62
     7
 10
384.48199506374488
 20
-452.20911954166809
 30
0.0
 40
4.3000000000000114
 50
90.0
 51
180.0
  0
ARC
  5
22A
  8
1
 62
     7
 10
384.48199506374488
 20
-500.60911954166812
 30
0.0
 40
4.3000000000000114
 50
180.0
 51
270.0
  0
ARC
  5
22B
  8
1
 62
     7
 10
98.809330137474021
 20
-492.90911954166802
 30
0.0
 40
2.0
 50
180.0
 51
270.0
  0
ARC
  5
22C
  8
1
 62
     7
 10
98.809330137474021
 20
-662.90911954166813
 30
0.0
 40
2.0
 50
90.0
 51
180.0
  0
TEXT
  5
22D
  8
1
 62
     7
 10
10.05643970088059
 20
-318.08269467374288
 30
0.0
 40
10.0
  1
MSB 40
 41
0.9
  7
SIMPLEX
  0
ENDSEC
  0
EOF
