  0
SECTION
  2
HEADER
  9
$ACADVER
  1
AC1009
  9
$INSBASE
 10
0.0
 20
0.0
 30
0.0
  9
$EXTMIN
 10
-1131.0998140076531
 20
-700.25044164743713
 30
0.0
  9
$EXTMAX
 10
-753.08402324072722
 20
-469.8658974488867
 30
0.0
  9
$LIMMIN
 10
-1131.0998140076531
 20
-699.77262939431591
  9
$LIMMAX
 10
-753.50904156916295
 20
-469.86589744888698
  9
$ORTHOMODE
 70
     0
  9
$REGENMODE
 70
     1
  9
$FILLMODE
 70
     1
  9
$QTEXTMODE
 70
     0
  9
$MIRRTEXT
 70
     1
  9
$DRAGMODE
 70
     2
  9
$LTSCALE
 40
1.0
  9
$OSMODE
 70
    37
  9
$ATTMODE
 70
     1
  9
$TEXTSIZE
 40
3.5
  9
$TRACEWID
 40
0.5
  9
$TEXTSTYLE
  7
STANDARD
  9
$CLAYER
  8
0
  9
$CELTYPE
  6
BYLAYER
  9
$CECOLOR
 62
   256
  9
$DIMSCALE
 40
1.0
  9
$DIMASZ
 40
0.18
  9
$DIMEXO
 40
0.0625
  9
$DIMDLI
 40
0.38
  9
$DIMRND
 40
0.0
  9
$DIMDLE
 40
0.0
  9
$DIMEXE
 40
0.18
  9
$DIMTP
 40
0.0
  9
$DIMTM
 40
0.0
  9
$DIMTXT
 40
0.18
  9
$DIMCEN
 40
0.09
  9
$DIMTSZ
 40
0.0
  9
$DIMTOL
 70
     0
  9
$DIMLIM
 70
     0
  9
$DIMTIH
 70
     1
  9
$DIMTOH
 70
     1
  9
$DIMSE1
 70
     0
  9
$DIMSE2
 70
     0
  9
$DIMTAD
 70
     0
  9
$DIMZIN
 70
     0
  9
$DIMBLK
  1

  9
$DIMASO
 70
     1
  9
$DIMSHO
 70
     1
  9
$DIMPOST
  1

  9
$DIMAPOST
  1

  9
$DIMALT
 70
     0
  9
$DIMALTD
 70
     2
  9
$DIMALTF
 40
25.399999999999999
  9
$DIMLFAC
 40
1.0
  9
$DIMTOFL
 70
     0
  9
$DIMTVP
 40
0.0
  9
$DIMTIX
 70
     0
  9
$DIMSOXD
 70
     0
  9
$DIMSAH
 70
     0
  9
$DIMBLK1
  1

  9
$DIMBLK2
  1

  9
$DIMSTYLE
  2
STANDARD
  9
$DIMCLRD
 70
     0
  9
$DIMCLRE
 70
     0
  9
$DIMCLRT
 70
     0
  9
$DIMTFAC
 40
1.0
  9
$DIMGAP
 40
0.09
  9
$LUNITS
 70
     2
  9
$LUPREC
 70
     4
  9
$SKETCHINC
 40
0.1
  9
$FILLETRAD
 40
2.0
  9
$AUNITS
 70
     0
  9
$AUPREC
 70
     0
  9
$MENU
  1
ACAD
  9
$ELEVATION
 40
0.0
  9
$PELEVATION
 40
0.0
  9
$THICKNESS
 40
0.0
  9
$LIMCHECK
 70
     0
  9
$BLIPMODE
 70
     0
  9
$CHAMFERA
 40
0.0
  9
$CHAMFERB
 40
0.0
  9
$SKPOLY
 70
     0
  9
$TDCREATE
 40
2452094.7492109952
  9
$TDUPDATE
 40
2452094.7504474539
  9
$TDINDWG
 40
0.0012384259
  9
$TDUSRTIMER
 40
0.0012384259
  9
$USRTIMER
 70
     1
  9
$ANGBASE
 50
0.0
  9
$ANGDIR
 70
     0
  9
$PDMODE
 70
     0
  9
$PDSIZE
 40
0.0
  9
$PLINEWID
 40
0.0
  9
$COORDS
 70
     1
  9
$SPLFRAME
 70
     0
  9
$SPLINETYPE
 70
     6
  9
$SPLINESEGS
 70
     8
  9
$ATTDIA
 70
     0
  9
$ATTREQ
 70
     1
  9
$HANDLING
 70
 10241
  9
$HANDSEED
  5
238
  9
$SURFTAB1
 70
     6
  9
$SURFTAB2
 70
     6
  9
$SURFTYPE
 70
     6
  9
$SURFU
 70
     6
  9
$SURFV
 70
     6
  9
$UCSNAME
  2

  9
$UCSORG
 10
0.0
 20
0.0
 30
0.0
  9
$UCSXDIR
 10
1.0
 20
0.0
 30
0.0
  9
$UCSYDIR
 10
0.0
 20
1.0
 30
0.0
  9
$PUCSNAME
  2

  9
$PUCSORG
 10
0.0
 20
0.0
 30
0.0
  9
$PUCSXDIR
 10
1.0
 20
0.0
 30
0.0
  9
$PUCSYDIR
 10
0.0
 20
1.0
 30
0.0
  9
$USERI1
 70
     0
  9
$USERI2
 70
     0
  9
$USERI3
 70
     0
  9
$USERI4
 70
     0
  9
$USERI5
 70
     0
  9
$USERR1
 40
0.0
  9
$USERR2
 40
0.0
  9
$USERR3
 40
0.0
  9
$USERR4
 40
0.0
  9
$USERR5
 40
0.0
  9
$WORLDVIEW
 70
     1
  9
$SHADEDGE
 70
     3
  9
$SHADEDIF
 70
    70
  9
$TILEMODE
 70
     1
  9
$MAXACTVP
 70
    64
  9
$PLIMCHECK
 70
     0
  9
$PEXTMIN
 10
1.0000000000000000E+020
 20
1.0000000000000000E+020
 30
1.0000000000000000E+020
  9
$PEXTMAX
 10
-1.0000000000000000E+020
 20
-1.0000000000000000E+020
 30
-1.0000000000000000E+020
  9
$PLIMMIN
 10
0.0
 20
0.0
  9
$PLIMMAX
 10
12.0
 20
9.0
  9
$UNITMODE
 70
     0
  9
$VISRETAIN
 70
     1
  9
$PLINEGEN
 70
     0
  9
$PSLTSCALE
 70
     1
  0
ENDSEC
  0
SECTION
  2
TABLES
  0
TABLE
  2
VPORT
 70
     2
  0
VPORT
  2
*ACTIVE
 70
     0
 10
0.0
 20
0.0
 11
1.0
 21
1.0
 12
-1098.974985642297
 22
-483.43468014263919
 13
0.0
 23
0.0
 14
1.0
 24
1.0
 15
0.0
 25
0.0
 16
0.0
 26
0.0
 36
1.0
 17
0.0
 27
0.0
 37
0.0
 40
8.742858649905429
 41
2.6453201970443341
 42
50.0
 43
0.0
 44
0.0
 50
0.0
 51
0.0
 71
     0
 72
   100
 73
     1
 74
     1
 75
     0
 76
     0
 77
     0
 78
     0
  0
ENDTAB
  0
TABLE
  2
LTYPE
 70
     9
  0
LTYPE
  2
CONTINUOUS
 70
     0
  3
Solid line
 72
    65
 73
     0
 40
0.0
  0
LTYPE
  2
BORDER
 70
     0
  3
__ __ . __ __ .
 72
    65
 73
     6
 40
17.389048730719939
 49
4.9682996373485526
 49
-2.4841498186742759
 49
4.9682996373485526
 49
-2.4841498186742759
 49
0.0
 49
-2.4841498186742759
  0
LTYPE
  2
CENTER
 70
     0
  3
____ _ ____ _
 72
    65
 73
     4
 40
19.87319854939421
 49
12.42074909337139
 49
-2.4841498186742759
 49
2.4841498186742759
 49
-2.4841498186742759
  0
LTYPE
  2
DASHDOT
 70
     0
  3
__ . __ . __ .
 72
    65
 73
     4
 40
9.936599274697107
 49
4.9682996373485526
 49
-2.4841498186742759
 49
0.0
 49
-2.4841498186742759
  0
LTYPE
  2
DASHED
 70
     0
  3
__ __ __ __ __
 72
    65
 73
     2
 40
7.4524494560228316
 49
4.9682996373485526
 49
-2.4841498186742759
  0
LTYPE
  2
DIVIDE
 70
     0
  3
__ . . __ . . 
 72
    65
 73
     6
 40
12.42074909337139
 49
4.9682996373485526
 49
-2.4841498186742759
 49
0.0
 49
-2.4841498186742759
 49
0.0
 49
-2.4841498186742759
  0
LTYPE
  2
DOT
 70
     0
  3
..............
 72
    65
 73
     4
 40
4.9682996373485526
 49
0.0
 49
-2.4841498186742759
 49
0.0
 49
-2.4841498186742759
  0
LTYPE
  2
HIDDEN
 70
     0
  3
_ _ _ _ _ _ _
 72
    65
 73
     2
 40
3.7262247280114158
 49
2.4841498186742759
 49
-1.242074909337139
  0
LTYPE
  2
PHANTOM
 70
     0
  3
_____ _ _ _____ _ _ 
 72
    65
 73
     6
 40
24.841498186742768
 49
12.42074909337139
 49
-2.4841498186742759
 49
2.4841498186742759
 49
-2.4841498186742759
 49
2.4841498186742759
 49
-2.4841498186742759
  0
ENDTAB
  0
TABLE
  2
LAYER
 70
     2
  0
LAYER
  2
0
 70
     0
 62
     7
  6
CONTINUOUS
  0
LAYER
  2
1
 70
     0
 62
     7
  6
CONTINUOUS
  0
ENDTAB
  0
TABLE
  2
STYLE
 70
     4
  0
STYLE
  2
STANDARD
 70
     0
 40
0.0
 41
1.0
 50
0.0
 71
     0
 42
3.5
  3
txt
  4

  0
STYLE
  2
SIMPLEX
 70
     0
 40
0.0
 41
1.0
 50
0.0
 71
     0
 42
3.5
  3
simplex
  4

  0
STYLE
  2
COMPLEX
 70
     0
 40
0.0
 41
1.0
 50
0.0
 71
     0
 42
3.5
  3
complex
  4

  0
STYLE
  2
ITALIC
 70
     0
 40
0.0
 41
1.0
 50
0.0
 71
     0
 42
3.5
  3
italic
  4

  0
ENDTAB
  0
TABLE
  2
VIEW
 70
     0
  0
ENDTAB
  0
TABLE
  2
UCS
 70
     0
  0
ENDTAB
  0
TABLE
  2
APPID
 70
     1
  0
APPID
  2
ACAD
 70
     0
  0
ENDTAB
  0
TABLE
  2
DIMSTYLE
 70
     1
  0
DIMSTYLE
  2
STANDARD
 70
     0
  3

  4

  5

  6

  7

 40
1.0
 41
0.18
 42
0.0625
 43
0.38
 44
0.18
 45
0.0
 46
0.0
 47
0.0
 48
0.0
140
0.18
141
0.09
142
0.0
143
25.399999999999999
144
1.0
145
0.0
146
1.0
147
0.09
 71
     0
 72
     0
 73
     1
 74
     1
 75
     0
 76
     0
 77
     0
 78
     0
170
     0
171
     2
172
     0
173
     0
174
     0
175
     0
176
     0
177
     0
178
     0
  0
ENDTAB
  0
ENDSEC
  0
SECTION
  2
BLOCKS
  0
BLOCK
  8
0
  2
$MODEL_SPACE
 70
     0
 10
0.0
 20
0.0
 30
0.0
  3
$MODEL_SPACE
  1

  0
ENDBLK
  5
20
  8
0
  0
BLOCK
 67
     1
  8
0
  2
$PAPER_SPACE
 70
     0
 10
0.0
 20
0.0
 30
0.0
  3
$PAPER_SPACE
  1

  0
ENDBLK
  5
1C
 67
     1
  8
0
  0
ENDSEC
  0
SECTION
  2
ENTITIES
  0
LINE
  5
33
  8
1
 62
     7
 10
-1066.7994277884079
 20
-569.7726293943158
 30
0.0
 11
-1066.7994277884079
 21
-689.77671936385377
 31
0.0
  0
LINE
  5
34
  8
1
 62
     7
 10
-1064.399427788408
 20
-581.77262939431591
 30
0.0
 11
-1066.213641350781
 21
-579.95841583194272
 31
0.0
  0
LINE
  5
35
  8
1
 62
     7
 10
-1075.499427788408
 20
-568.77262939431591
 30
0.0
 11
-1075.499427788408
 21
-580.77262939431591
 31
0.0
  0
LINE
  5
36
  8
1
 62
     7
 10
-1083.499427788408
 20
-559.77262939431591
 30
0.0
 11
-1083.499427788408
 21
-699.77262939431569
 31
0.0
  0
LINE
  5
37
  8
1
 62
     7
 10
-1078.899427788408
 20
-699.77262939431569
 30
0.0
 11
-1078.0994277884081
 21
-699.77262939431569
 31
0.0
  0
LINE
  5
38
  8
1
 62
     7
 10
-1081.499427788408
 20
-562.09705706528189
 30
0.0
 11
-1081.499427788408
 21
-697.44820172334971
 31
0.0
  0
LINE
  5
39
  8
1
 62
     7
 10
-1078.899427788408
 20
-559.77262939431591
 30
0.0
 11
-1078.0994277884081
 21
-559.77262939431591
 31
0.0
  0
LINE
  5
3A
  8
1
 62
     7
 10
-1104.5994277884081
 20
-560.77262939431591
 30
0.0
 11
-1104.5994277884081
 21
-698.77262939431591
 31
0.0
  0
LINE
  5
3B
  8
1
 62
     7
 10
-1115.699814007653
 20
-531.62262939431582
 30
0.0
 11
-1115.699814007653
 21
-536.62262939431571
 31
0.0
  0
LINE
  5
3C
  8
1
 62
     7
 10
-1115.199814007653
 20
-531.62262939431582
 30
0.0
 11
-1115.199814007653
 21
-536.62262939431571
 31
0.0
  0
LINE
  5
3D
  8
1
 62
     7
 10
-1114.6998140076521
 20
-531.62262939431582
 30
0.0
 11
-1114.6998140076521
 21
-536.62262939431571
 31
0.0
  0
LINE
  5
3E
  8
1
 62
     7
 10
-1116.199814007653
 20
-536.62262939431571
 30
0.0
 11
-1114.199814007653
 21
-536.62262939431571
 31
0.0
  0
LINE
  5
3F
  8
1
 62
     7
 10
-1116.199814007653
 20
-536.62262939431571
 30
0.0
 11
-1116.199814007653
 21
-563.62262939431582
 31
0.0
  0
LINE
  5
40
  8
1
 62
     7
 10
-1114.199814007653
 20
-536.62262939431571
 30
0.0
 11
-1114.199814007653
 21
-563.62262939431582
 31
0.0
  0
LINE
  5
41
  8
1
 62
     7
 10
-998.10942778840797
 20
-531.62262939431582
 30
0.0
 11
-998.10942778840797
 21
-536.62262939431571
 31
0.0
  0
LINE
  5
42
  8
1
 62
     7
 10
-997.60942778840808
 20
-531.62262939431582
 30
0.0
 11
-997.60942778840808
 21
-536.62262939431571
 31
0.0
  0
LINE
  5
43
  8
1
 62
     7
 10
-997.10942778840797
 20
-531.62262939431582
 30
0.0
 11
-997.10942778840797
 21
-536.62262939431571
 31
0.0
  0
LINE
  5
44
  8
1
 62
     7
 10
-998.60942778840808
 20
-536.62262939431571
 30
0.0
 11
-996.60942778840797
 21
-536.62262939431571
 31
0.0
  0
LINE
  5
45
  8
1
 62
     7
 10
-998.60942778840808
 20
-536.62262939431571
 30
0.0
 11
-998.60942778840808
 21
-563.62262939431582
 31
0.0
  0
LINE
  5
46
  8
1
 62
     7
 10
-996.60942778840797
 20
-536.62262939431571
 30
0.0
 11
-996.60942778840797
 21
-563.62262939431582
 31
0.0
  0
LINE
  5
47
  8
1
  6
DASHDOT
 62
     3
 10
-942.80904156916267
 20
-660.77262939431591
 30
0.0
 11
-965.36343443216072
 21
-660.77262939431591
 31
0.0
  0
LINE
  5
48
  8
1
 62
     3
 10
-957.80904156916279
 20
-657.7726293943158
 30
0.0
 11
-958.84827205370436
 21
-658.37262939431582
 31
0.0
  0
LINE
  5
49
  8
1
 62
     3
 10
-957.80904156916279
 20
-663.77262939431591
 30
0.0
 11
-958.84827205370436
 21
-663.17262939431589
 31
0.0
  0
LINE
  5
4A
  8
1
 62
     3
 10
-957.80904156916279
 20
-657.7726293943158
 30
0.0
 11
-945.80904156916267
 21
-657.7726293943158
 31
0.0
  0
LINE
  5
4B
  8
1
 62
     3
 10
-957.80904156916279
 20
-663.77262939431591
 30
0.0
 11
-957.80904156916279
 21
-657.7726293943158
 31
0.0
  0
LINE
  5
4C
  8
1
 62
     3
 10
-945.80904156916267
 20
-663.77262939431591
 30
0.0
 11
-957.80904156916279
 21
-663.77262939431591
 31
0.0
  0
LINE
  5
4D
  8
1
 62
     7
 10
-964.34109237673181
 20
-660.77262939431591
 30
0.0
 11
-962.60904156916286
 21
-658.37262939431582
 31
0.0
  0
LINE
  5
4E
  8
1
 62
     7
 10
-962.60904156916286
 20
-663.17262939431589
 30
0.0
 11
-964.34109237673181
 21
-660.77262939431591
 31
0.0
  0
LINE
  5
4F
  8
1
 62
     7
 10
-962.60904156916286
 20
-658.37262939431582
 30
0.0
 11
-945.80904156916267
 21
-658.37262939431582
 31
0.0
  0
LINE
  5
50
  8
1
 62
     7
 10
-962.60904156916286
 20
-663.17262939431589
 30
0.0
 11
-962.60904156916286
 21
-658.37262939431582
 31
0.0
  0
LINE
  5
51
  8
1
 62
     7
 10
-945.80904156916267
 20
-663.17262939431589
 30
0.0
 11
-962.60904156916286
 21
-663.17262939431589
 31
0.0
  0
LINE
  5
52
  8
1
 62
     7
 10
-943.50904156916306
 20
-669.77262939431569
 30
0.0
 11
-945.80904156916267
 21
-669.7726293943158
 31
0.0
  0
LINE
  5
53
  8
1
 62
     7
 10
-945.80904156916267
 20
-654.77262939431557
 30
0.0
 11
-945.80904156916267
 21
-669.7726293943158
 31
0.0
  0
LINE
  5
54
  8
1
 62
     7
 10
-954.15904156916292
 20
-679.77262939431591
 30
0.0
 11
-947.80904156916301
 21
-679.77262939431591
 31
0.0
  0
LINE
  5
55
  8
1
 62
     7
 10
-946.80904156916301
 20
-581.77262939431591
 30
0.0
 11
-946.80904156916301
 21
-592.97262939431585
 31
0.0
  0
LINE
  5
56
  8
1
 62
     7
 10
-949.20904156916311
 20
-578.54420226956972
 30
0.0
 11
-949.20904156916311
 21
-577.77262939431591
 31
0.0
  0
LINE
  5
57
  8
1
 62
     7
 10
-946.80904156916301
 20
-581.77262939431591
 30
0.0
 11
-948.62325513153598
 21
-579.95841583194272
 31
0.0
  0
LINE
  5
58
  8
1
 62
     7
 10
-957.30904156916267
 20
-671.57262939431575
 30
0.0
 11
-957.30904156916267
 21
-690.7726293943158
 31
0.0
  0
LINE
  5
59
  8
1
 62
     7
 10
-956.10904156916263
 20
-671.77262939431591
 30
0.0
 11
-956.10904156916263
 21
-690.7726293943158
 31
0.0
  0
LINE
  5
5A
  8
1
 62
     7
 10
-957.30904156916267
 20
-671.77262939431591
 30
0.0
 11
-956.10904156916263
 21
-671.77262939431591
 31
0.0
  0
LINE
  5
5B
  8
1
 62
     7
 10
-957.30904156916267
 20
-690.7726293943158
 30
0.0
 11
-956.10904156916263
 21
-690.7726293943158
 31
0.0
  0
LINE
  5
5C
  8
1
 62
     7
 10
-953.50904156916295
 20
-670.57262939431575
 30
0.0
 11
-956.30904156916267
 21
-670.57262939431575
 31
0.0
  0
LINE
  5
5D
  8
1
 62
     7
 10
-946.30904156916279
 20
-669.37262939431571
 30
0.0
 11
-965.70904156916322
 21
-669.37262939431571
 31
0.0
  0
LINE
  5
5E
  8
1
 62
     7
 10
-958.50904156916306
 20
-671.57262939431575
 30
0.0
 11
-958.50904156916306
 21
-675.57262939431575
 31
0.0
  0
LINE
  5
5F
  8
1
 62
     7
 10
-960.50904156916306
 20
-677.77262939431591
 30
0.0
 11
-959.50904156916306
 21
-677.77262939431591
 31
0.0
  0
LINE
  5
60
  8
1
 62
     7
 10
-821.50904156916295
 20
-536.62262939431571
 30
0.0
 11
-821.50904156916295
 21
-559.80120665617233
 31
0.0
  0
LINE
  5
61
  8
1
 62
     7
 10
-820.00904156916295
 20
-614.27262939431591
 30
0.0
 11
-820.00904156916295
 21
-617.77262939431591
 31
0.0
  0
LINE
  5
62
  8
1
 62
     7
 10
-827.00904156916295
 20
-614.27262939431591
 30
0.0
 11
-820.00904156916295
 21
-614.27262939431591
 31
0.0
  0
LINE
  5
63
  8
1
 62
     7
 10
-827.00904156916295
 20
-617.77262939431591
 30
0.0
 11
-827.00904156916295
 21
-614.27262939431591
 31
0.0
  0
LINE
  5
64
  8
1
  6
DASHDOT
 62
     3
 10
-773.71154894743586
 20
-679.57012201604323
 30
0.0
 11
-767.21540687435095
 21
-686.06626408912825
 31
0.0
  0
LINE
  5
65
  8
1
  6
DASHDOT
 62
     3
 10
-873.30653419089015
 20
-679.570122016043
 30
0.0
 11
-879.80267626397483
 21
-686.06626408912825
 31
0.0
  0
LINE
  5
66
  8
1
  6
DASHDOT
 62
     3
 10
-873.30653419089015
 20
-579.97513677258848
 30
0.0
 11
-879.80267626397483
 21
-573.47899469950335
 31
0.0
  0
LINE
  5
67
  8
1
  6
DASHDOT
 62
     3
 10
-773.71154894743586
 20
-579.97513677258871
 30
0.0
 11
-767.21540687435095
 21
-573.47899469950335
 31
0.0
  0
LINE
  5
68
  8
1
 62
     7
 10
-770.56803666747987
 20
-696.27262939431591
 30
0.0
 11
-801.65154857476853
 21
-696.27262939431591
 31
0.0
  0
LINE
  5
69
  8
1
 62
     7
 10
-890.00904156916295
 20
-576.83162449263318
 30
0.0
 11
-890.00904156916295
 21
-607.91513639992149
 31
0.0
  0
LINE
  5
6A
  8
1
 62
     7
 10
-757.00904156916295
 20
-576.83162449263318
 30
0.0
 11
-757.00904156916295
 21
-607.91513639992149
 31
0.0
  0
LINE
  5
6B
  8
1
 62
     7
 10
-876.45004647084602
 20
-696.27262939431591
 30
0.0
 11
-845.36653456355702
 21
-696.27262939431591
 31
0.0
  0
LINE
  5
6C
  8
1
 62
     7
 10
-876.45004647084602
 20
-563.27262939431591
 30
0.0
 11
-845.36653456355737
 21
-563.27262939431591
 31
0.0
  0
LINE
  5
6D
  8
1
 62
     7
 10
-1010.5094277884079
 20
-696.27262939431591
 30
0.0
 11
-1008.109427788408
 21
-696.27262939431591
 31
0.0
  0
LINE
  5
6E
  8
1
 62
     7
 10
-1010.5094277884079
 20
-666.77262939431591
 30
0.0
 11
-1008.109427788408
 21
-666.77262939431591
 31
0.0
  0
LINE
  5
6F
  8
1
 62
     7
 10
-1010.5094277884079
 20
-592.77262939431591
 30
0.0
 11
-1008.109427788408
 21
-592.77262939431591
 31
0.0
  0
LINE
  5
70
  8
1
 62
     7
 10
-1010.5094277884079
 20
-557.52262939431591
 30
0.0
 11
-1008.109427788408
 21
-557.52262939431591
 31
0.0
  0
LINE
  5
71
  8
1
  6
DASHDOT
 62
     3
 10
-1011.769601982781
 20
-554.77262939431591
 30
0.0
 11
-1006.910270274846
 21
-554.77262939431591
 31
0.0
  0
LINE
  5
72
  8
1
 62
     7
 10
-1010.5094277884079
 20
-552.02262939431591
 30
0.0
 11
-1008.109427788408
 21
-552.02262939431591
 31
0.0
  0
LINE
  5
73
  8
1
 62
     7
 10
-1010.5094277884079
 20
-544.7726293943158
 30
0.0
 11
-1008.109427788408
 21
-544.7726293943158
 31
0.0
  0
LINE
  5
74
  8
1
 62
     7
 10
-1010.5094277884079
 20
-696.27262939431591
 30
0.0
 11
-1010.5094277884079
 21
-544.7726293943158
 31
0.0
  0
LINE
  5
75
  8
1
 62
     7
 10
-974.09904156916264
 20
-674.77262939431603
 30
0.0
 11
-974.09904156916264
 21
-654.27262939431557
 31
0.0
  0
LINE
  5
76
  8
1
 62
     7
 10
-974.09904156916264
 20
-674.77262939431603
 30
0.0
 11
-971.5090415691626
 21
-674.77262939431603
 31
0.0
  0
LINE
  5
77
  8
1
 62
     7
 10
-971.5090415691626
 20
-654.27262939431557
 30
0.0
 11
-971.5090415691626
 21
-699.77262939431591
 31
0.0
  0
LINE
  5
78
  8
1
 62
     7
 10
-986.00904156916283
 20
-699.77262939431591
 30
0.0
 11
-971.5090415691626
 21
-699.77262939431591
 31
0.0
  0
LINE
  5
79
  8
1
 62
     7
 10
-990.50904156916306
 20
-651.27262939431557
 30
0.0
 11
-990.50904156916306
 21
-608.27262939431591
 31
0.0
  0
LINE
  5
7A
  8
1
 62
     7
 10
-986.00904156916283
 20
-699.77262939431591
 30
0.0
 11
-987.00904156916283
 21
-698.77262939431591
 31
0.0
  0
LINE
  5
7B
  8
1
 62
     7
 10
-979.59904156916275
 20
-677.27262939431603
 30
0.0
 11
-978.00904156916283
 21
-677.27262939431603
 31
0.0
  0
LINE
  5
7C
  8
1
 62
     7
 10
-980.59904156916275
 20
-676.27262939431603
 30
0.0
 11
-980.59904156916275
 21
-673.27262939431603
 31
0.0
  0
LINE
  5
7D
  8
1
 62
     7
 10
-980.59904156916275
 20
-673.27262939431603
 30
0.0
 11
-978.10942778840808
 21
-673.27262939431603
 31
0.0
  0
LINE
  5
7E
  8
1
 62
     7
 10
-979.59904156916275
 20
-677.27262939431603
 30
0.0
 11
-980.59904156916275
 21
-676.27262939431603
 31
0.0
  0
LINE
  5
7F
  8
1
 62
     7
 10
-990.10942778840797
 20
-660.77262939431603
 30
0.0
 11
-974.09904156916264
 21
-660.77262939431603
 31
0.0
  0
LINE
  5
80
  8
1
 62
     7
 10
-996.50942778840749
 20
-667.172629394316
 30
0.0
 11
-1008.109427788408
 21
-667.172629394316
 31
0.0
  0
LINE
  5
81
  8
1
 62
     7
 10
-990.10942778840797
 20
-660.77262939431603
 30
0.0
 11
-996.50942778840749
 21
-667.172629394316
 31
0.0
  0
LINE
  5
82
  8
1
 62
     7
 10
-990.10942778840797
 20
-654.27262939431557
 30
0.0
 11
-990.10942778840797
 21
-660.77262939431603
 31
0.0
  0
LINE
  5
83
  8
1
 62
     7
 10
-996.50942778840749
 20
-667.172629394316
 30
0.0
 11
-996.50942778840749
 21
-592.37262939431582
 31
0.0
  0
LINE
  5
84
  8
1
 62
     7
 10
-1006.109427788408
 20
-695.922629394316
 30
0.0
 11
-1008.109427788408
 21
-693.922629394316
 31
0.0
  0
LINE
  5
85
  8
1
 62
     7
 10
-1008.109427788408
 20
-565.62262939431582
 30
0.0
 11
-1006.109427788408
 21
-563.62262939431582
 31
0.0
  0
LINE
  5
86
  8
1
 62
     7
 10
-990.10942778840797
 20
-598.77262939431591
 30
0.0
 11
-990.10942778840797
 21
-605.27262939431591
 31
0.0
  0
LINE
  5
87
  8
1
 62
     7
 10
-996.50942778840749
 20
-592.37262939431582
 30
0.0
 11
-990.10942778840797
 21
-598.77262939431591
 31
0.0
  0
LINE
  5
88
  8
1
 62
     7
 10
-1008.109427788408
 20
-592.37262939431582
 30
0.0
 11
-996.50942778840749
 21
-592.37262939431582
 31
0.0
  0
LINE
  5
89
  8
1
 62
     7
 10
-980.59904156916275
 20
-583.27262939431591
 30
0.0
 11
-979.59904156916275
 21
-582.2726293943158
 31
0.0
  0
LINE
  5
8A
  8
1
 62
     7
 10
-973.50904156916283
 20
-598.77262939431591
 30
0.0
 11
-990.10942778840797
 21
-598.77262939431591
 31
0.0
  0
LINE
  5
8B
  8
1
 62
     7
 10
-978.10942778840808
 20
-586.27262939431591
 30
0.0
 11
-980.59904156916275
 21
-586.27262939431591
 31
0.0
  0
LINE
  5
8C
  8
1
 62
     7
 10
-978.00904156916283
 20
-582.2726293943158
 30
0.0
 11
-978.00904156916283
 21
-563.27262939431591
 31
0.0
  0
LINE
  5
8D
  8
1
 62
     7
 10
-980.59904156916275
 20
-586.27262939431591
 30
0.0
 11
-980.59904156916275
 21
-583.27262939431591
 31
0.0
  0
LINE
  5
8E
  8
1
 62
     7
 10
-978.00904156916283
 20
-582.2726293943158
 30
0.0
 11
-979.59904156916275
 21
-582.2726293943158
 31
0.0
  0
LINE
  5
8F
  8
1
 62
     7
 10
-978.10942778840808
 20
-605.27262939431591
 30
0.0
 11
-978.10942778840808
 21
-586.27262939431591
 31
0.0
  0
LINE
  5
90
  8
1
 62
     7
 10
-987.00904156916283
 20
-560.77262939431591
 30
0.0
 11
-986.00904156916283
 21
-559.77262939431591
 31
0.0
  0
LINE
  5
91
  8
1
 62
     7
 10
-971.20904156916276
 20
-654.27262939431557
 30
0.0
 11
-971.20904156916276
 21
-674.77262939431569
 31
0.0
  0
LINE
  5
92
  8
1
 62
     7
 10
-945.80904156916267
 20
-654.77262939431557
 30
0.0
 11
-943.50904156916306
 21
-654.77262939431557
 31
0.0
  0
LINE
  5
93
  8
1
 62
     7
 10
-966.20904156916333
 20
-651.27262939431557
 30
0.0
 11
-990.50904156916306
 21
-651.27262939431557
 31
0.0
  0
LINE
  5
94
  8
1
 62
     7
 10
-945.80904156916267
 20
-654.77262939431557
 30
0.0
 11
-943.50904156916306
 21
-654.77262939431557
 31
0.0
  0
LINE
  5
95
  8
1
 62
     7
 10
-946.30904156916279
 20
-669.37262939431571
 30
0.0
 11
-945.80904156916267
 21
-668.8726293943156
 31
0.0
  0
LINE
  5
96
  8
1
 62
     7
 10
-945.80904156916267
 20
-654.77262939431557
 30
0.0
 11
-943.50904156916306
 21
-654.77262939431557
 31
0.0
  0
LINE
  5
97
  8
1
 62
     7
 10
-990.50904156916306
 20
-608.27262939431591
 30
0.0
 11
-966.50904156916306
 21
-608.27262939431591
 31
0.0
  0
LINE
  5
98
  8
1
 62
     7
 10
-945.80904156916267
 20
-604.77262939431591
 30
0.0
 11
-945.80904156916267
 21
-589.77262939431591
 31
0.0
  0
LINE
  5
99
  8
1
 62
     7
 10
-945.50904156916295
 20
-604.77262939431591
 30
0.0
 11
-945.50904156916295
 21
-654.77262939431557
 31
0.0
  0
LINE
  5
9A
  8
1
 62
     7
 10
-943.50904156916306
 20
-604.77262939431591
 30
0.0
 11
-945.80904156916267
 21
-604.77262939431591
 31
0.0
  0
LINE
  5
9B
  8
1
 62
     7
 10
-943.50904156916306
 20
-589.77262939431591
 30
0.0
 11
-943.50904156916306
 21
-669.77262939431569
 31
0.0
  0
LINE
  5
9C
  8
1
 62
     7
 10
-945.80904156916267
 20
-589.77262939431591
 30
0.0
 11
-943.50904156916306
 21
-589.77262939431591
 31
0.0
  0
LINE
  5
9D
  8
1
 62
     7
 10
-962.30904156916336
 20
-695.2726293943158
 30
0.0
 11
-960.50904156916306
 21
-695.2726293943158
 31
0.0
  0
LINE
  5
9E
  8
1
 62
     7
 10
-962.30904156916336
 20
-689.27262939431591
 30
0.0
 11
-960.50904156916306
 21
-689.27262939431591
 31
0.0
  0
LINE
  5
9F
  8
1
 62
     7
 10
-962.34669751197396
 20
-683.27262939431591
 30
0.0
 11
-960.50904156916306
 21
-683.27262939431591
 31
0.0
  0
LINE
  5
A0
  8
1
 62
     7
 10
-965.90904156916315
 20
-681.87262939431582
 30
0.0
 11
-965.90904156916315
 21
-690.672629394316
 31
0.0
  0
LINE
  5
A1
  8
1
 62
     7
 10
-963.60913237387797
 20
-683.27262939431591
 30
0.0
 11
-964.30904156916336
 21
-683.27262939431591
 31
0.0
  0
LINE
  5
A2
  8
1
 62
     7
 10
-963.60913237387797
 20
-677.27262939431591
 30
0.0
 11
-963.994554026066
 21
-677.24456849615478
 31
0.0
  0
LINE
  5
A3
  8
1
 62
     7
 10
-963.65104736412798
 20
-695.2726293943158
 30
0.0
 11
-964.06875197164595
 21
-695.22289096042527
 31
0.0
  0
LINE
  5
A4
  8
1
 62
     7
 10
-964.30904156916336
 20
-689.27262939431591
 30
0.0
 11
-963.65104736412798
 21
-689.27262939431591
 31
0.0
  0
LINE
  5
A5
  8
1
 62
     7
 10
-968.99904156916296
 20
-689.27262939431591
 30
0.0
 11
-968.99904156916296
 21
-695.2726293943158
 31
0.0
  0
LINE
  5
A6
  8
1
 62
     7
 10
-968.99904156916296
 20
-677.27262939431591
 30
0.0
 11
-968.99904156916296
 21
-683.27262939431591
 31
0.0
  0
LINE
  5
A7
  8
1
 62
     7
 10
-971.20904156916276
 20
-695.2726293943158
 30
0.0
 11
-968.99904156916296
 21
-695.2726293943158
 31
0.0
  0
LINE
  5
A8
  8
1
 62
     7
 10
-968.99904156916296
 20
-693.87262939431594
 30
0.0
 11
-964.30904156916336
 21
-693.87262939431594
 31
0.0
  0
LINE
  5
A9
  8
1
 62
     7
 10
-968.99904156916296
 20
-690.672629394316
 30
0.0
 11
-964.30904156916336
 21
-690.672629394316
 31
0.0
  0
LINE
  5
AA
  8
1
 62
     7
 10
-971.20904156916276
 20
-689.27262939431591
 30
0.0
 11
-968.99904156916296
 21
-689.27262939431591
 31
0.0
  0
LINE
  5
AB
  8
1
 62
     7
 10
-971.20904156916276
 20
-683.27262939431591
 30
0.0
 11
-968.99904156916296
 21
-683.27262939431591
 31
0.0
  0
LINE
  5
AC
  8
1
 62
     7
 10
-968.99904156916296
 20
-681.87262939431582
 30
0.0
 11
-964.30904156916336
 21
-681.87262939431582
 31
0.0
  0
LINE
  5
AD
  8
1
 62
     7
 10
-968.99904156916296
 20
-678.67262939431589
 30
0.0
 11
-964.30904156916336
 21
-678.67262939431589
 31
0.0
  0
LINE
  5
AE
  8
1
 62
     7
 10
-971.20904156916276
 20
-677.27262939431591
 30
0.0
 11
-968.99904156916296
 21
-677.27262939431591
 31
0.0
  0
LINE
  5
AF
  8
1
 62
     7
 10
-971.20904156916276
 20
-674.77262939431569
 30
0.0
 11
-971.20904156916276
 21
-699.77262939431569
 31
0.0
  0
LINE
  5
B0
  8
1
 62
     7
 10
-965.90904156916315
 20
-699.77262939431569
 30
0.0
 11
-971.20904156916276
 21
-699.77262939431569
 31
0.0
  0
LINE
  5
B1
  8
1
 62
     7
 10
-965.90904156916315
 20
-674.77262939431569
 30
0.0
 11
-971.20904156916276
 21
-674.77262939431569
 31
0.0
  0
LINE
  5
B2
  8
1
 62
     7
 10
-960.50904156916306
 20
-699.77262939431569
 30
0.0
 11
-960.50904156916306
 21
-672.77262939431557
 31
0.0
  0
LINE
  5
B3
  8
1
 62
     7
 10
-960.50904156916306
 20
-699.77262939431569
 30
0.0
 11
-961.30904156916301
 21
-699.77262939431569
 31
0.0
  0
LINE
  5
B4
  8
1
 62
     7
 10
-960.50904156916306
 20
-696.70598282869389
 30
0.0
 11
-962.30904156916336
 21
-696.70598282869389
 31
0.0
  0
LINE
  5
B5
  8
1
 62
     7
 10
-960.50904156916306
 20
-675.80511307729569
 30
0.0
 11
-962.30904156916336
 21
-675.80511307729569
 31
0.0
  0
LINE
  5
B6
  8
1
 62
     7
 10
-966.20904156916333
 20
-668.8726293943156
 30
0.0
 11
-966.20904156916333
 21
-651.27262939431557
 31
0.0
  0
LINE
  5
B7
  8
1
 62
     7
 10
-945.80904156916267
 20
-666.57262939431575
 30
0.0
 11
-966.20904156916333
 21
-666.57262939431575
 31
0.0
  0
LINE
  5
B8
  8
1
 62
     7
 10
-965.70904156916322
 20
-669.37262939431571
 30
0.0
 11
-966.20904156916333
 21
-668.8726293943156
 31
0.0
  0
LINE
  5
B9
  8
1
 62
     7
 10
-946.30904156916279
 20
-669.37262939431571
 30
0.0
 11
-945.80904156916267
 21
-668.8726293943156
 31
0.0
  0
LINE
  5
BA
  8
1
 62
     7
 10
-946.80904156916301
 20
-666.57262939431575
 30
0.0
 11
-946.80904156916301
 21
-678.7726293943158
 31
0.0
  0
LINE
  5
BB
  8
1
 62
     7
 10
-953.15904156916304
 20
-666.57262939431575
 30
0.0
 11
-953.15904156916304
 21
-672.81410211606135
 31
0.0
  0
LINE
  5
BC
  8
1
 62
     7
 10
-960.50904156916306
 20
-676.57262939431575
 30
0.0
 11
-959.50904156916306
 21
-676.57262939431575
 31
0.0
  0
LINE
  5
BD
  8
1
 62
     7
 10
-953.50904156916295
 20
-669.37262939431571
 30
0.0
 11
-953.50904156916295
 21
-670.57262939431575
 31
0.0
  0
LINE
  5
BE
  8
1
 62
     7
 10
-971.20904156916276
 20
-584.77262939431591
 30
0.0
 11
-971.20904156916276
 21
-605.27262939431591
 31
0.0
  0
LINE
  5
BF
  8
1
 62
     7
 10
-956.10902942270707
 20
-587.77262939431591
 30
0.0
 11
-957.30904156916267
 21
-587.76711457715976
 31
0.0
  0
LINE
  5
C0
  8
1
 62
     7
 10
-953.50904156916295
 20
-588.97262939431585
 30
0.0
 11
-953.50904156916295
 21
-590.17262939431578
 31
0.0
  0
LINE
  5
C1
  8
1
 62
     7
 10
-955.96636275761375
 20
-588.97262939431585
 30
0.0
 11
-953.50904156916295
 21
-588.97262939431585
 31
0.0
  0
LINE
  5
C2
  8
1
 62
     7
 10
-959.50904156916306
 20
-582.97262939431596
 30
0.0
 11
-960.50904156916306
 21
-582.97262939431596
 31
0.0
  0
LINE
  5
C3
  8
1
 62
     7
 10
-953.15904156916304
 20
-586.73115667257025
 30
0.0
 11
-953.15904156916304
 21
-592.97262939431585
 31
0.0
  0
LINE
  5
C4
  8
1
 62
     7
 10
-954.15904156916292
 20
-580.77262939431591
 30
0.0
 11
-954.15904156916292
 21
-585.77262939431591
 31
0.0
  0
LINE
  5
C5
  8
1
 62
     7
 10
-945.80904156916267
 20
-590.67262939431578
 30
0.0
 11
-946.30904156916279
 21
-590.17262939431578
 31
0.0
  0
LINE
  5
C6
  8
1
 62
     7
 10
-966.50904156916306
 20
-590.67262939431578
 30
0.0
 11
-966.00904156916317
 21
-590.17262939431578
 31
0.0
  0
LINE
  5
C7
  8
1
 62
     7
 10
-966.50904156916306
 20
-592.97262939431585
 30
0.0
 11
-945.80904156916267
 21
-592.97262939431585
 31
0.0
  0
LINE
  5
C8
  8
1
 62
     7
 10
-966.50904156916306
 20
-590.67262939431578
 30
0.0
 11
-966.50904156916306
 21
-608.27262939431591
 31
0.0
  0
LINE
  5
C9
  8
1
 62
     7
 10
-956.70904156916299
 20
-568.77262939431591
 30
0.0
 11
-956.70904156916299
 21
-571.77262939431591
 31
0.0
  0
LINE
  5
CA
  8
1
 62
     7
 10
-957.90904156916315
 20
-568.77262939431591
 30
0.0
 11
-957.90904156916315
 21
-571.77262939431591
 31
0.0
  0
LINE
  5
CB
  8
1
 62
     7
 10
-949.20904156916311
 20
-569.76853942477806
 30
0.0
 11
-949.20904156916311
 21
-571.77262939431591
 31
0.0
  0
LINE
  5
CC
  8
1
 62
     7
 10
-950.28248412490723
 20
-568.77262939431591
 30
0.0
 11
-957.90904156916315
 21
-568.77262939431591
 31
0.0
  0
LINE
  5
CD
  8
1
 62
     7
 10
-954.15904156916292
 20
-580.77262939431591
 30
0.0
 11
-960.50904156916306
 21
-580.77262939431591
 31
0.0
  0
LINE
  5
CE
  8
1
 62
     7
 10
-960.50904156916306
 20
-568.77262939431591
 30
0.0
 11
-957.90904156916315
 21
-568.77262939431591
 31
0.0
  0
LINE
  5
CF
  8
1
 62
     7
 10
-962.30904156916336
 20
-562.83927595993771
 30
0.0
 11
-960.50904156916306
 21
-562.83927595993771
 31
0.0
  0
LINE
  5
D0
  8
1
 62
     7
 10
-962.30904156916336
 20
-562.37262939431582
 30
0.0
 11
-962.30904156916336
 21
-571.77262939431591
 31
0.0
  0
LINE
  5
D1
  8
1
 62
     7
 10
-961.30904156916301
 20
-586.7726293943158
 30
0.0
 11
-960.50904156916306
 21
-586.7726293943158
 31
0.0
  0
LINE
  5
D2
  8
1
 62
     7
 10
-961.30904156916313
 20
-585.17262939431578
 30
0.0
 11
-960.50904156916306
 21
-585.17262939431578
 31
0.0
  0
LINE
  5
D3
  8
1
 62
     7
 10
-960.50904156916306
 20
-577.77262939431591
 30
0.0
 11
-960.50904156916306
 21
-586.7726293943158
 31
0.0
  0
LINE
  5
D4
  8
1
 62
     7
 10
-962.36981108462203
 20
-571.77262939431591
 30
0.0
 11
-962.36981108462203
 21
-577.77262939431591
 31
0.0
  0
LINE
  5
D5
  8
1
 62
     3
 10
-962.36981108462203
 20
-577.17262939431578
 30
0.0
 11
-963.40904156916315
 21
-577.77262939431591
 31
0.0
  0
LINE
  5
D6
  8
1
 62
     3
 10
-947.90904156916326
 20
-577.17262939431578
 30
0.0
 11
-962.36981108462203
 21
-577.17262939431578
 31
0.0
  0
LINE
  5
D7
  8
1
 62
     3
 10
-962.36981108462203
 20
-572.37262939431571
 30
0.0
 11
-963.40904156916315
 21
-571.77262939431591
 31
0.0
  0
LINE
  5
D8
  8
1
 62
     3
 10
-947.90904156916326
 20
-572.37262939431571
 30
0.0
 11
-962.36981108462203
 21
-572.37262939431571
 31
0.0
  0
LINE
  5
D9
  8
1
 62
     7
 10
-948.50904156916295
 20
-571.77262939431591
 30
0.0
 11
-948.50904156916295
 21
-577.77262939431591
 31
0.0
  0
LINE
  5
DA
  8
1
 62
     7
 10
-948.50904156916295
 20
-577.77262939431591
 30
0.0
 11
-963.90904156916326
 21
-577.77262939431591
 31
0.0
  0
LINE
  5
DB
  8
1
 62
     7
 10
-947.90904156916326
 20
-577.17262939431578
 30
0.0
 11
-948.50904156916295
 21
-577.77262939431591
 31
0.0
  0
LINE
  5
DC
  8
1
 62
     7
 10
-947.90904156916326
 20
-572.37262939431571
 30
0.0
 11
-947.90904156916326
 21
-577.17262939431578
 31
0.0
  0
LINE
  5
DD
  8
1
 62
     7
 10
-948.50904156916295
 20
-571.77262939431591
 30
0.0
 11
-947.90904156916326
 21
-572.37262939431571
 31
0.0
  0
LINE
  5
DE
  8
1
 62
     7
 10
-963.90904156916326
 20
-571.77262939431591
 30
0.0
 11
-948.50904156916295
 21
-571.77262939431591
 31
0.0
  0
LINE
  5
DF
  8
1
 62
     7
 10
-965.4360575233967
 20
-580.02262939431591
 30
0.0
 11
-964.20904156916311
 21
-580.02262939431591
 31
0.0
  0
LINE
  5
E0
  8
1
 62
     7
 10
-963.90904156916326
 20
-569.82262939431575
 30
0.0
 11
-963.90904156916326
 21
-579.72262939431596
 31
0.0
  0
LINE
  5
E1
  8
1
 62
     7
 10
-965.4360575233967
 20
-569.52262939431591
 30
0.0
 11
-964.20904156916311
 21
-569.52262939431591
 31
0.0
  0
LINE
  5
E2
  8
1
 62
     7
 10
-960.50904156916306
 20
-559.77262939431591
 30
0.0
 11
-960.50904156916306
 21
-571.77262939431591
 31
0.0
  0
LINE
  5
E3
  8
1
 62
     7
 10
-971.20904156916276
 20
-584.77262939431591
 30
0.0
 11
-965.90904156916315
 21
-584.77262939431591
 31
0.0
  0
LINE
  5
E4
  8
1
 62
     7
 10
-971.20904156916276
 20
-559.77262939431591
 30
0.0
 11
-965.90904156916315
 21
-559.77262939431591
 31
0.0
  0
LINE
  5
E5
  8
1
 62
     7
 10
-971.20904156916276
 20
-559.77262939431591
 30
0.0
 11
-971.20904156916276
 21
-584.77262939431591
 31
0.0
  0
LINE
  5
E6
  8
1
  6
DASHDOT
 62
     3
 10
-1010.5094277884079
 20
-629.77262939431591
 30
0.0
 11
-1013.5094277884079
 21
-629.77262939431591
 31
0.0
  0
LINE
  5
E7
  8
1
 62
     7
 10
-971.5090415691626
 20
-559.77262939431591
 30
0.0
 11
-986.00904156916283
 21
-559.77262939431591
 31
0.0
  0
LINE
  5
E8
  8
1
 62
     7
 10
-971.5090415691626
 20
-559.77262939431591
 30
0.0
 11
-971.5090415691626
 21
-605.27262939431591
 31
0.0
  0
LINE
  5
E9
  8
1
 62
     7
 10
-971.5090415691626
 20
-584.77262939431591
 30
0.0
 11
-973.50904156916283
 21
-584.77262939431591
 31
0.0
  0
LINE
  5
EA
  8
1
 62
     7
 10
-973.50904156916283
 20
-584.77262939431591
 30
0.0
 11
-973.50904156916283
 21
-605.27262939431591
 31
0.0
  0
LINE
  5
EB
  8
1
 62
     7
 10
-987.00904156916283
 20
-563.27262939431591
 30
0.0
 11
-987.00904156916283
 21
-560.77262939431591
 31
0.0
  0
LINE
  5
EC
  8
1
 62
     7
 10
-987.00904156916283
 20
-563.27262939431591
 30
0.0
 11
-978.00904156916283
 21
-563.27262939431591
 31
0.0
  0
LINE
  5
ED
  8
1
 62
     7
 10
-987.00904156916283
 20
-696.27262939431591
 30
0.0
 11
-987.00904156916283
 21
-698.77262939431591
 31
0.0
  0
LINE
  5
EE
  8
1
 62
     7
 10
-987.00904156916283
 20
-696.27262939431591
 30
0.0
 11
-978.00904156916283
 21
-696.27262939431591
 31
0.0
  0
LINE
  5
EF
  8
1
 62
     7
 10
-978.00904156916283
 20
-696.27262939431591
 30
0.0
 11
-978.00904156916283
 21
-677.27262939431603
 31
0.0
  0
LINE
  5
F0
  8
1
 62
     7
 10
-957.90904156916315
 20
-580.77262939431591
 30
0.0
 11
-957.90904156916315
 21
-577.77262939431591
 31
0.0
  0
LINE
  5
F1
  8
1
 62
     7
 10
-957.31416637611756
 20
-583.76687517672474
 30
0.0
 11
-956.11637289665532
 21
-583.76687517672474
 31
0.0
  0
LINE
  5
F2
  8
1
 62
     7
 10
-954.15904156916292
 20
-673.77262939431569
 30
0.0
 11
-954.15904156916292
 21
-679.77262939431591
 31
0.0
  0
LINE
  5
F3
  8
1
  6
DASHDOT
 62
     3
 10
-823.50904156916295
 20
-656.24950546621585
 30
0.0
 11
-823.50904156916295
 21
-666.05879161156872
 31
0.0
  0
LINE
  5
F4
  8
1
 62
     7
 10
-840.14437670707639
 20
-578.57433230496633
 30
0.0
 11
-842.35907822603474
 21
-571.75818190031123
 31
0.0
  0
LINE
  5
F5
  8
1
 62
     7
 10
-874.70733865851298
 20
-646.40796453222924
 30
0.0
 11
-881.52348906316695
 21
-648.62266605118748
 31
0.0
  0
LINE
  5
F6
  8
1
 62
     7
 10
-772.31074447981337
 20
-613.13729425640224
 30
0.0
 11
-765.49459407515826
 21
-610.92259273744389
 31
0.0
  0
LINE
  5
F7
  8
1
 62
     7
 10
-806.87370643124927
 20
-680.97092648366527
 30
0.0
 11
-804.65900491229081
 21
-687.78707688832026
 31
0.0
  0
LINE
  5
F8
  8
1
  6
DASHDOT
 62
     3
 10
-823.50904156916295
 20
-625.48410475817491
 30
0.0
 11
-823.50904156916295
 21
-634.06115403045681
 31
0.0
  0
LINE
  5
F9
  8
1
  6
DASHDOT
 62
     3
 10
-819.22051693302183
 20
-629.77262939431591
 30
0.0
 11
-827.79756620530395
 21
-629.77262939431591
 31
0.0
  0
LINE
  5
FA
  8
1
  6
DASHDOT
 62
     3
 10
-800.13095487372209
 20
-616.2752847475648
 30
0.0
 11
-793.06725178866895
 21
-612.19705386993382
 31
0.0
  0
LINE
  5
FB
  8
1
  6
DASHDOT
 62
     3
 10
-846.88712826460392
 20
-616.2752847475648
 30
0.0
 11
-853.95083134965682
 21
-612.19705386993382
 31
0.0
  0
LINE
  5
FC
  8
1
 62
     7
 10
-801.65154857476853
 20
-563.27262939431591
 30
0.0
 11
-770.56803666747987
 21
-563.27262939431591
 31
0.0
  0
LINE
  5
FD
  8
1
 62
     7
 10
-822.50904156916295
 20
-531.62262939431582
 30
0.0
 11
-822.50904156916295
 21
-536.62262939431571
 31
0.0
  0
LINE
  5
FE
  8
1
 62
     7
 10
-824.50904156916306
 20
-531.62262939431582
 30
0.0
 11
-824.50904156916306
 21
-536.62262939431571
 31
0.0
  0
LINE
  5
FF
  8
1
 62
     7
 10
-822.20904156916311
 20
-531.62262939431582
 30
0.0
 11
-822.20904156916311
 21
-536.62262939431571
 31
0.0
  0
LINE
  5
100
  8
1
 62
     7
 10
-821.90904156916304
 20
-531.62262939431582
 30
0.0
 11
-821.90904156916304
 21
-536.62262939431571
 31
0.0
  0
LINE
  5
101
  8
1
 62
     7
 10
-822.80904156916279
 20
-531.62262939431582
 30
0.0
 11
-822.80904156916279
 21
-536.62262939431571
 31
0.0
  0
LINE
  5
102
  8
1
 62
     7
 10
-823.10904156916286
 20
-531.62262939431582
 30
0.0
 11
-823.10904156916286
 21
-536.62262939431571
 31
0.0
  0
LINE
  5
103
  8
1
 62
     7
 10
-824.20904156916311
 20
-531.62262939431582
 30
0.0
 11
-824.20904156916311
 21
-536.62262939431571
 31
0.0
  0
LINE
  5
104
  8
1
 62
     7
 10
-823.90904156916315
 20
-531.62262939431582
 30
0.0
 11
-823.90904156916315
 21
-536.62262939431571
 31
0.0
  0
LINE
  5
105
  8
1
 62
     7
 10
-824.8090415691629
 20
-531.62262939431582
 30
0.0
 11
-824.8090415691629
 21
-536.62262939431571
 31
0.0
  0
LINE
  5
106
  8
1
 62
     7
 10
-825.10904156916286
 20
-531.62262939431582
 30
0.0
 11
-825.10904156916286
 21
-536.62262939431571
 31
0.0
  0
LINE
  5
107
  8
1
 62
     7
 10
-823.50904156916295
 20
-536.62262939431571
 30
0.0
 11
-823.50904156916295
 21
-559.77262939431591
 31
0.0
  0
LINE
  5
108
  8
1
 62
     7
 10
-825.50904156916306
 20
-559.80120665617233
 30
0.0
 11
-825.50904156916306
 21
-536.62262939431571
 31
0.0
  0
LINE
  5
109
  8
1
 62
     7
 10
-890.00904156916295
 20
-651.63012238871022
 30
0.0
 11
-890.00904156916295
 21
-682.71363429599865
 31
0.0
  0
LINE
  5
10A
  8
1
 62
     7
 10
-757.00904156916295
 20
-651.63012238871022
 30
0.0
 11
-757.00904156916295
 21
-682.71363429599865
 31
0.0
  0
LINE
  5
10B
  8
1
  6
DASHDOT
 62
     3
 10
-943.50904156916306
 20
-629.77262939431591
 30
0.0
 11
-940.20904156916311
 21
-629.77262939431591
 31
0.0
  0
LINE
  5
10C
  8
1
 62
     7
 10
-825.70904156916322
 20
-598.44262939431565
 30
0.0
 11
-825.70904156916322
 21
-599.10262939431573
 31
0.0
  0
LINE
  5
10D
  8
1
 62
     7
 10
-823.8390415691631
 20
-600.97262939431585
 30
0.0
 11
-823.17904156916279
 21
-600.97262939431585
 31
0.0
  0
LINE
  5
10E
  8
1
 62
     7
 10
-821.3090415691629
 20
-599.10262939431573
 30
0.0
 11
-821.3090415691629
 21
-598.44262939431565
 31
0.0
  0
LINE
  5
10F
  8
1
 62
     7
 10
-823.17904156916279
 20
-596.57262939431575
 30
0.0
 11
-823.8390415691631
 21
-596.57262939431575
 31
0.0
  0
LINE
  5
110
  8
1
 62
     7
 10
-849.54161746972966
 20
-647.34288528264165
 30
0.0
 11
-848.9700407032318
 21
-647.01288528264172
 31
0.0
  0
LINE
  5
111
  8
1
 62
     7
 10
-848.28557319815491
 20
-644.45841777756482
 30
0.0
 11
-848.61557319815506
 21
-643.88684101106708
 31
0.0
  0
LINE
  5
112
  8
1
 62
     7
 10
-851.17004070323185
 20
-643.20237350599007
 30
0.0
 11
-851.74161746972993
 21
-643.53237350599022
 31
0.0
  0
LINE
  5
113
  8
1
 62
     7
 10
-852.42608497480671
 20
-646.08684101106712
 30
0.0
 11
-852.09608497480656
 21
-646.65841777756475
 31
0.0
  0
LINE
  5
114
  8
1
 62
     7
 10
-795.27646566859607
 20
-643.53237350599022
 30
0.0
 11
-795.84804243509416
 21
-643.20237350599007
 31
0.0
  0
LINE
  5
115
  8
1
 62
     7
 10
-798.40250994017094
 20
-643.88684101106708
 30
0.0
 11
-798.7325099401711
 21
-644.45841777756482
 31
0.0
  0
LINE
  5
116
  8
1
 62
     7
 10
-798.04804243509432
 20
-647.01288528264172
 30
0.0
 11
-797.47646566859635
 21
-647.34288528264165
 31
0.0
  0
LINE
  5
117
  8
1
 62
     7
 10
-794.92199816351945
 20
-646.65841777756475
 30
0.0
 11
-794.59199816351941
 21
-646.08684101106712
 31
0.0
  0
LINE
  5
118
  8
1
 62
     7
 10
-956.11882531411266
 20
-587.77262939431591
 30
0.0
 11
-956.11882531411266
 21
-580.77262939431591
 31
0.0
  0
LINE
  5
119
  8
1
 62
     7
 10
-957.30904156916267
 20
-587.76711457715976
 30
0.0
 11
-957.30904156916267
 21
-580.77262939431591
 31
0.0
  0
LINE
  5
11A
  8
1
 62
     7
 10
-990.50904156916306
 20
-614.27262939431591
 30
0.0
 11
-945.50904156916295
 21
-614.27262939431591
 31
0.0
  0
LINE
  5
11B
  8
1
 62
     7
 10
-945.50904156916295
 20
-617.27262939431591
 30
0.0
 11
-990.50904156916306
 21
-617.27262939431591
 31
0.0
  0
LINE
  5
11C
  8
1
 62
     7
 10
-956.70904156916299
 20
-580.77262939431591
 30
0.0
 11
-956.70904156916299
 21
-577.77262939431591
 31
0.0
  0
LINE
  5
11D
  8
1
 62
     7
 10
-1008.109427788408
 20
-696.27262939431591
 30
0.0
 11
-1008.109427788408
 21
-544.7726293943158
 31
0.0
  0
LINE
  5
11E
  8
1
 62
     7
 10
-978.10942778840808
 20
-673.27262939431603
 30
0.0
 11
-978.10942778840808
 21
-654.27262939431557
 31
0.0
  0
LINE
  5
11F
  8
1
 62
     7
 10
-945.50904156916295
 20
-642.27262939431557
 30
0.0
 11
-990.50904156916306
 21
-642.27262939431557
 31
0.0
  0
LINE
  5
120
  8
1
 62
     7
 10
-962.30904156916336
 20
-677.27262939431591
 30
0.0
 11
-960.50904156916306
 21
-677.27262939431591
 31
0.0
  0
LINE
  5
121
  8
1
 62
     7
 10
-945.80904156916267
 20
-656.77262939431591
 30
0.0
 11
-943.50904156916306
 21
-656.77262939431591
 31
0.0
  0
LINE
  5
122
  8
1
 62
     7
 10
-943.50904156916306
 20
-664.77262939431591
 30
0.0
 11
-945.80904156916267
 21
-664.77262939431569
 31
0.0
  0
LINE
  5
123
  8
1
 62
     7
 10
-825.50904156916306
 20
-536.62262939431571
 30
0.0
 11
-821.50904156916295
 21
-536.62262939431571
 31
0.0
  0
LINE
  5
124
  8
1
 62
     7
 10
-1128.0998140076531
 20
-696.27262939431591
 30
0.0
 11
-1125.699814007653
 21
-696.27262939431591
 31
0.0
  0
LINE
  5
125
  8
1
  6
DASHDOT
 62
     3
 10
-1129.3599882020251
 20
-554.77262939431591
 30
0.0
 11
-1124.5006564940909
 21
-554.77262939431591
 31
0.0
  0
LINE
  5
126
  8
1
 62
     7
 10
-1128.0998140076531
 20
-544.7726293943158
 30
0.0
 11
-1125.699814007653
 21
-544.7726293943158
 31
0.0
  0
LINE
  5
127
  8
1
 62
     7
 10
-1128.0998140076531
 20
-696.27262939431591
 30
0.0
 11
-1128.0998140076531
 21
-544.7726293943158
 31
0.0
  0
LINE
  5
128
  8
1
 62
     7
 10
-1089.0994277884081
 20
-699.77262939431591
 30
0.0
 11
-1089.0994277884081
 21
-559.77262939431591
 31
0.0
  0
LINE
  5
129
  8
1
 62
     7
 10
-1103.5994277884081
 20
-699.77262939431591
 30
0.0
 11
-1089.0994277884081
 21
-699.77262939431591
 31
0.0
  0
LINE
  5
12A
  8
1
 62
     7
 10
-1103.5994277884081
 20
-699.77262939431591
 30
0.0
 11
-1104.5994277884081
 21
-698.77262939431591
 31
0.0
  0
LINE
  5
12B
  8
1
 62
     7
 10
-1123.699814007653
 20
-695.922629394316
 30
0.0
 11
-1125.699814007653
 21
-693.922629394316
 31
0.0
  0
LINE
  5
12C
  8
1
 62
     7
 10
-1125.699814007653
 20
-565.62262939431582
 30
0.0
 11
-1123.699814007653
 21
-563.62262939431582
 31
0.0
  0
LINE
  5
12D
  8
1
 62
     7
 10
-1104.5994277884081
 20
-560.77262939431591
 30
0.0
 11
-1103.5994277884081
 21
-559.77262939431591
 31
0.0
  0
LINE
  5
12E
  8
1
  6
DASHDOT
 62
     3
 10
-1128.0998140076531
 20
-629.77262939431591
 30
0.0
 11
-1131.0998140076531
 21
-629.77262939431591
 31
0.0
  0
LINE
  5
12F
  8
1
 62
     7
 10
-1089.0994277884081
 20
-559.77262939431591
 30
0.0
 11
-1103.5994277884081
 21
-559.77262939431591
 31
0.0
  0
LINE
  5
130
  8
1
 62
     7
 10
-1125.699814007653
 20
-696.27262939431591
 30
0.0
 11
-1125.699814007653
 21
-544.7726293943158
 31
0.0
  0
LINE
  5
131
  8
1
 62
     7
 10
-1104.5994277884081
 20
-695.922629394316
 30
0.0
 11
-1123.699814007653
 21
-695.922629394316
 31
0.0
  0
LINE
  5
132
  8
1
 62
     7
 10
-1104.5994277884081
 20
-563.62262939431582
 30
0.0
 11
-1123.699814007653
 21
-563.62262939431582
 31
0.0
  0
LINE
  5
133
  8
1
 62
     7
 10
-1073.893880762356
 20
-660.11694119126571
 30
0.0
 11
-1070.749427788407
 21
-660.11694119126571
 31
0.0
  0
LINE
  5
134
  8
1
 62
     7
 10
-1073.833905104615
 20
-657.37418953795623
 30
0.0
 11
-1070.749427788407
 21
-657.37418953795623
 31
0.0
  0
LINE
  5
135
  8
1
 62
     7
 10
-1073.8286960283381
 20
-602.19742372446274
 30
0.0
 11
-1070.749427788407
 21
-602.19742372446274
 31
0.0
  0
LINE
  5
136
  8
1
 62
     7
 10
-1073.7677960028329
 20
-599.40617255543941
 30
0.0
 11
-1070.749427788407
 21
-599.40617255543941
 31
0.0
  0
LINE
  5
137
  8
1
 62
     7
 10
-1074.302397725934
 20
-678.79886348242314
 30
0.0
 11
-1073.097573604952
 21
-623.7009541924748
 31
0.0
  0
LINE
  5
138
  8
1
 62
     7
 10
-1075.5021109302561
 20
-678.77262939431603
 30
0.0
 11
-1074.2994277884079
 21
-623.77262939431603
 31
0.0
  0
LINE
  5
139
  8
1
 62
     7
 10
-1078.0994277884081
 20
-677.77262939431569
 30
0.0
 11
-1077.0018172135351
 21
-677.77262939431569
 31
0.0
  0
LINE
  5
13A
  8
1
 62
     7
 10
-1071.0994277884081
 20
-669.37262939431571
 30
0.0
 11
-1071.0994277884081
 21
-670.57262939431575
 31
0.0
  0
LINE
  5
13B
  8
1
 62
     7
 10
-1071.0994277884081
 20
-670.57262939431575
 30
0.0
 11
-1073.556748976858
 21
-670.57262939431575
 31
0.0
  0
LINE
  5
13C
  8
1
 62
     7
 10
-1071.749427788408
 20
-673.77262939431603
 30
0.0
 11
-1071.749427788408
 21
-678.77262939431603
 31
0.0
  0
LINE
  5
13D
  8
1
 62
     7
 10
-1074.2994277884079
 20
-690.7726293943158
 30
0.0
 11
-1074.2994277884079
 21
-678.77262939431603
 31
0.0
  0
LINE
  5
13E
  8
1
 62
     7
 10
-1074.2994277884079
 20
-690.7726293943158
 30
0.0
 11
-1075.499427788408
 21
-690.7726293943158
 31
0.0
  0
LINE
  5
13F
  8
1
 62
     7
 10
-1067.872870344152
 20
-690.7726293943158
 30
0.0
 11
-1074.2994277884079
 21
-690.7726293943158
 31
0.0
  0
LINE
  5
140
  8
1
 62
     7
 10
-1076.499427788408
 20
-678.77262939431603
 30
0.0
 11
-1076.499427788408
 21
-690.7726293943158
 31
0.0
  0
LINE
  5
141
  8
1
 62
     7
 10
-1078.0994277884081
 20
-678.77262939431603
 30
0.0
 11
-1075.499427788408
 21
-678.77262939431603
 31
0.0
  0
LINE
  5
142
  8
1
 62
     7
 10
-1075.499427788408
 20
-690.7726293943158
 30
0.0
 11
-1078.0994277884081
 21
-690.7726293943158
 31
0.0
  0
LINE
  5
143
  8
1
 62
     7
 10
-1064.399427788408
 20
-669.37262939431571
 30
0.0
 11
-1063.399427788408
 21
-669.37262939431571
 31
0.0
  0
LINE
  5
144
  8
1
 62
     7
 10
-1070.749427788407
 20
-669.37262939431605
 30
0.0
 11
-1071.0994277884081
 21
-669.37262939431571
 31
0.0
  0
LINE
  5
145
  8
1
 62
     7
 10
-1071.749427788408
 20
-678.77262939431603
 30
0.0
 11
-1075.5021109302561
 21
-678.77262939431603
 31
0.0
  0
LINE
  5
146
  8
1
 62
     7
 10
-1070.749427788407
 20
-638.77262939431591
 30
0.0
 11
-1070.749427788407
 21
-672.81410211606135
 31
0.0
  0
LINE
  5
147
  8
1
 62
     7
 10
-1074.2994277884079
 20
-623.77262939431603
 30
0.0
 11
-1073.749427788408
 21
-623.77262939431603
 31
0.0
  0
LINE
  5
148
  8
1
 62
     7
 10
-1074.5612459702261
 20
-635.77262939431591
 30
0.0
 11
-1073.749427788408
 21
-635.77262939431591
 31
0.0
  0
LINE
  5
149
  8
1
 62
     7
 10
-1075.5021109302561
 20
-635.77262939431591
 30
0.0
 11
-1075.5021109302561
 21
-635.27262939431591
 31
0.0
  0
LINE
  5
14A
  8
1
 62
     7
 10
-1075.5021109302561
 20
-635.77262939431591
 30
0.0
 11
-1074.5612459702261
 21
-635.77262939431591
 31
0.0
  0
LINE
  5
14B
  8
1
 62
     7
 10
-1075.499427788408
 20
-635.27262939431591
 30
0.0
 11
-1078.0994277884081
 21
-635.27262939431591
 31
0.0
  0
LINE
  5
14C
  8
1
 62
     7
 10
-1078.0994277884081
 20
-624.2726293943158
 30
0.0
 11
-1075.499427788408
 21
-624.2726293943158
 31
0.0
  0
LINE
  5
14D
  8
1
 62
     7
 10
-1077.0018172135351
 20
-581.77262939431591
 30
0.0
 11
-1078.0994277884081
 21
-581.77262939431591
 31
0.0
  0
LINE
  5
14E
  8
1
 62
     7
 10
-1083.499427788408
 20
-699.77262939431569
 30
0.0
 11
-1088.7994277884079
 21
-699.77262939431569
 31
0.0
  0
LINE
  5
14F
  8
1
 62
     7
 10
-1078.0994277884081
 20
-699.77262939431569
 30
0.0
 11
-1078.0994277884081
 21
-559.77262939431591
 31
0.0
  0
LINE
  5
150
  8
1
 62
     7
 10
-1071.0994277884081
 20
-588.97262939431585
 30
0.0
 11
-1071.0994277884081
 21
-590.17262939431578
 31
0.0
  0
LINE
  5
151
  8
1
 62
     7
 10
-1073.556748976858
 20
-588.97262939431585
 30
0.0
 11
-1071.0994277884081
 21
-588.97262939431585
 31
0.0
  0
LINE
  5
152
  8
1
 62
     7
 10
-1071.749427788408
 20
-580.77262939431591
 30
0.0
 11
-1071.749427788408
 21
-585.77262939431591
 31
0.0
  0
LINE
  5
153
  8
1
 62
     7
 10
-1075.499427788408
 20
-568.77262939431591
 30
0.0
 11
-1074.2994277884079
 21
-568.77262939431591
 31
0.0
  0
LINE
  5
154
  8
1
 62
     7
 10
-1074.2994277884079
 20
-568.77262939431591
 30
0.0
 11
-1067.7994277884079
 21
-568.77262939431591
 31
0.0
  0
LINE
  5
155
  8
1
 62
     7
 10
-1074.5612459702261
 20
-580.77262939431591
 30
0.0
 11
-1078.0994277884081
 21
-580.77262939431591
 31
0.0
  0
LINE
  5
156
  8
1
 62
     7
 10
-1078.0994277884081
 20
-568.77262939431591
 30
0.0
 11
-1075.499427788408
 21
-568.77262939431591
 31
0.0
  0
LINE
  5
157
  8
1
 62
     7
 10
-1088.7994277884079
 20
-559.77262939431591
 30
0.0
 11
-1083.499427788408
 21
-559.77262939431591
 31
0.0
  0
LINE
  5
158
  8
1
 62
     7
 10
-1088.7994277884079
 20
-559.77262939431591
 30
0.0
 11
-1088.7994277884079
 21
-699.77262939431569
 31
0.0
  0
LINE
  5
159
  8
1
  6
DASHDOT
 62
     3
 10
-1061.0994277884081
 20
-629.77262939431591
 30
0.0
 11
-1058.0720001128141
 21
-629.77262939431591
 31
0.0
  0
LINE
  5
15A
  8
1
 62
     7
 10
-1078.0994277884081
 20
-623.77262939431603
 30
0.0
 11
-1075.499427788408
 21
-623.77262939431603
 31
0.0
  0
LINE
  5
15B
  8
1
 62
     7
 10
-1075.499427788408
 20
-623.77262939431603
 30
0.0
 11
-1075.499427788408
 21
-635.27262939431591
 31
0.0
  0
LINE
  5
15C
  8
1
 62
     7
 10
-1075.499427788408
 20
-623.77262939431603
 30
0.0
 11
-1074.2994277884079
 21
-568.77262939431591
 31
0.0
  0
LINE
  5
15D
  8
1
 62
     7
 10
-1074.2994277884079
 20
-623.77262939431603
 30
0.0
 11
-1073.0994277884081
 21
-568.77262939431591
 31
0.0
  0
LINE
  5
15E
  8
1
 62
     7
 10
-1071.0994277884081
 20
-590.17262939431578
 30
0.0
 11
-1070.749427788407
 21
-590.17262939431578
 31
0.0
  0
LINE
  5
15F
  8
1
 62
     7
 10
-1070.749427788407
 20
-620.77262939431603
 30
0.0
 11
-1070.749427788407
 21
-586.73115667257025
 31
0.0
  0
LINE
  5
160
  8
1
 62
     7
 10
-1073.361245970226
 20
-580.77262939431591
 30
0.0
 11
-1071.749427788408
 21
-580.77262939431591
 31
0.0
  0
LINE
  5
161
  8
1
 62
     7
 10
-1061.0994277884081
 20
-589.77262939431591
 30
0.0
 11
-1061.0994277884081
 21
-669.77262939431569
 31
0.0
  0
LINE
  5
162
  8
1
 62
     7
 10
-1063.399427788408
 20
-589.77262939431591
 30
0.0
 11
-1063.399427788408
 21
-669.77262939431569
 31
0.0
  0
LINE
  5
163
  8
1
 62
     7
 10
-1074.9045525953629
 20
-583.9344291152936
 30
0.0
 11
-1074.899427788408
 21
-587.76711457715976
 31
0.0
  0
LINE
  5
164
  8
1
 62
     7
 10
-1076.499427788408
 20
-624.2726293943158
 30
0.0
 11
-1076.499427788408
 21
-635.27262939431591
 31
0.0
  0
LINE
  5
165
  8
1
 62
     7
 10
-1075.5021109302561
 20
-678.77262939431603
 30
0.0
 11
-1075.499427788408
 21
-690.7726293943158
 31
0.0
  0
LINE
  5
166
  8
1
 62
     7
 10
-980.10942778840808
 20
-563.62262939431582
 30
0.0
 11
-1006.109427788408
 21
-563.62262939431582
 31
0.0
  0
LINE
  5
167
  8
1
 62
     7
 10
-980.10942778840808
 20
-563.62262939431582
 30
0.0
 11
-980.10942778840808
 21
-582.78301561356102
 31
0.0
  0
LINE
  5
168
  8
1
 62
     7
 10
-980.10942778840808
 20
-695.922629394316
 30
0.0
 11
-1006.109427788408
 21
-695.922629394316
 31
0.0
  0
LINE
  5
169
  8
1
 62
     7
 10
-980.10942778840808
 20
-695.922629394316
 30
0.0
 11
-980.10942778840808
 21
-676.76224317507092
 31
0.0
  0
LINE
  5
16A
  8
1
 62
     7
 10
-960.50904156916306
 20
-559.77262939431591
 30
0.0
 11
-961.30904156916301
 21
-559.77262939431591
 31
0.0
  0
LINE
  5
16B
  8
1
 62
     7
 10
-965.90904156916315
 20
-559.77262939431591
 30
0.0
 11
-965.90904156916315
 21
-569.58244296559428
 31
0.0
  0
LINE
  5
16C
  8
1
 62
     7
 10
-961.30904156916313
 20
-561.37262939431582
 30
0.0
 11
-960.50904156916363
 21
-561.37262939431582
 31
0.0
  0
LINE
  5
16D
  8
1
 62
     7
 10
-962.30904156916336
 20
-584.17262939431589
 30
0.0
 11
-962.30904156916336
 21
-577.77262939431591
 31
0.0
  0
LINE
  5
16E
  8
1
 62
     7
 10
-962.30904156916336
 20
-583.74014571133603
 30
0.0
 11
-960.50904156916306
 21
-583.74014571133603
 31
0.0
  0
LINE
  5
16F
  8
1
 62
     7
 10
-965.90904156916315
 20
-579.96281582303732
 30
0.0
 11
-965.90904156916315
 21
-588.97262939431585
 31
0.0
  0
LINE
  5
170
  8
1
 62
     7
 10
-963.90904156916292
 20
-562.09705706528189
 30
0.0
 11
-963.90904156916292
 21
-584.44820172334983
 31
0.0
  0
LINE
  5
171
  8
1
 62
     7
 10
-965.90904156916315
 20
-693.87262939431594
 30
0.0
 11
-965.90904156916315
 21
-699.77262939431569
 31
0.0
  0
LINE
  5
172
  8
1
 62
     7
 10
-961.30904156916313
 20
-698.17262939431566
 30
0.0
 11
-960.50904156916363
 21
-698.17262939431566
 31
0.0
  0
LINE
  5
173
  8
1
 62
     7
 10
-960.50904156916306
 20
-672.77262939431557
 30
0.0
 11
-961.30904156916301
 21
-672.77262939431557
 31
0.0
  0
LINE
  5
174
  8
1
 62
     7
 10
-965.90904156916315
 20
-670.57262939431575
 30
0.0
 11
-965.90904156916315
 21
-678.67262939431589
 31
0.0
  0
LINE
  5
175
  8
1
 62
     7
 10
-960.50904156916306
 20
-674.37262939431571
 30
0.0
 11
-961.30904156916313
 21
-674.37262939431571
 31
0.0
  0
LINE
  5
176
  8
1
 62
     7
 10
-962.30904156916336
 20
-697.17262939431578
 30
0.0
 11
-962.30904156916336
 21
-675.37262939431571
 31
0.0
  0
LINE
  5
177
  8
1
 62
     7
 10
-964.30904156916336
 20
-677.97262939431585
 30
0.0
 11
-964.30904156916336
 21
-694.57262939431575
 31
0.0
  0
LINE
  5
178
  8
1
 62
     7
 10
-960.50904156916306
 20
-581.77262939431591
 30
0.0
 11
-959.50904156916306
 21
-581.77262939431591
 31
0.0
  0
LINE
  5
179
  8
1
 62
     7
 10
-958.50904156916306
 20
-583.97262939431607
 30
0.0
 11
-958.50904156916306
 21
-587.97262939431585
 31
0.0
  0
LINE
  5
17A
  8
1
 62
     7
 10
-966.00904156916317
 20
-590.17262939431578
 30
0.0
 11
-946.30904156916279
 21
-590.17262939431578
 31
0.0
  0
LINE
  5
17B
  8
1
 62
     7
 10
-1064.399427788408
 20
-590.17262939431578
 30
0.0
 11
-1063.399427788408
 21
-590.17262939431578
 31
0.0
  0
LINE
  5
17C
  8
1
 62
     7
 10
-1063.399427788408
 20
-589.77262939431591
 30
0.0
 11
-1061.0994277884081
 21
-589.77262939431591
 31
0.0
  0
LINE
  5
17D
  8
1
 62
     7
 10
-1063.399427788408
 20
-669.77262939431569
 30
0.0
 11
-1061.0994277884081
 21
-669.77262939431569
 31
0.0
  0
LINE
  5
17E
  8
1
 62
     7
 10
-1064.399427788408
 20
-629.77262939431591
 30
0.0
 11
-1064.399427788408
 21
-581.77262939431591
 31
0.0
  0
LINE
  5
17F
  8
1
 62
     7
 10
-1064.399427788408
 20
-677.77262939431591
 30
0.0
 11
-1064.399427788408
 21
-629.77262939431591
 31
0.0
  0
LINE
  5
180
  8
1
 62
     7
 10
-1066.213641350781
 20
-679.586842956689
 30
0.0
 11
-1064.399427788408
 21
-677.77262939431591
 31
0.0
  0
LINE
  5
181
  8
1
 62
     7
 10
-1065.499427788408
 20
-572.37262939431571
 30
0.0
 11
-1065.499427788408
 21
-577.17262939431578
 31
0.0
  0
LINE
  5
182
  8
1
 62
     7
 10
-1066.0994277884081
 20
-571.77262939431591
 30
0.0
 11
-1066.0994277884081
 21
-577.77262939431591
 31
0.0
  0
LINE
  5
183
  8
1
 62
     7
 10
-1066.0994277884081
 20
-571.77262939431591
 30
0.0
 11
-1065.499427788408
 21
-572.37262939431571
 31
0.0
  0
LINE
  5
184
  8
1
 62
     7
 10
-1065.499427788408
 20
-577.17262939431578
 30
0.0
 11
-1066.0994277884081
 21
-577.77262939431591
 31
0.0
  0
LINE
  5
185
  8
1
 62
     3
 10
-1065.499427788408
 20
-577.17262939431578
 30
0.0
 11
-1066.7994277884079
 21
-577.17262939431578
 31
0.0
  0
LINE
  5
186
  8
1
 62
     7
 10
-1066.0994277884081
 20
-577.77262939431591
 30
0.0
 11
-1066.7994277884079
 21
-577.77262939431591
 31
0.0
  0
LINE
  5
187
  8
1
 62
     3
 10
-1065.499427788408
 20
-572.37262939431571
 30
0.0
 11
-1066.7994277884079
 21
-572.37262939431571
 31
0.0
  0
LINE
  5
188
  8
1
 62
     7
 10
-1066.7994277884079
 20
-571.77262939431591
 30
0.0
 11
-1066.0994277884081
 21
-571.77262939431591
 31
0.0
  0
LINE
  5
189
  8
1
 62
     7
 10
-1065.499427788408
 20
-627.37262939431582
 30
0.0
 11
-1065.499427788408
 21
-632.17262939431578
 31
0.0
  0
LINE
  5
18A
  8
1
 62
     7
 10
-1066.0994277884081
 20
-626.77262939431591
 30
0.0
 11
-1066.0994277884081
 21
-632.7726293943158
 31
0.0
  0
LINE
  5
18B
  8
1
 62
     7
 10
-1066.0994277884081
 20
-626.77262939431591
 30
0.0
 11
-1065.499427788408
 21
-627.37262939431582
 31
0.0
  0
LINE
  5
18C
  8
1
 62
     7
 10
-1065.499427788408
 20
-632.17262939431578
 30
0.0
 11
-1066.0994277884081
 21
-632.7726293943158
 31
0.0
  0
LINE
  5
18D
  8
1
 62
     3
 10
-1065.499427788408
 20
-632.17262939431578
 30
0.0
 11
-1066.7994277884079
 21
-632.17262939431578
 31
0.0
  0
LINE
  5
18E
  8
1
 62
     7
 10
-1066.0994277884081
 20
-632.7726293943158
 30
0.0
 11
-1066.7994277884079
 21
-632.7726293943158
 31
0.0
  0
LINE
  5
18F
  8
1
 62
     3
 10
-1065.499427788408
 20
-627.37262939431582
 30
0.0
 11
-1066.7994277884079
 21
-627.37262939431582
 31
0.0
  0
LINE
  5
190
  8
1
 62
     7
 10
-1066.7994277884079
 20
-626.77262939431591
 30
0.0
 11
-1066.0994277884081
 21
-626.77262939431591
 31
0.0
  0
LINE
  5
191
  8
1
 62
     7
 10
-1065.499427788408
 20
-682.37262939431582
 30
0.0
 11
-1065.499427788408
 21
-687.17262939431589
 31
0.0
  0
LINE
  5
192
  8
1
 62
     7
 10
-1066.0994277884081
 20
-681.77262939431591
 30
0.0
 11
-1066.0994277884081
 21
-687.77262939431591
 31
0.0
  0
LINE
  5
193
  8
1
 62
     7
 10
-1066.0994277884081
 20
-681.77262939431591
 30
0.0
 11
-1065.499427788408
 21
-682.37262939431582
 31
0.0
  0
LINE
  5
194
  8
1
 62
     7
 10
-1065.499427788408
 20
-687.17262939431589
 30
0.0
 11
-1066.0994277884081
 21
-687.77262939431591
 31
0.0
  0
LINE
  5
195
  8
1
 62
     3
 10
-1065.499427788408
 20
-687.17262939431589
 30
0.0
 11
-1066.7994277884079
 21
-687.17262939431589
 31
0.0
  0
LINE
  5
196
  8
1
 62
     7
 10
-1066.0994277884081
 20
-687.77262939431591
 30
0.0
 11
-1066.7994277884079
 21
-687.77262939431591
 31
0.0
  0
LINE
  5
197
  8
1
 62
     3
 10
-1065.499427788408
 20
-682.37262939431582
 30
0.0
 11
-1066.7994277884079
 21
-682.37262939431582
 31
0.0
  0
LINE
  5
198
  8
1
 62
     7
 10
-1066.7994277884079
 20
-681.77262939431591
 30
0.0
 11
-1066.0994277884081
 21
-681.77262939431591
 31
0.0
  0
ARC
  5
199
  8
1
 62
     7
 10
-823.50904156916295
 20
-629.77262939431591
 30
0.0
 40
12.5
 50
106.260204708312
 51
73.739795291688054
  0
ARC
  5
19A
  8
1
 62
     7
 10
-823.50904156916295
 20
-629.77262939431591
 30
0.0
 40
85.000000000000185
 50
128.5234838094166
 51
141.47651619058351
  0
ARC
  5
19B
  8
1
 62
     7
 10
-823.50904156916295
 20
-629.77262939431591
 30
0.0
 40
84.999999999999986
 50
218.52348380941629
 51
231.47651619058351
  0
ARC
  5
19C
  8
1
 62
     7
 10
-823.50904156916295
 20
-629.77262939431591
 30
0.0
 40
85.000000000000185
 50
308.52348380941658
 51
321.4765161905836
  0
ARC
  5
19D
  8
1
 62
     7
 10
-823.50904156916295
 20
-629.77262939431591
 30
0.0
 40
84.999999999999986
 50
38.52348380941639
 51
51.476516190583432
  0
ARC
  5
19E
  8
1
 62
     7
 10
-967.43853312737474
 20
-692.27262939431591
 30
0.0
 40
4.8316713885360389
 50
321.61788246438982
 51
38.382117535610213
  0
ARC
  5
19F
  8
1
 62
     7
 10
-967.6264504661267
 20
-680.27262939431591
 30
0.0
 40
5.0138652409403548
 50
323.24884359561429
 51
36.751156404385682
  0
ARC
  5
1A0
  8
1
 62
     7
 10
-953.99471445777499
 20
-672.94316926498198
 30
0.0
 40
0.8455811644612388
 50
258.79404553791659
 51
8.7797877416141432
  0
ARC
  5
1A1
  8
1
 62
     7
 10
-955.99210834435576
 20
-587.65082222430306
 30
0.0
 40
1.3220578769229121
 50
185.04643841112181
 51
271.11584124874628
  0
ARC
  5
1A2
  8
1
 62
     7
 10
-953.99471445777499
 20
-586.60208952364974
 30
0.0
 40
0.8455811644611738
 50
351.2202122583858
 51
101.2059544620834
  0
ARC
  5
1A3
  8
1
 62
     7
 10
-950.1818568824491
 20
-569.74062877259303
 30
0.0
 40
0.9732156175635272
 50
358.35660069834529
 51
95.934799026228688
  0
ARC
  5
1A4
  8
1
 62
     7
 10
-953.80904156916336
 20
-574.7726293943158
 30
0.0
 40
14.000000000000041
 50
163.92714083117741
 51
196.0728591688225
  0
ARC
  5
1A5
  8
1
 62
     7
 10
-882.32921925676271
 20
-603.11897385356735
 30
0.0
 40
14.57732308547385
 50
295.27621950513958
 51
335.622915149275
  0
ARC
  5
1A6
  8
1
 62
     7
 10
-869.50904156916295
 20
-629.77262939431591
 30
0.0
 40
15.00000000000016
 50
116.0865045196114
 51
180.0
  0
ARC
  5
1A7
  8
1
 62
     7
 10
-807.33285125025543
 20
-569.4022652512491
 30
0.0
 40
3.499999999999984
 50
318.16462338822708
 51
191.83537661177289
  0
ARC
  5
1A8
  8
1
 62
     7
 10
-779.31486774500365
 20
-585.57845557015673
 30
0.0
 40
3.4999999999999081
 50
288.16462338822907
 51
161.83537661177081
  0
ARC
  5
1A9
  8
1
 62
     7
 10
-763.13867742609614
 20
-645.94881971322332
 30
0.0
 40
3.4999999999999929
 50
228.16462338822981
 51
101.83537661176889
  0
ARC
  5
1AA
  8
1
 62
     7
 10
-779.31486774500365
 20
-673.96680321847498
 30
0.0
 40
3.4999999999999432
 50
198.16462338823081
 51
71.835376611769149
  0
ARC
  5
1AB
  8
1
 62
     7
 10
-839.68523188807046
 20
-690.14299353738284
 30
0.0
 40
3.4999999999999929
 50
138.1646233882297
 51
11.83537661176892
  0
ARC
  5
1AC
  8
1
 62
     7
 10
-867.70321539332201
 20
-673.96680321847498
 30
0.0
 40
3.4999999999998712
 50
108.1646233882272
 51
341.83537661176672
  0
ARC
  5
1AD
  8
1
 62
     7
 10
-867.70321539332201
 20
-585.57845557015673
 30
0.0
 40
3.4999999999996181
 50
18.16462338823262
 51
251.83537661177331
  0
ARC
  5
1AE
  8
1
 62
     7
 10
-823.50904156916295
 20
-629.77262939431591
 30
0.0
 40
61.000000000000007
 50
288.00000000000011
 51
0.0
  0
ARC
  5
1AF
  8
1
 62
     7
 10
-823.50904156916295
 20
-629.77262939431591
 30
0.0
 40
61.00000000000022
 50
18.00000000000005
 51
90.0
  0
ARC
  5
1B0
  8
1
 62
     7
 10
-823.50904156916295
 20
-629.77262939431591
 30
0.0
 40
61.000000000000149
 50
107.9999999999997
 51
180.0
  0
ARC
  5
1B1
  8
1
 62
     7
 10
-823.50904156916295
 20
-629.77262939431591
 30
0.0
 40
60.999999999999623
 50
198.0
 51
270.0
  0
ARC
  5
1B2
  8
1
 62
     7
 10
-850.16269710991128
 20
-570.95245170671603
 30
0.0
 40
14.577323085474021
 50
294.37708485072562
 51
334.72378049486008
  0
ARC
  5
1B3
  8
1
 62
     7
 10
-823.50904156916295
 20
-583.77262939431591
 30
0.0
 40
15.000000000000229
 50
90.0
 51
153.913495480389
  0
ARC
  5
1B4
  8
1
 62
     7
 10
-796.8553860284145
 20
-570.95245170671603
 30
0.0
 40
14.5773230854739
 50
205.27621950514001
 51
245.62291514927409
  0
ARC
  5
1B5
  8
1
 62
     7
 10
-823.50904156916295
 20
-583.77262939431591
 30
0.0
 40
15.000000000000069
 50
26.08650451961072
 51
90.0
  0
ARC
  5
1B6
  8
1
 62
     7
 10
-869.50904156916295
 20
-629.77262939431591
 30
0.0
 40
15.000000000000229
 50
180.0
 51
243.91349548038841
  0
ARC
  5
1B7
  8
1
 62
     7
 10
-882.32921925676271
 20
-656.42628493506425
 30
0.0
 40
14.57732308547434
 50
24.377084850725051
 51
64.723780494860378
  0
ARC
  5
1B8
  8
1
 62
     7
 10
-823.50904156916295
 20
-675.77262939431603
 30
0.0
 40
15.000000000000069
 50
206.08650451961071
 51
270.0
  0
ARC
  5
1B9
  8
1
 62
     7
 10
-850.16269710991151
 20
-688.59280708191591
 30
0.0
 40
14.5773230854739
 50
25.27621950514002
 51
65.62291514927422
  0
ARC
  5
1BA
  8
1
 62
     7
 10
-823.50904156916295
 20
-675.77262939431603
 30
0.0
 40
14.999999999999551
 50
270.0
 51
333.91349548038932
  0
ARC
  5
1BB
  8
1
 62
     7
 10
-796.85538602841461
 20
-688.59280708191591
 30
0.0
 40
14.577323085474021
 50
114.3770848507255
 51
154.72378049485999
  0
ARC
  5
1BC
  8
1
 62
     7
 10
-777.50904156916272
 20
-629.77262939431603
 30
0.0
 40
15.000000000000069
 50
296.08650451961063
 51
0.0
  0
ARC
  5
1BD
  8
1
 62
     7
 10
-764.68886388156295
 20
-656.42628493506447
 30
0.0
 40
14.5773230854739
 50
115.27621950513991
 51
155.62291514927409
  0
ARC
  5
1BE
  8
1
 62
     7
 10
-777.50904156916272
 20
-629.77262939431603
 30
0.0
 40
14.99999999999989
 50
0.0
 51
63.913495480389102
  0
ARC
  5
1BF
  8
1
 62
     7
 10
-764.68886388156295
 20
-603.1189738535677
 30
0.0
 40
14.577323085474021
 50
204.37708485072551
 51
244.72378049486011
  0
ARC
  5
1C0
  8
1
  6
DASHDOT
 62
     3
 10
-823.50904156916295
 20
-629.77262939431591
 30
0.0
 40
74.999999999999659
 50
41.811651865670619
 51
48.10088374863227
  0
ARC
  5
1C1
  8
1
  6
DASHDOT
 62
     3
 10
-823.50904156916295
 20
-629.77262939431591
 30
0.0
 40
74.999999999999659
 50
131.8116518656706
 51
138.10088374863221
  0
ARC
  5
1C2
  8
1
  6
DASHDOT
 62
     3
 10
-823.50904156916295
 20
-629.77262939431591
 30
0.0
 40
74.999999999999815
 50
221.8116518656706
 51
228.10088374863221
  0
ARC
  5
1C3
  8
1
  6
DASHDOT
 62
     3
 10
-823.50904156916295
 20
-629.77262939431591
 30
0.0
 40
74.999999999999815
 50
311.81165186567063
 51
318.10088374863221
  0
ARC
  5
1C4
  8
1
 62
     7
 10
-825.70904156916322
 20
-596.57262939431575
 30
0.0
 40
1.8700000000000041
 50
270.0
 51
0.0
  0
ARC
  5
1C5
  8
1
 62
     7
 10
-825.70904156916322
 20
-600.97262939431585
 30
0.0
 40
1.8700000000000041
 50
0.0
 51
90.0
  0
ARC
  5
1C6
  8
1
 62
     7
 10
-821.3090415691629
 20
-600.97262939431585
 30
0.0
 40
1.8700000000000041
 50
90.0
 51
180.0
  0
ARC
  5
1C7
  8
1
 62
     7
 10
-821.3090415691629
 20
-596.57262939431575
 30
0.0
 40
1.8700000000000041
 50
180.0
 51
270.0
  0
ARC
  5
1C8
  8
1
  6
DASHDOT
 62
     3
 10
-823.50904156916295
 20
-629.77262939431591
 30
0.0
 40
31.000000000000188
 50
22.321887187700739
 51
37.678112812299439
  0
ARC
  5
1C9
  8
1
  6
DASHDOT
 62
     3
 10
-823.50904156916295
 20
-629.77262939431591
 30
0.0
 40
31.000000000000259
 50
142.32188718770081
 51
157.6781128122993
  0
ARC
  5
1CA
  8
1
  6
DASHDOT
 62
     3
 10
-823.50904156916295
 20
-629.77262939431591
 30
0.0
 40
31.000000000000188
 50
262.32188718770061
 51
277.67811281229928
  0
ARC
  5
1CB
  8
1
 62
     7
 10
-851.16108497480639
 20
-648.27788528264171
 30
0.0
 40
1.869999999999977
 50
30.00000000000248
 51
120.0000000000007
  0
ARC
  5
1CC
  8
1
 62
     7
 10
-847.35057319815496
 20
-646.07788528264166
 30
0.0
 40
1.870000000000019
 50
119.9999999999977
 51
209.99999999999949
  0
ARC
  5
1CD
  8
1
 62
     7
 10
-849.55057319815501
 20
-642.26737350599012
 30
0.0
 40
1.869999999999977
 50
210.0000000000025
 51
300.00000000000068
  0
ARC
  5
1CE
  8
1
 62
     7
 10
-853.36108497480654
 20
-644.46737350599005
 30
0.0
 40
1.870000000000019
 50
299.99999999999761
 51
29.99999999999946
  0
ARC
  5
1CF
  8
1
 62
     7
 10
-793.65699816351935
 20
-644.46737350599005
 30
0.0
 40
1.8699999999999211
 50
150.0000000000004
 51
240.0000000000023
  0
ARC
  5
1D0
  8
1
 62
     7
 10
-797.467509940171
 20
-642.26737350599012
 30
0.0
 40
1.8700000000000769
 50
239.99999999999929
 51
329.99999999999739
  0
ARC
  5
1D1
  8
1
 62
     7
 10
-799.66750994017104
 20
-646.07788528264166
 30
0.0
 40
1.8699999999999211
 50
330.00000000000063
 51
60.000000000002288
  0
ARC
  5
1D2
  8
1
 62
     7
 10
-795.85699816351939
 20
-648.27788528264171
 30
0.0
 40
1.8700000000000769
 50
59.999999999999282
 51
149.9999999999975
  0
ARC
  5
1D3
  8
1
 62
     7
 10
-877.33398311069959
 20
-638.32398414372062
 30
0.0
 40
8.4999999999997957
 50
287.99999999999733
 51
302.8665214614058
  0
ARC
  5
1D4
  8
1
 62
     7
 10
-814.95768681975824
 20
-683.59757093585256
 30
0.0
 40
8.5000000000001865
 50
18.00000000000048
 51
32.866521461405817
  0
ARC
  5
1D5
  8
1
 62
     7
 10
-769.6841000276263
 20
-621.22127464491132
 30
0.0
 40
8.5000000000002274
 50
107.99999999999871
 51
122.8665214614057
  0
ARC
  5
1D6
  8
1
 62
     7
 10
-832.06039631856754
 20
-575.94768785277927
 30
0.0
 40
8.4999999999999734
 50
197.99999999999849
 51
212.86652146140591
  0
ARC
  5
1D7
  8
1
 62
     7
 10
-883.8794057122301
 20
-613.59643907540828
 30
0.0
 40
3.5000000000004481
 50
48.16462338822155
 51
281.83537661177508
  0
ARC
  5
1D8
  8
1
 62
     7
 10
-1073.5824945636009
 20
-671.89443656432866
 30
0.0
 40
1.322057876922909
 50
88.884158751263456
 51
114.2294414856223
  0
ARC
  5
1D9
  8
1
 62
     7
 10
-1077.603935420208
 20
-675.09025802999827
 30
0.0
 40
2.7491203085565949
 50
282.6516049370689
 51
321.27476092277237
  0
ARC
  5
1DA
  8
1
 62
     7
 10
-1071.5851006770199
 20
-672.94316926498198
 30
0.0
 40
0.845581164461462
 50
258.7940455379196
 51
8.7797877416141432
  0
ARC
  5
1DB
  8
1
 62
     7
 10
-1067.7722431016939
 20
-689.8046300160388
 30
0.0
 40
0.973215617563552
 50
264.06520097375801
 51
1.643399301655099
  0
ARC
  5
1DC
  8
1
 62
     7
 10
-1077.603935420208
 20
-584.45500075863356
 30
0.0
 40
2.7491203085565958
 50
10.91539914991202
 51
77.348395062931189
  0
ARC
  5
1DD
  8
1
 62
     7
 10
-1071.5851006770199
 20
-586.60208952364974
 30
0.0
 40
0.8455811644611738
 50
351.2202122583858
 51
101.2059544620834
  0
ARC
  5
1DE
  8
1
 62
     7
 10
-1073.5824945636009
 20
-587.65082222430306
 30
0.0
 40
1.3220578769229121
 50
185.04643841112181
 51
210.1410463343864
  0
ARC
  5
1DF
  8
1
 62
     7
 10
-964.20904156916311
 20
-579.72262939431596
 30
0.0
 40
0.2999999999999545
 50
270.0
 51
0.0
  0
ARC
  5
1E0
  8
1
 62
     7
 10
-964.20904156916311
 20
-569.82262939431575
 30
0.0
 40
0.2999999999999545
 50
0.0
 51
90.0
  0
ARC
  5
1E1
  8
1
 62
     7
 10
-965.4360575233967
 20
-578.12262939431582
 30
0.0
 40
1.900000000000073
 50
196.07285916882159
 51
270.0
  0
ARC
  5
1E2
  8
1
 62
     7
 10
-965.4360575233967
 20
-571.42262939431578
 30
0.0
 40
1.8999999999999759
 50
90.0
 51
163.92714083117829
  0
ARC
  5
1E3
  8
1
 62
     7
 10
-1073.749427788408
 20
-620.77262939431603
 30
0.0
 40
3.0
 50
270.0
 51
0.0
  0
ARC
  5
1E4
  8
1
 62
     7
 10
-1073.749427788408
 20
-638.77262939431591
 30
0.0
 40
3.0
 50
0.0
 51
90.0
  0
ARC
  5
1E5
  8
1
 62
     7
 10
-964.06910833251675
 20
-697.16017112141174
 30
0.0
 40
1.760110854470774
 50
359.59445030635408
 51
64.41631610981068
  0
ARC
  5
1E6
  8
1
 62
     7
 10
-964.06910833251675
 20
-675.38508766721975
 30
0.0
 40
1.7601108544707449
 50
295.58368389018932
 51
0.4055496936458697
  0
CIRCLE
  5
1E7
  8
1
 62
     7
 10
-850.35582908648053
 20
-614.27262939431591
 30
0.0
 40
4.0000000000001128
  0
CIRCLE
  5
1E8
  8
1
 62
     7
 10
-796.66225405184537
 20
-614.27262939431591
 30
0.0
 40
4.0
  0
CIRCLE
  5
1E9
  8
1
 62
     7
 10
-823.50904156916295
 20
-660.77262939431569
 30
0.0
 40
4.0
  0
CIRCLE
  5
1EA
  8
1
 62
     7
 10
-770.47603298017202
 20
-682.80563798330695
 30
0.0
 40
2.75
  0
CIRCLE
  5
1EB
  8
1
 62
     7
 10
-876.54205015815387
 20
-682.80563798330672
 30
0.0
 40
2.75
  0
CIRCLE
  5
1EC
  8
1
 62
     7
 10
-876.54205015815387
 20
-576.73962080532476
 30
0.0
 40
2.75
  0
CIRCLE
  5
1ED
  8
1
 62
     7
 10
-770.47603298017202
 20
-576.73962080532488
 30
0.0
 40
2.75
  0
CIRCLE
  5
1EE
  8
1
 62
     7
 10
-878.50904156916295
 20
-629.77262939431591
 30
0.0
 40
3.0
  0
CIRCLE
  5
1EF
  8
1
 62
     7
 10
-878.50904156916295
 20
-629.77262939431591
 30
0.0
 40
2.0
  0
CIRCLE
  5
1F0
  8
1
 62
     7
 10
-763.13867742609614
 20
-613.59643907540828
 30
0.0
 40
3.5
  0
CIRCLE
  5
1F1
  8
1
 62
     7
 10
-807.33285125025543
 20
-690.14299353738284
 30
0.0
 40
3.5
  0
CIRCLE
  5
1F2
  8
1
 62
     7
 10
-883.8794057122301
 20
-645.94881971322332
 30
0.0
 40
3.4999999999998859
  0
CIRCLE
  5
1F3
  8
1
 62
     7
 10
-839.68523188807046
 20
-569.4022652512491
 30
0.0
 40
3.5
  0
CIRCLE
  5
1F4
  8
1
 62
     7
 10
-823.50904156916295
 20
-629.77262939431591
 30
0.0
 40
50.0
  0
CIRCLE
  5
1F5
  8
1
 62
     7
 10
-823.50904156916295
 20
-574.7726293943158
 30
0.0
 40
3.0
  0
CIRCLE
  5
1F6
  8
1
 62
     7
 10
-823.50904156916295
 20
-574.7726293943158
 30
0.0
 40
2.0
  0
CIRCLE
  5
1F7
  8
1
 62
     7
 10
-878.50904156916295
 20
-629.77262939431591
 30
0.0
 40
2.0
  0
CIRCLE
  5
1F8
  8
1
 62
     7
 10
-878.50904156916295
 20
-629.77262939431591
 30
0.0
 40
3.0
  0
CIRCLE
  5
1F9
  8
1
 62
     7
 10
-823.50904156916295
 20
-684.77262939431603
 30
0.0
 40
2.0
  0
CIRCLE
  5
1FA
  8
1
 62
     7
 10
-823.50904156916295
 20
-684.77262939431603
 30
0.0
 40
3.0
  0
CIRCLE
  5
1FB
  8
1
 62
     7
 10
-768.50904156916272
 20
-629.77262939431603
 30
0.0
 40
2.0
  0
CIRCLE
  5
1FC
  8
1
 62
     7
 10
-768.50904156916272
 20
-629.77262939431603
 30
0.0
 40
3.0
  0
CIRCLE
  5
1FD
  8
1
 62
     3
 10
-796.66225405184537
 20
-614.27262939431591
 30
0.0
 40
3.0
  0
CIRCLE
  5
1FE
  8
1
 62
     7
 10
-796.66225405184537
 20
-614.27262939431591
 30
0.0
 40
2.0
  0
CIRCLE
  5
1FF
  8
1
  6
DASHDOT
 62
     3
 10
-850.35582908648053
 20
-614.27262939431591
 30
0.0
 40
3.0
  0
CIRCLE
  5
200
  8
1
  6
DASHDOT
 62
     3
 10
-823.50904156916295
 20
-660.77262939431569
 30
0.0
 40
3.0
  0
CIRCLE
  5
201
  8
1
 62
     7
 10
-850.35582908648053
 20
-614.27262939431591
 30
0.0
 40
2.0
  0
CIRCLE
  5
202
  8
1
 62
     7
 10
-823.50904156916295
 20
-660.77262939431569
 30
0.0
 40
2.0000000000001141
  0
CIRCLE
  5
203
  8
1
 62
     7
 10
-823.50904156916295
 20
-629.77262939431591
 30
0.0
 40
67.000000000000085
  0
CIRCLE
  5
204
  8
1
 62
     7
 10
-823.50904156916295
 20
-629.77262939431591
 30
0.0
 40
68.399999999999977
  0
CIRCLE
  5
205
  8
1
 62
     7
 10
-823.50904156916295
 20
-629.77262939431591
 30
0.0
 40
25.0
  0
CIRCLE
  5
206
  8
1
 62
     7
 10
-823.50904156916295
 20
-629.77262939431591
 30
0.0
 40
40.0
  0
CIRCLE
  5
207
  8
1
 62
     7
 10
-823.50904156916295
 20
-598.77262939431569
 30
0.0
 40
4.0
  0
CIRCLE
  5
208
  8
1
 62
     7
 10
-850.35582908648075
 20
-645.27262939431603
 30
0.0
 40
3.9999999999998859
  0
CIRCLE
  5
209
  8
1
 62
     7
 10
-796.66225405184525
 20
-645.2726293943158
 30
0.0
 40
3.9999999999998859
  0
CIRCLE
  5
20A
  8
1
 62
     7
 10
-823.50904156916295
 20
-629.77262939431591
 30
0.0
 40
70.0
  0
ARC
  5
20B
  8
1
 62
     7
 10
-1064.7994277884079
 20
-578.54420226956961
 30
0.0
 40
2.0
 50
180.0
 51
225.0
  0
ARC
  5
20C
  8
1
 62
     7
 10
-1067.7994277884079
 20
-569.7726293943158
 30
0.0
 40
1.0
 50
0.0
 51
90.0
  0
ARC
  5
20D
  8
1
 62
     7
 10
-1081.965686112834
 20
-697.62876521606984
 30
0.0
 40
0.4999999999996509
 50
8.4612555976498722
 51
79.251207570094451
  0
ARC
  5
20E
  8
1
 62
     7
 10
-1081.499427788408
 20
-695.17262939431566
 30
0.0
 40
2.0
 50
180.0
 51
259.2512075700601
  0
ARC
  5
20F
  8
1
 62
     7
 10
-1078.899427788408
 20
-697.17262939431578
 30
0.0
 40
2.600000000000104
 50
188.46125559764809
 51
270.0
  0
ARC
  5
210
  8
1
 62
     7
 10
-1081.965686112834
 20
-561.91649357256188
 30
0.0
 40
0.5000000000000485
 50
280.74879242990551
 51
351.53874440235018
  0
ARC
  5
211
  8
1
 62
     7
 10
-1081.499427788408
 20
-564.37262939431582
 30
0.0
 40
1.99999999999996
 50
100.7487924299399
 51
180.0
  0
ARC
  5
212
  8
1
 62
     7
 10
-1078.899427788408
 20
-562.37262939431582
 30
0.0
 40
2.6000000000000218
 50
90.0
 51
171.53874440235191
  0
ARC
  5
213
  8
1
 62
     7
 10
-947.80904156916301
 20
-678.7726293943158
 30
0.0
 40
1.0
 50
270.0
 51
0.0
  0
ARC
  5
214
  8
1
 62
     7
 10
-947.20904156916311
 20
-578.54420226956972
 30
0.0
 40
2.0
 50
180.0
 51
225.0
  0
ARC
  5
215
  8
1
 62
     7
 10
-956.30904156916267
 20
-671.57262939431575
 30
0.0
 40
1.0
 50
90.0
 51
180.0
  0
ARC
  5
216
  8
1
 62
     7
 10
-956.30904156916267
 20
-671.57262939431575
 30
0.0
 40
2.200000000000045
 50
90.0
 51
180.0
  0
ARC
  5
217
  8
1
 62
     7
 10
-959.50904156916306
 20
-675.57262939431575
 30
0.0
 40
0.9999999999998864
 50
270.0
 51
0.0
  0
ARC
  5
218
  8
1
 62
     7
 10
-959.50904156916306
 20
-675.57262939431575
 30
0.0
 40
2.200000000000045
 50
270.0
 51
0.0
  0
ARC
  5
219
  8
1
 62
     7
 10
-961.30904156916301
 20
-562.37262939431582
 30
0.0
 40
2.6000000000000218
 50
90.0
 51
171.5387444023514
  0
ARC
  5
21A
  8
1
 62
     7
 10
-963.90904156916292
 20
-564.37262939431582
 30
0.0
 40
1.99999999999996
 50
100.7487924299399
 51
180.0
  0
ARC
  5
21B
  8
1
 62
     7
 10
-964.37529989358927
 20
-561.91649357256188
 30
0.0
 40
0.500000000000091
 50
280.74879242993097
 51
351.53874440235779
  0
ARC
  5
21C
  8
1
 62
     7
 10
-961.30904156916301
 20
-562.37262939431582
 30
0.0
 40
1.0
 50
90.0
 51
180.0
  0
ARC
  5
21D
  8
1
 62
     7
 10
-961.30904156916301
 20
-584.17262939431589
 30
0.0
 40
2.5999999999999912
 50
188.46125559764849
 51
270.0
  0
ARC
  5
21E
  8
1
 62
     7
 10
-961.30904156916301
 20
-584.17262939431589
 30
0.0
 40
1.000000000000113
 50
180.0
 51
270.0
  0
ARC
  5
21F
  8
1
 62
     7
 10
-963.90904156916292
 20
-582.17262939431578
 30
0.0
 40
2.0
 50
180.0
 51
259.2512075700601
  0
ARC
  5
220
  8
1
 62
     7
 10
-964.37529989358927
 20
-584.62876521606995
 30
0.0
 40
0.5000000000001008
 50
8.4612555976422037
 51
79.251207570068857
  0
ARC
  5
221
  8
1
 62
     7
 10
-961.30904156916301
 20
-697.17262939431578
 30
0.0
 40
2.5999999999999912
 50
188.46125559764849
 51
270.0
  0
ARC
  5
222
  8
1
 62
     7
 10
-963.90904156916292
 20
-695.17262939431566
 30
0.0
 40
2.0
 50
180.0
 51
259.2512075700601
  0
ARC
  5
223
  8
1
 62
     7
 10
-964.37529989358927
 20
-697.62876521606984
 30
0.0
 40
0.5000000000001008
 50
8.4612555976422037
 51
79.251207570068857
  0
ARC
  5
224
  8
1
 62
     7
 10
-961.30904156916301
 20
-697.17262939431578
 30
0.0
 40
1.000000000000113
 50
180.0
 51
270.0
  0
ARC
  5
225
  8
1
 62
     7
 10
-963.30904156916336
 20
-694.57262939431575
 30
0.0
 40
1.0
 50
180.0
 51
270.0
  0
ARC
  5
226
  8
1
 62
     7
 10
-961.30904156916301
 20
-675.37262939431571
 30
0.0
 40
2.6000000000000218
 50
90.0
 51
171.5387444023514
  0
ARC
  5
227
  8
1
 62
     7
 10
-963.90904156916292
 20
-677.3726293943156
 30
0.0
 40
1.99999999999996
 50
100.7487924299399
 51
180.0
  0
ARC
  5
228
  8
1
 62
     7
 10
-964.37529989358927
 20
-674.91649357256165
 30
0.0
 40
0.500000000000091
 50
280.74879242993097
 51
351.53874440235779
  0
ARC
  5
229
  8
1
 62
     7
 10
-961.30904156916301
 20
-675.37262939431571
 30
0.0
 40
1.0
 50
90.0
 51
180.0
  0
ARC
  5
22A
  8
1
 62
     7
 10
-963.30904156916336
 20
-677.97262939431585
 30
0.0
 40
1.0
 50
90.0
 51
180.0
  0
ARC
  5
22B
  8
1
 62
     7
 10
-959.50904156916306
 20
-583.97262939431607
 30
0.0
 40
1.0
 50
0.0
 51
90.0
  0
ARC
  5
22C
  8
1
 62
     7
 10
-959.50904156916306
 20
-583.97262939431607
 30
0.0
 40
2.200000000000045
 50
0.0
 51
90.0
  0
ARC
  5
22D
  8
1
 62
     7
 10
-956.30904156916267
 20
-587.97262939431585
 30
0.0
 40
2.200000000000045
 50
180.0
 51
270.0
  0
ARC
  5
22E
  8
1
 62
     7
 10
-1064.7994277884079
 20
-681.00105651906222
 30
0.0
 40
2.0000000000000151
 50
135.0
 51
180.0
  0
TEXT
  5
22F
  8
1
 62
     7
 10
-1107.2282472570901
 20
-475.86589744888698
 30
0.0
 40
6.0
  1
MSB 5
 41
0.9
  7
SIMPLEX
  0
ENDSEC
  0
EOF
