  0
SECTION
  2
HEADER
  9
$ACADVER
  1
AC1009
  9
$INSBASE
 10
0.0
 20
0.0
 30
0.0
  9
$EXTMIN
 10
-607.16200114836977
 20
-128.1167999390255
 30
0.0
  9
$EXTMAX
 10
291.14208048662289
 20
376.72172368703588
 30
0.0
  9
$LIMMIN
 10
-607.16200114836977
 20
-127.1641087455674
  9
$LIMMAX
 10
291.14208048662277
 20
376.72172368703588
  9
$ORTHOMODE
 70
     0
  9
$REGENMODE
 70
     1
  9
$FILLMODE
 70
     1
  9
$QTEXTMODE
 70
     0
  9
$MIRRTEXT
 70
     1
  9
$DRAGMODE
 70
     2
  9
$LTSCALE
 40
1.0
  9
$OSMODE
 70
    37
  9
$ATTMODE
 70
     1
  9
$TEXTSIZE
 40
3.5
  9
$TRACEWID
 40
0.5
  9
$TEXTSTYLE
  7
STANDARD
  9
$CLAYER
  8
0
  9
$CELTYPE
  6
BYLAYER
  9
$CECOLOR
 62
   256
  9
$DIMSCALE
 40
1.0
  9
$DIMASZ
 40
0.18
  9
$DIMEXO
 40
0.0625
  9
$DIMDLI
 40
0.38
  9
$DIMRND
 40
0.0
  9
$DIMDLE
 40
0.0
  9
$DIMEXE
 40
0.18
  9
$DIMTP
 40
0.0
  9
$DIMTM
 40
0.0
  9
$DIMTXT
 40
0.18
  9
$DIMCEN
 40
0.09
  9
$DIMTSZ
 40
0.0
  9
$DIMTOL
 70
     0
  9
$DIMLIM
 70
     0
  9
$DIMTIH
 70
     1
  9
$DIMTOH
 70
     1
  9
$DIMSE1
 70
     0
  9
$DIMSE2
 70
     0
  9
$DIMTAD
 70
     0
  9
$DIMZIN
 70
     0
  9
$DIMBLK
  1

  9
$DIMASO
 70
     1
  9
$DIMSHO
 70
     1
  9
$DIMPOST
  1

  9
$DIMAPOST
  1

  9
$DIMALT
 70
     0
  9
$DIMALTD
 70
     2
  9
$DIMALTF
 40
25.399999999999999
  9
$DIMLFAC
 40
1.0
  9
$DIMTOFL
 70
     0
  9
$DIMTVP
 40
0.0
  9
$DIMTIX
 70
     0
  9
$DIMSOXD
 70
     0
  9
$DIMSAH
 70
     0
  9
$DIMBLK1
  1

  9
$DIMBLK2
  1

  9
$DIMSTYLE
  2
STANDARD
  9
$DIMCLRD
 70
     0
  9
$DIMCLRE
 70
     0
  9
$DIMCLRT
 70
     0
  9
$DIMTFAC
 40
1.0
  9
$DIMGAP
 40
0.09
  9
$LUNITS
 70
     2
  9
$LUPREC
 70
     4
  9
$SKETCHINC
 40
0.1
  9
$FILLETRAD
 40
2.0
  9
$AUNITS
 70
     0
  9
$AUPREC
 70
     0
  9
$MENU
  1
ACAD
  9
$ELEVATION
 40
0.0
  9
$PELEVATION
 40
0.0
  9
$THICKNESS
 40
0.0
  9
$LIMCHECK
 70
     0
  9
$BLIPMODE
 70
     0
  9
$CHAMFERA
 40
0.0
  9
$CHAMFERB
 40
0.0
  9
$SKPOLY
 70
     0
  9
$TDCREATE
 40
2452094.7563487259
  9
$TDUPDATE
 40
2452094.758924074
  9
$TDINDWG
 40
0.0025778935
  9
$TDUSRTIMER
 40
0.0025778935
  9
$USRTIMER
 70
     1
  9
$ANGBASE
 50
0.0
  9
$ANGDIR
 70
     0
  9
$PDMODE
 70
     0
  9
$PDSIZE
 40
0.0
  9
$PLINEWID
 40
0.0
  9
$COORDS
 70
     1
  9
$SPLFRAME
 70
     0
  9
$SPLINETYPE
 70
     6
  9
$SPLINESEGS
 70
     8
  9
$ATTDIA
 70
     0
  9
$ATTREQ
 70
     1
  9
$HANDLING
 70
 10241
  9
$HANDSEED
  5
24D
  9
$SURFTAB1
 70
     6
  9
$SURFTAB2
 70
     6
  9
$SURFTYPE
 70
     6
  9
$SURFU
 70
     6
  9
$SURFV
 70
     6
  9
$UCSNAME
  2

  9
$UCSORG
 10
0.0
 20
0.0
 30
0.0
  9
$UCSXDIR
 10
1.0
 20
0.0
 30
0.0
  9
$UCSYDIR
 10
0.0
 20
1.0
 30
0.0
  9
$PUCSNAME
  2

  9
$PUCSORG
 10
0.0
 20
0.0
 30
0.0
  9
$PUCSXDIR
 10
1.0
 20
0.0
 30
0.0
  9
$PUCSYDIR
 10
0.0
 20
1.0
 30
0.0
  9
$USERI1
 70
     0
  9
$USERI2
 70
     0
  9
$USERI3
 70
     0
  9
$USERI4
 70
     0
  9
$USERI5
 70
     0
  9
$USERR1
 40
0.0
  9
$USERR2
 40
0.0
  9
$USERR3
 40
0.0
  9
$USERR4
 40
0.0
  9
$USERR5
 40
0.0
  9
$WORLDVIEW
 70
     1
  9
$SHADEDGE
 70
     3
  9
$SHADEDIF
 70
    70
  9
$TILEMODE
 70
     1
  9
$MAXACTVP
 70
    64
  9
$PLIMCHECK
 70
     0
  9
$PEXTMIN
 10
1.0000000000000000E+020
 20
1.0000000000000000E+020
 30
1.0000000000000000E+020
  9
$PEXTMAX
 10
-1.0000000000000000E+020
 20
-1.0000000000000000E+020
 30
-1.0000000000000000E+020
  9
$PLIMMIN
 10
0.0
 20
0.0
  9
$PLIMMAX
 10
12.0
 20
9.0
  9
$UNITMODE
 70
     0
  9
$VISRETAIN
 70
     1
  9
$PLINEGEN
 70
     0
  9
$PSLTSCALE
 70
     1
  0
ENDSEC
  0
SECTION
  2
TABLES
  0
TABLE
  2
VPORT
 70
     2
  0
VPORT
  2
*ACTIVE
 70
     0
 10
0.0
 20
0.0
 11
1.0
 21
1.0
 12
-581.83045827056173
 22
338.42849378656422
 13
0.0
 23
0.0
 14
1.0
 24
1.0
 15
0.0
 25
0.0
 16
0.0
 26
0.0
 36
1.0
 17
0.0
 27
0.0
 37
0.0
 40
8.9999997881907348
 41
2.418918918918918
 42
50.0
 43
0.0
 44
0.0
 50
0.0
 51
0.0
 71
     0
 72
   100
 73
     1
 74
     1
 75
     0
 76
     0
 77
     0
 78
     0
  0
ENDTAB
  0
TABLE
  2
LTYPE
 70
     9
  0
LTYPE
  2
CONTINUOUS
 70
     0
  3
Solid line
 72
    65
 73
     0
 40
0.0
  0
LTYPE
  2
BORDER
 70
     0
  3
__ __ . __ __ .
 72
    65
 73
     6
 40
41.369266917400992
 49
11.81979054782885
 49
-5.9098952739144268
 49
11.81979054782885
 49
-5.9098952739144268
 49
0.0
 49
-5.9098952739144268
  0
LTYPE
  2
CENTER
 70
     0
  3
____ _ ____ _
 72
    65
 73
     4
 40
47.279162191315422
 49
29.549476369572119
 49
-5.9098952739144268
 49
5.9098952739144268
 49
-5.9098952739144268
  0
LTYPE
  2
DASHDOT
 70
     0
  3
__ . __ . __ .
 72
    65
 73
     4
 40
23.639581095657711
 49
11.81979054782885
 49
-5.9098952739144268
 49
0.0
 49
-5.9098952739144268
  0
LTYPE
  2
DASHED
 70
     0
  3
__ __ __ __ __
 72
    65
 73
     2
 40
17.729685821743281
 49
11.81979054782885
 49
-5.9098952739144268
  0
LTYPE
  2
DIVIDE
 70
     0
  3
__ . . __ . . 
 72
    65
 73
     6
 40
29.549476369572119
 49
11.81979054782885
 49
-5.9098952739144268
 49
0.0
 49
-5.9098952739144268
 49
0.0
 49
-5.9098952739144268
  0
LTYPE
  2
DOT
 70
     0
  3
..............
 72
    65
 73
     4
 40
11.81979054782885
 49
0.0
 49
-5.9098952739144268
 49
0.0
 49
-5.9098952739144268
  0
LTYPE
  2
HIDDEN
 70
     0
  3
_ _ _ _ _ _ _
 72
    65
 73
     2
 40
8.8648429108716407
 49
5.9098952739144268
 49
-2.9549476369572121
  0
LTYPE
  2
PHANTOM
 70
     0
  3
_____ _ _ _____ _ _ 
 72
    65
 73
     6
 40
59.098952739144281
 49
29.549476369572119
 49
-5.9098952739144268
 49
5.9098952739144268
 49
-5.9098952739144268
 49
5.9098952739144268
 49
-5.9098952739144268
  0
ENDTAB
  0
TABLE
  2
LAYER
 70
     2
  0
LAYER
  2
0
 70
     0
 62
     7
  6
CONTINUOUS
  0
LAYER
  2
1
 70
     0
 62
     7
  6
CONTINUOUS
  0
ENDTAB
  0
TABLE
  2
STYLE
 70
     4
  0
STYLE
  2
STANDARD
 70
     0
 40
0.0
 41
1.0
 50
0.0
 71
     0
 42
3.5
  3
txt
  4

  0
STYLE
  2
SIMPLEX
 70
     0
 40
0.0
 41
1.0
 50
0.0
 71
     0
 42
3.5
  3
simplex
  4

  0
STYLE
  2
COMPLEX
 70
     0
 40
0.0
 41
1.0
 50
0.0
 71
     0
 42
3.5
  3
complex
  4

  0
STYLE
  2
ITALIC
 70
     0
 40
0.0
 41
1.0
 50
0.0
 71
     0
 42
3.5
  3
italic
  4

  0
ENDTAB
  0
TABLE
  2
VIEW
 70
     0
  0
ENDTAB
  0
TABLE
  2
UCS
 70
     0
  0
ENDTAB
  0
TABLE
  2
APPID
 70
     1
  0
APPID
  2
ACAD
 70
     0
  0
ENDTAB
  0
TABLE
  2
DIMSTYLE
 70
     1
  0
DIMSTYLE
  2
STANDARD
 70
     0
  3

  4

  5

  6

  7

 40
1.0
 41
0.18
 42
0.0625
 43
0.38
 44
0.18
 45
0.0
 46
0.0
 47
0.0
 48
0.0
140
0.18
141
0.09
142
0.0
143
25.399999999999999
144
1.0
145
0.0
146
1.0
147
0.09
 71
     0
 72
     0
 73
     1
 74
     1
 75
     0
 76
     0
 77
     0
 78
     0
170
     0
171
     2
172
     0
173
     0
174
     0
175
     0
176
     0
177
     0
178
     0
  0
ENDTAB
  0
ENDSEC
  0
SECTION
  2
BLOCKS
  0
BLOCK
  8
0
  2
$MODEL_SPACE
 70
     0
 10
0.0
 20
0.0
 30
0.0
  3
$MODEL_SPACE
  1

  0
ENDBLK
  5
20
  8
0
  0
BLOCK
 67
     1
  8
0
  2
$PAPER_SPACE
 70
     0
 10
0.0
 20
0.0
 30
0.0
  3
$PAPER_SPACE
  1

  0
ENDBLK
  5
1C
 67
     1
  8
0
  0
ENDSEC
  0
SECTION
  2
ENTITIES
  0
LINE
  5
33
  8
1
 62
     7
 10
133.64208048662289
 20
254.7039603017528
 30
0.0
 11
133.64208048662289
 21
187.83403432947841
 31
0.0
  0
LINE
  5
34
  8
1
 62
     7
 10
131.04208048662269
 20
187.8130581615803
 30
0.0
 11
131.04208048662281
 21
254.7039603017528
 31
0.0
  0
LINE
  5
35
  8
1
 62
     7
 10
136.24208048662291
 20
187.5578728179126
 30
0.0
 11
136.24208048662291
 21
254.7039603017528
 31
0.0
  0
LINE
  5
36
  8
1
  6
DASHDOT
 62
     3
 10
-481.86279622219899
 20
30.33589125443261
 30
0.0
 11
-469.4831648492771
 21
30.3358912544326
 31
0.0
  0
LINE
  5
37
  8
1
 62
     7
 10
-499.46279622219879
 20
-32.664108745567297
 30
0.0
 11
-499.46279622219879
 21
-56.66410874556739
 31
0.0
  0
LINE
  5
38
  8
1
 62
     7
 10
-502.82433468373728
 20
-29.664108745567301
 30
0.0
 11
-502.46279622219879
 21
-29.664108745567301
 31
0.0
  0
LINE
  5
39
  8
1
 62
     7
 10
-502.57818083758337
 20
-13.664108745567299
 30
0.0
 11
-502.46279622219879
 21
-13.664108745567299
 31
0.0
  0
LINE
  5
3A
  8
1
 62
     7
 10
-499.46279622219879
 20
93.33589125443271
 30
0.0
 11
-499.46279622219879
 21
117.3358912544326
 31
0.0
  0
LINE
  5
3B
  8
1
 62
     7
 10
-499.46279622219879
 20
71.33589125443271
 30
0.0
 11
-499.46279622219879
 21
-10.664108745567299
 31
0.0
  0
LINE
  5
3C
  8
1
 62
     7
 10
-502.57048587791729
 20
90.335891254432696
 30
0.0
 11
-502.46279622219879
 21
90.335891254432696
 31
0.0
  0
LINE
  5
3D
  8
1
 62
     7
 10
-502.69356321295129
 20
74.33589125443271
 30
0.0
 11
-502.46279622219879
 21
74.33589125443271
 31
0.0
  0
LINE
  5
3E
  8
1
 62
     7
 10
-502.70125554639083
 20
73.33589125443271
 30
0.0
 11
-500.22672824469902
 21
73.33589125443271
 31
0.0
  0
LINE
  5
3F
  8
1
 62
     7
 10
-502.56279622219881
 20
91.335543151854992
 30
0.0
 11
-500.22703964588891
 21
91.335543151854992
 31
0.0
  0
LINE
  5
40
  8
1
 62
     7
 10
-502.83971929912201
 20
-30.664108745567301
 30
0.0
 11
-500.22672824469902
 21
-30.664108745567301
 31
0.0
  0
LINE
  5
41
  8
1
 62
     7
 10
-502.56279622219881
 20
-12.66410874556731
 30
0.0
 11
-500.22672824469902
 21
-12.66410874556731
 31
0.0
  0
LINE
  5
42
  8
1
 62
     7
 10
-504.63971929912202
 20
-30.664108745567301
 30
0.0
 11
-505.16279622219889
 21
-30.664108745567301
 31
0.0
  0
LINE
  5
43
  8
1
 62
     7
 10
-504.36279622219888
 20
-12.66410874556728
 30
0.0
 11
-502.56279622219881
 21
-12.66410874556731
 31
0.0
  0
LINE
  5
44
  8
1
 62
     7
 10
-502.56279622219881
 20
-12.66410874556731
 30
0.0
 11
-503.36279622219888
 21
-64.664108745567404
 31
0.0
  0
LINE
  5
45
  8
1
 62
     7
 10
-504.36279622219888
 20
-12.66410874556728
 30
0.0
 11
-505.16279622219889
 21
-64.664108745567404
 31
0.0
  0
LINE
  5
46
  8
1
 62
     7
 10
-502.56279622219881
 20
91.335543151854992
 30
0.0
 11
-503.36279622219888
 21
-12.664108745567299
 31
0.0
  0
LINE
  5
47
  8
1
 62
     7
 10
-502.56279622219881
 20
91.335543151854992
 30
0.0
 11
-503.36279622219888
 21
91.335891254432696
 31
0.0
  0
LINE
  5
48
  8
1
 62
     7
 10
-504.36279622219888
 20
91.335891254432696
 30
0.0
 11
-505.16279622219889
 21
-12.664108745567299
 31
0.0
  0
LINE
  5
49
  8
1
 62
     7
 10
-505.16279622219889
 20
91.335891254432696
 30
0.0
 11
-505.16279622219889
 21
90.335891254432696
 31
0.0
  0
LINE
  5
4A
  8
1
 62
     7
 10
-503.36279622219888
 20
91.335891254432696
 30
0.0
 11
-504.36279622219888
 21
91.335891254432696
 31
0.0
  0
LINE
  5
4B
  8
1
 62
     7
 10
-503.03279622219878
 20
112.7858912544325
 30
0.0
 11
-499.46279622219879
 21
112.7858912544325
 31
0.0
  0
LINE
  5
4C
  8
1
 62
     7
 10
-502.83971929912201
 20
125.3358912544326
 30
0.0
 11
-502.46279622219879
 21
125.3358912544326
 31
0.0
  0
LINE
  5
4D
  8
1
 62
     7
 10
-505.16279622219889
 20
91.335891254432696
 30
0.0
 11
-504.36279622219888
 21
143.3358912544326
 31
0.0
  0
LINE
  5
4E
  8
1
 62
     7
 10
-502.56279622219881
 20
143.3358912544326
 30
0.0
 11
-503.36279622219888
 21
91.335891254432696
 31
0.0
  0
LINE
  5
4F
  8
1
 62
     7
 10
-505.16279622219889
 20
-12.664108745567299
 30
0.0
 11
-505.16279622219889
 21
-13.664108745567299
 31
0.0
  0
LINE
  5
50
  8
1
 62
     7
 10
-505.16279622219889
 20
-29.664108745567301
 30
0.0
 11
-505.16279622219889
 21
-30.664108745567301
 31
0.0
  0
LINE
  5
51
  8
1
 62
     7
 10
-505.16279622219889
 20
-13.664108745567299
 30
0.0
 11
-505.16279622219889
 21
-29.664108745567301
 31
0.0
  0
LINE
  5
52
  8
1
 62
     7
 10
-505.16279622219889
 20
74.33589125443271
 30
0.0
 11
-505.16279622219889
 21
73.33589125443271
 31
0.0
  0
LINE
  5
53
  8
1
 62
     7
 10
-505.16279622219889
 20
73.33589125443271
 30
0.0
 11
-504.50125776066051
 21
73.33589125443271
 31
0.0
  0
LINE
  5
54
  8
1
 62
     7
 10
-505.16279622219889
 20
91.335891254432696
 30
0.0
 11
-505.16279622219889
 21
90.335891254432696
 31
0.0
  0
LINE
  5
55
  8
1
 62
     7
 10
-505.16279622219889
 20
90.335891254432696
 30
0.0
 11
-505.16279622219889
 21
74.33589125443271
 31
0.0
  0
LINE
  5
56
  8
1
 62
     7
 10
-505.16279622219889
 20
-29.664108745567301
 30
0.0
 11
-510.16279622219878
 21
-29.664108745567301
 31
0.0
  0
LINE
  5
57
  8
1
 62
     7
 10
-505.16279622219889
 20
-13.664108745567299
 30
0.0
 11
-510.16279622219878
 21
-13.664108745567299
 31
0.0
  0
LINE
  5
58
  8
1
 62
     7
 10
-510.16279622219878
 20
90.335891254432696
 30
0.0
 11
-505.16279622219889
 21
90.335891254432696
 31
0.0
  0
LINE
  5
59
  8
1
 62
     7
 10
-510.16279622219878
 20
74.33589125443271
 30
0.0
 11
-505.16279622219889
 21
74.33589125443271
 31
0.0
  0
LINE
  5
5A
  8
1
 62
     7
 10
-499.46279622219879
 20
-61.66410874556739
 30
0.0
 11
-499.46279622219879
 21
-64.664108745567404
 31
0.0
  0
LINE
  5
5B
  8
1
 62
     7
 10
-505.16279622219889
 20
-65.664108745567404
 30
0.0
 11
-505.16279622219889
 21
-81.664108745567404
 31
0.0
  0
LINE
  5
5C
  8
1
 62
     7
 10
-499.46279622219879
 20
-82.664108745567404
 30
0.0
 11
-499.46279622219879
 21
-64.664108745567404
 31
0.0
  0
LINE
  5
5D
  8
1
 62
     7
 10
-499.46279622219879
 20
-52.114108745567378
 30
0.0
 11
-503.16971929912188
 21
-52.114108745567378
 31
0.0
  0
LINE
  5
5E
  8
1
 62
     7
 10
-507.5957508328388
 20
-64.164108745567404
 30
0.0
 11
-510.16279622219878
 21
-64.164108745567404
 31
0.0
  0
LINE
  5
5F
  8
1
 62
     7
 10
-503.36279622219888
 20
-82.664108745567404
 30
0.0
 11
-505.16279622219889
 21
-82.664108745567404
 31
0.0
  0
LINE
  5
60
  8
1
 62
     7
 10
-505.16279622219889
 20
-81.664108745567404
 30
0.0
 11
-505.16279622219889
 21
-82.664108745567404
 31
0.0
  0
LINE
  5
61
  8
1
 62
     7
 10
-505.16279622219889
 20
-64.664108745567404
 30
0.0
 11
-505.16279622219889
 21
-65.664108745567404
 31
0.0
  0
LINE
  5
62
  8
1
 62
     7
 10
-499.46279622219879
 20
-56.66410874556739
 30
0.0
 11
-499.46279622219879
 21
-61.66410874556739
 31
0.0
  0
LINE
  5
63
  8
1
 62
     7
 10
-502.46279622219879
 20
-64.664108745567404
 30
0.0
 11
-503.36279622219888
 21
-64.664108745567404
 31
0.0
  0
LINE
  5
64
  8
1
 62
     7
 10
-503.36279622219888
 20
-64.664108745567404
 30
0.0
 11
-503.36279622219888
 21
-82.664108745567404
 31
0.0
  0
LINE
  5
65
  8
1
 62
     7
 10
-486.16279622219878
 20
30.3358912544326
 30
0.0
 11
-486.16279622219878
 21
-62.678925198047907
 31
0.0
  0
LINE
  5
66
  8
1
 62
     7
 10
-490.46279622219879
 20
-82.664108745567404
 30
0.0
 11
-503.36279622219888
 21
-82.664108745567404
 31
0.0
  0
LINE
  5
67
  8
1
 62
     7
 10
-505.16279622219889
 20
-65.664108745567404
 30
0.0
 11
-510.16279622219878
 21
-65.664108745567404
 31
0.0
  0
LINE
  5
68
  8
1
 62
     7
 10
-505.16279622219889
 20
-81.664108745567404
 30
0.0
 11
-510.16279622219878
 21
-81.664108745567404
 31
0.0
  0
LINE
  5
69
  8
1
 62
     7
 10
-499.46279622219879
 20
125.3358912544326
 30
0.0
 11
-499.46279622219879
 21
122.3358912544326
 31
0.0
  0
LINE
  5
6A
  8
1
 62
     7
 10
-505.16279622219889
 20
142.33589125443251
 30
0.0
 11
-505.16279622219889
 21
126.3358912544326
 31
0.0
  0
LINE
  5
6B
  8
1
 62
     7
 10
-499.46279622219879
 20
125.3358912544326
 30
0.0
 11
-499.46279622219879
 21
143.3358912544326
 31
0.0
  0
LINE
  5
6C
  8
1
 62
     7
 10
-534.66279622219895
 20
-127.1641087455674
 30
0.0
 11
-534.66279622219895
 21
187.8358912544326
 31
0.0
  0
LINE
  5
6D
  8
1
 62
     7
 10
-520.86279622219877
 20
-127.1641087455674
 30
0.0
 11
-534.66279622219895
 21
-127.1641087455674
 31
0.0
  0
LINE
  5
6E
  8
1
 62
     7
 10
-510.16279622219878
 20
124.8358912544325
 30
0.0
 11
-507.5957508328388
 21
124.8358912544325
 31
0.0
  0
LINE
  5
6F
  8
1
 62
     7
 10
-513.16279622219895
 20
187.8358912544326
 30
0.0
 11
-510.16279622219878
 21
187.8358912544326
 31
0.0
  0
LINE
  5
70
  8
1
 62
     7
 10
-534.66279622219895
 20
187.8358912544326
 30
0.0
 11
-520.86279622219877
 21
187.8358912544326
 31
0.0
  0
LINE
  5
71
  8
1
 62
     7
 10
-505.16279622219889
 20
143.3358912544326
 30
0.0
 11
-503.36279622219888
 21
143.3358912544326
 31
0.0
  0
LINE
  5
72
  8
1
 62
     7
 10
-505.16279622219889
 20
143.3358912544326
 30
0.0
 11
-505.16279622219889
 21
142.33589125443251
 31
0.0
  0
LINE
  5
73
  8
1
 62
     7
 10
-505.16279622219889
 20
125.3358912544326
 30
0.0
 11
-504.63971929912202
 21
125.3358912544326
 31
0.0
  0
LINE
  5
74
  8
1
 62
     7
 10
-505.16279622219889
 20
126.3358912544326
 30
0.0
 11
-505.16279622219889
 21
125.3358912544326
 31
0.0
  0
LINE
  5
75
  8
1
 62
     7
 10
-499.46279622219879
 20
122.3358912544326
 30
0.0
 11
-499.46279622219879
 21
117.3358912544326
 31
0.0
  0
LINE
  5
76
  8
1
 62
     7
 10
-486.16279622219878
 20
123.350707706913
 30
0.0
 11
-486.16279622219878
 21
30.3358912544326
 31
0.0
  0
LINE
  5
77
  8
1
 62
     7
 10
-503.36279622219888
 20
143.3358912544326
 30
0.0
 11
-490.46279622219879
 21
143.3358912544326
 31
0.0
  0
LINE
  5
78
  8
1
 62
     7
 10
-510.16279622219878
 20
126.3358912544326
 30
0.0
 11
-505.16279622219889
 21
126.3358912544326
 31
0.0
  0
LINE
  5
79
  8
1
 62
     7
 10
-510.16279622219878
 20
142.33589125443251
 30
0.0
 11
-505.16279622219889
 21
142.33589125443251
 31
0.0
  0
LINE
  5
7A
  8
1
  6
DASHDOT
 62
     3
 10
176.73371921469149
 20
55.21486047390507
 30
0.0
 11
191.06691471190459
 21
63.490134752568643
 31
0.0
  0
LINE
  5
7B
  8
1
  6
DASHDOT
 62
     3
 10
133.64208048662289
 20
-35.738720875033401
 30
0.0
 11
133.64208048662289
 21
-18.6814344404224
 31
0.0
  0
LINE
  5
7C
  8
1
  6
DASHDOT
 62
     3
 10
76.17037388356222
 20
63.517196532496897
 30
0.0
 11
92.189056892300201
 21
54.268805585338747
 31
0.0
  0
LINE
  5
7D
  8
1
 62
     7
 10
86.128040324792863
 20
77.14989570288796
 30
0.0
 11
86.828076038167566
 21
77.849931416262649
 31
0.0
  0
LINE
  5
7E
  8
1
 62
     7
 10
81.461135568961666
 20
77.849931416262649
 30
0.0
 11
82.16117128233634
 21
77.14989570288796
 31
0.0
  0
LINE
  5
7F
  8
1
 62
     7
 10
82.161171282336355
 20
82.516836172093875
 30
0.0
 11
81.461135568961666
 21
81.816800458719186
 31
0.0
  0
LINE
  5
80
  8
1
 62
     7
 10
86.828076038167566
 20
81.816800458719186
 30
0.0
 11
86.128040324792906
 21
82.516836172093875
 31
0.0
  0
LINE
  5
81
  8
1
 62
     7
 10
180.45608493507831
 20
77.849931416262649
 30
0.0
 11
181.156120648453
 21
77.14989570288796
 31
0.0
  0
LINE
  5
82
  8
1
 62
     7
 10
181.156120648453
 20
82.516836172093875
 30
0.0
 11
180.45608493507831
 21
81.816800458719186
 31
0.0
  0
LINE
  5
83
  8
1
 62
     7
 10
185.8230254042841
 20
81.816800458719186
 30
0.0
 11
185.12298969090941
 21
82.516836172093875
 31
0.0
  0
LINE
  5
84
  8
1
 62
     7
 10
185.12298969090941
 20
77.14989570288796
 30
0.0
 11
185.8230254042841
 21
77.849931416262649
 31
0.0
  0
LINE
  5
85
  8
1
 62
     7
 10
181.156120648453
 20
-16.478113194022772
 30
0.0
 11
180.45608493507831
 21
-17.17814890739746
 31
0.0
  0
LINE
  5
86
  8
1
 62
     7
 10
185.8230254042841
 20
-17.178148907397439
 30
0.0
 11
185.12298969090941
 21
-16.478113194022772
 31
0.0
  0
LINE
  5
87
  8
1
 62
     7
 10
185.12298969090941
 20
-21.845053663228661
 30
0.0
 11
185.8230254042841
 21
-21.14501794985398
 31
0.0
  0
LINE
  5
88
  8
1
 62
     7
 10
180.45608493507831
 20
-21.14501794985398
 30
0.0
 11
181.156120648453
 21
-21.845053663228668
 31
0.0
  0
LINE
  5
89
  8
1
 62
     7
 10
86.828076038167566
 20
-17.17814890739746
 30
0.0
 11
86.128040324792863
 21
-16.478113194022772
 31
0.0
  0
LINE
  5
8A
  8
1
 62
     7
 10
86.128040324792863
 20
-21.845053663228668
 30
0.0
 11
86.828076038167566
 21
-21.14501794985398
 31
0.0
  0
LINE
  5
8B
  8
1
 62
     7
 10
81.461135568961666
 20
-21.14501794985398
 30
0.0
 11
82.161171282336355
 21
-21.845053663228668
 31
0.0
  0
LINE
  5
8C
  8
1
 62
     7
 10
82.161171282336355
 20
-16.478113194022772
 30
0.0
 11
81.461135568961666
 21
-17.178148907397439
 31
0.0
  0
LINE
  5
8D
  8
1
 62
     7
 10
126.1420804866228
 20
65.335891254432596
 30
0.0
 11
141.14208048662289
 21
65.335891254432596
 31
0.0
  0
LINE
  5
8E
  8
1
 62
     7
 10
141.14208048662289
 20
65.335891254432596
 30
0.0
 11
141.14208048662289
 21
59.383266350988229
 31
0.0
  0
LINE
  5
8F
  8
1
 62
     7
 10
126.1420804866228
 20
65.335891254432596
 30
0.0
 11
126.1420804866228
 21
59.383266350988229
 31
0.0
  0
LINE
  5
90
  8
1
  6
DASHDOT
 62
     3
 10
133.64208048662289
 20
45.666743327738658
 30
0.0
 11
133.64208048662289
 21
15.00503918112654
 31
0.0
  0
LINE
  5
91
  8
1
  6
DASHDOT
 62
     3
 10
148.97293255992901
 20
30.3358912544326
 30
0.0
 11
118.3112284133168
 21
30.3358912544326
 31
0.0
  0
LINE
  5
92
  8
1
 62
     7
 10
160.08787699934041
 20
147.38553818601429
 30
0.0
 11
159.4412585827408
 21
144.96857598948
 31
0.0
  0
LINE
  5
93
  8
1
 62
     7
 10
168.61660641865251
 20
142.51000830390959
 30
0.0
 11
169.26417234908649
 21
144.9267572575404
 31
0.0
  0
LINE
  5
94
  8
1
 62
     7
 10
107.84384990433961
 20
144.96878923238361
 30
0.0
 11
107.19628397390559
 21
147.38553818601429
 31
0.0
  0
LINE
  5
95
  8
1
 62
     7
 10
53.983708440701427
 20
116.71177772162631
 30
0.0
 11
52.214525417504902
 21
118.48096074482289
 31
0.0
  0
LINE
  5
96
  8
1
 62
     7
 10
21.46796343714583
 20
65.310417186462146
 30
0.0
 11
19.051214483515189
 21
65.957983116896244
 31
0.0
  0
LINE
  5
97
  8
1
 62
     7
 10
47.266194019429243
 20
-49.322480791488942
 30
0.0
 11
45.497010996232689
 21
-51.091663814685468
 31
0.0
  0
LINE
  5
98
  8
1
 62
     7
 10
98.667554554593494
 20
-81.838225795044494
 30
0.0
 11
98.019988624159424
 21
-84.254974748675139
 31
0.0
  0
LINE
  5
99
  8
1
 62
     7
 10
159.44031106890631
 20
-84.297006723518493
 30
0.0
 11
160.08787699934041
 21
-86.713755677149138
 31
0.0
  0
LINE
  5
9A
  8
1
 62
     7
 10
213.30045253254451
 20
-56.039995212761198
 30
0.0
 11
215.06963555574109
 21
-57.809178235957759
 31
0.0
  0
LINE
  5
9B
  8
1
 62
     7
 10
245.81619753609999
 20
-4.6386346775970004
 30
0.0
 11
248.23294648973061
 21
-5.2862006080310868
 31
0.0
  0
LINE
  5
9C
  8
1
 62
     7
 10
248.27497846457399
 20
56.134121836715892
 30
0.0
 11
250.69172741820481
 21
56.78168776714999
 31
0.0
  0
LINE
  5
9D
  8
1
 62
     7
 10
220.01796695381691
 20
109.99426330035411
 30
0.0
 11
221.7871499770132
 21
111.7634463235505
 31
0.0
  0
LINE
  5
9E
  8
1
 62
     7
 10
98.019988624159424
 20
144.9267572575404
 30
0.0
 11
98.668481747096521
 21
142.51029738705529
 31
0.0
  0
LINE
  5
9F
  8
1
 62
     7
 10
45.497010996232689
 20
111.7634463235507
 30
0.0
 11
47.266852450118208
 21
109.99497724995339
 31
0.0
  0
LINE
  5
A0
  8
1
 62
     7
 10
16.592433555041332
 20
56.781687767150089
 30
0.0
 11
19.009395751575529
 21
56.135069350550609
 31
0.0
  0
LINE
  5
A1
  8
1
 62
     7
 10
19.051214483515189
 20
-5.2862006080309909
 30
0.0
 11
21.467674354000209
 21
-4.6377074850938786
 31
0.0
  0
LINE
  5
A2
  8
1
 62
     7
 10
52.214525417504902
 20
-57.809178235957667
 30
0.0
 11
53.982994491101977
 21
-56.039336782072098
 31
0.0
  0
LINE
  5
A3
  8
1
 62
     7
 10
107.19628397390549
 20
-86.713755677149095
 30
0.0
 11
107.8429023905049
 21
-84.296793480614824
 31
0.0
  0
LINE
  5
A4
  8
1
 62
     7
 10
169.26417234908649
 20
-84.254974748675167
 30
0.0
 11
168.6156792261495
 21
-81.838514878190139
 31
0.0
  0
LINE
  5
A5
  8
1
 62
     7
 10
221.7871499770132
 20
-51.091663814685568
 30
0.0
 11
220.01730852312761
 21
-49.3231947410884
 31
0.0
  0
LINE
  5
A6
  8
1
 62
     7
 10
250.69172741820461
 20
3.8900947417150489
 30
0.0
 11
248.27476522167041
 21
4.5367131583145301
 31
0.0
  0
LINE
  5
A7
  8
1
 62
     7
 10
248.23294648973061
 20
65.957983116896131
 30
0.0
 11
245.81648661924581
 21
65.309489993959033
 31
0.0
  0
LINE
  5
A8
  8
1
 62
     7
 10
215.06963555574109
 20
118.4809607448227
 30
0.0
 11
213.301166482144
 21
116.71111929093721
 31
0.0
  0
LINE
  5
A9
  8
1
 62
     7
 10
-535.36279622219899
 20
187.8358912544326
 30
0.0
 11
-563.36279622219888
 21
187.8358912544326
 31
0.0
  0
LINE
  5
AA
  8
1
 62
     7
 10
-535.36279622219899
 20
-127.1641087455674
 30
0.0
 11
-563.36279622219888
 21
-127.1641087455674
 31
0.0
  0
LINE
  5
AB
  8
1
 62
     7
 10
-535.36279622219899
 20
187.8358912544326
 30
0.0
 11
-535.36279622219899
 21
-127.1641087455674
 31
0.0
  0
LINE
  5
AC
  8
1
 62
     7
 10
-589.66279622219895
 20
-116.1641087455673
 30
0.0
 11
-565.36279622219899
 21
-116.1641087455673
 31
0.0
  0
LINE
  5
AD
  8
1
 62
     7
 10
-589.66279622219895
 20
176.83589125443251
 30
0.0
 11
-565.36279622219899
 21
176.83589125443251
 31
0.0
  0
LINE
  5
AE
  8
1
 62
     7
 10
-167.19663184482491
 20
110.3358912544325
 30
0.0
 11
-167.19663184482491
 21
94.335891254432596
 31
0.0
  0
LINE
  5
AF
  8
1
 62
     7
 10
-167.19663184482491
 20
-33.664108745567397
 30
0.0
 11
-167.19663184482491
 21
-49.66410874556739
 31
0.0
  0
LINE
  5
B0
  8
1
  6
DASHDOT
 62
     3
 10
-164.69663184482491
 20
-27.66410874556739
 30
0.0
 11
-201.3060329215833
 21
-27.66410874556739
 31
0.0
  0
LINE
  5
B1
  8
1
 62
     3
 10
-185.69663184482479
 20
-22.66410874556739
 30
0.0
 11
-187.4286826523936
 21
-23.66410874556739
 31
0.0
  0
LINE
  5
B2
  8
1
 62
     3
 10
-185.69663184482479
 20
-32.66410874556739
 30
0.0
 11
-187.4286826523936
 21
-31.66410874556739
 31
0.0
  0
LINE
  5
B3
  8
1
 62
     3
 10
-185.69663184482479
 20
-22.66410874556739
 30
0.0
 11
-167.69663184482491
 21
-22.66410874556739
 31
0.0
  0
LINE
  5
B4
  8
1
 62
     3
 10
-185.69663184482479
 20
-32.66410874556739
 30
0.0
 11
-185.69663184482479
 21
-22.66410874556739
 31
0.0
  0
LINE
  5
B5
  8
1
 62
     3
 10
-167.69663184482491
 20
-32.66410874556739
 30
0.0
 11
-185.69663184482479
 21
-32.66410874556739
 31
0.0
  0
LINE
  5
B6
  8
1
 62
     7
 10
-196.58338319077299
 20
-27.66410874556739
 30
0.0
 11
-193.69663184482491
 21
-23.66410874556739
 31
0.0
  0
LINE
  5
B7
  8
1
 62
     7
 10
-193.69663184482491
 20
-31.66410874556739
 30
0.0
 11
-196.58338319077299
 21
-27.66410874556739
 31
0.0
  0
LINE
  5
B8
  8
1
 62
     7
 10
-193.69663184482491
 20
-23.66410874556739
 30
0.0
 11
-167.69663184482491
 21
-23.66410874556739
 31
0.0
  0
LINE
  5
B9
  8
1
 62
     7
 10
-193.69663184482491
 20
-31.66410874556739
 30
0.0
 11
-193.69663184482491
 21
-23.66410874556739
 31
0.0
  0
LINE
  5
BA
  8
1
 62
     7
 10
-167.69663184482491
 20
-31.66410874556739
 30
0.0
 11
-193.69663184482491
 21
-31.66410874556739
 31
0.0
  0
LINE
  5
BB
  8
1
  6
DASHDOT
 62
     3
 10
-596.36279622219888
 20
30.3358912544326
 30
0.0
 11
-607.16200114836977
 21
30.3358912544326
 31
0.0
  0
LINE
  5
BC
  8
1
 62
     7
 10
-563.36279622219888
 20
-127.1641087455674
 30
0.0
 11
-565.36279622219899
 21
-125.1641087455674
 31
0.0
  0
LINE
  5
BD
  8
1
 62
     7
 10
-589.66279622219895
 20
-116.1641087455673
 30
0.0
 11
-592.66279622219895
 21
-113.1641087455674
 31
0.0
  0
LINE
  5
BE
  8
1
 62
     7
 10
-596.36279622219888
 20
-104.6641087455673
 30
0.0
 11
-596.36279622219888
 21
165.3358912544326
 31
0.0
  0
LINE
  5
BF
  8
1
 62
     7
 10
-592.66279622219895
 20
-104.6641087455673
 30
0.0
 11
-596.36279622219888
 21
-104.6641087455673
 31
0.0
  0
LINE
  5
C0
  8
1
 62
     7
 10
-592.66279622219895
 20
-113.1641087455674
 30
0.0
 11
-592.66279622219895
 21
-69.664108745567404
 31
0.0
  0
LINE
  5
C1
  8
1
 62
     7
 10
-589.66279622219895
 20
-116.1641087455673
 30
0.0
 11
-592.66279622219895
 21
-113.1641087455674
 31
0.0
  0
LINE
  5
C2
  8
1
 62
     7
 10
-592.66279622219895
 20
-104.6641087455673
 30
0.0
 11
-596.36279622219888
 21
-104.6641087455673
 31
0.0
  0
LINE
  5
C3
  8
1
 62
     7
 10
-596.36279622219888
 20
165.3358912544326
 30
0.0
 11
-592.66279622219895
 21
165.3358912544326
 31
0.0
  0
LINE
  5
C4
  8
1
 62
     7
 10
-592.66279622219895
 20
173.83589125443251
 30
0.0
 11
-589.66279622219895
 21
176.83589125443251
 31
0.0
  0
LINE
  5
C5
  8
1
 62
     7
 10
-592.66279622219895
 20
173.83589125443251
 30
0.0
 11
-592.66279622219895
 21
-113.1641087455674
 31
0.0
  0
LINE
  5
C6
  8
1
 62
     7
 10
-565.36279622219899
 20
185.8358912544326
 30
0.0
 11
-563.36279622219888
 21
187.8358912544326
 31
0.0
  0
LINE
  5
C7
  8
1
 62
     7
 10
-263.99663184482478
 20
176.83589125443251
 30
0.0
 11
-263.99663184482478
 21
255.7255545917906
 31
0.0
  0
LINE
  5
C8
  8
1
 62
     7
 10
-261.39663184482492
 20
176.83589125443251
 30
0.0
 11
-261.39663184482492
 21
255.7255545917906
 31
0.0
  0
LINE
  5
C9
  8
1
 62
     7
 10
-261.69663184482482
 20
255.7255545917906
 30
0.0
 11
-261.69663184482482
 21
260.7911073726055
 31
0.0
  0
LINE
  5
CA
  8
1
 62
     7
 10
-262.69663184482488
 20
255.7255545917906
 30
0.0
 11
-262.69663184482488
 21
260.7911073726055
 31
0.0
  0
LINE
  5
CB
  8
1
 62
     7
 10
-263.69663184482482
 20
255.7255545917906
 30
0.0
 11
-263.69663184482482
 21
260.75944531191732
 31
0.0
  0
LINE
  5
CC
  8
1
 62
     7
 10
-233.99663184482489
 20
-116.1641087455673
 30
0.0
 11
-274.99663184482478
 21
-116.1641087455673
 31
0.0
  0
LINE
  5
CD
  8
1
 62
     7
 10
-233.99663184482489
 20
176.83589125443251
 30
0.0
 11
-274.99801032084832
 21
176.83589125443251
 31
0.0
  0
LINE
  5
CE
  8
1
  6
DASHDOT
 62
     3
 10
-281.69663184482482
 20
30.3358912544326
 30
0.0
 11
-292.49583677099582
 21
30.3358912544326
 31
0.0
  0
LINE
  5
CF
  8
1
  6
DASHDOT
 62
     3
 10
-167.69663184482491
 20
30.3358912544326
 30
0.0
 11
-159.4489420350836
 21
30.33589125443261
 31
0.0
  0
LINE
  5
D0
  8
1
 62
     7
 10
-257.69663184482482
 20
0.3358912544325996
 30
0.0
 11
-167.69663184482491
 21
0.3358912544325996
 31
0.0
  0
LINE
  5
D1
  8
1
 62
     7
 10
-257.69663184482482
 20
60.335891254432603
 30
0.0
 11
-167.69663184482491
 21
60.335891254432603
 31
0.0
  0
LINE
  5
D2
  8
1
 62
     7
 10
-257.69663184482482
 20
65.335891254432596
 30
0.0
 11
-167.69663184482491
 21
65.335891254432596
 31
0.0
  0
LINE
  5
D3
  8
1
 62
     7
 10
-219.99663184482489
 20
-127.1641087455674
 30
0.0
 11
-206.19663184482479
 21
-127.1641087455674
 31
0.0
  0
LINE
  5
D4
  8
1
 62
     7
 10
-220.69663184482491
 20
-127.1641087455674
 30
0.0
 11
-248.731023371833
 21
-127.1641087455674
 31
0.0
  0
LINE
  5
D5
  8
1
 62
     7
 10
-195.49663184482489
 20
123.0358912544325
 30
0.0
 11
-195.49663184482489
 21
117.8358912544325
 31
0.0
  0
LINE
  5
D6
  8
1
 62
     7
 10
-206.19663184482479
 20
-89.814108745567395
 30
0.0
 11
-206.19663184482479
 21
-112.0141087455674
 31
0.0
  0
LINE
  5
D7
  8
1
 62
     7
 10
-219.99663184482489
 20
-74.664108745567404
 30
0.0
 11
-206.19663184482479
 21
-74.664108745567404
 31
0.0
  0
LINE
  5
D8
  8
1
 62
     7
 10
-248.69663184482491
 20
-127.1641087455674
 30
0.0
 11
-250.69663184482479
 21
-125.1641087455674
 31
0.0
  0
LINE
  5
D9
  8
1
 62
     7
 10
-236.7966318448249
 20
-88.664108745567404
 30
0.0
 11
-231.69663184482479
 21
-88.664108745567404
 31
0.0
  0
LINE
  5
DA
  8
1
 62
     7
 10
-231.69663184482479
 20
-88.664108745567404
 30
0.0
 11
-231.69663184482479
 21
-116.6641087455674
 31
0.0
  0
LINE
  5
DB
  8
1
 62
     7
 10
-231.69663184482479
 20
-116.6641087455674
 30
0.0
 11
-250.69663184482479
 21
-116.6641087455674
 31
0.0
  0
LINE
  5
DC
  8
1
 62
     7
 10
-250.69663184482479
 20
-125.1641087455674
 30
0.0
 11
-250.69663184482479
 21
-116.6641087455674
 31
0.0
  0
LINE
  5
DD
  8
1
 62
     7
 10
-223.89663184482481
 20
-74.664108745567404
 30
0.0
 11
-220.69663184482491
 21
-74.664108745567404
 31
0.0
  0
LINE
  5
DE
  8
1
 62
     7
 10
-257.69663184482482
 20
-18.66410874556739
 30
0.0
 11
-257.69663184482482
 21
79.335891254432596
 31
0.0
  0
LINE
  5
DF
  8
1
 62
     7
 10
-257.69663184482482
 20
-18.66410874556739
 30
0.0
 11
-256.69663184482482
 21
-19.66410874556739
 31
0.0
  0
LINE
  5
E0
  8
1
 62
     7
 10
-236.7966318448249
 20
-84.164108745567404
 30
0.0
 11
-236.7966318448249
 21
-88.664108745567404
 31
0.0
  0
LINE
  5
E1
  8
1
 62
     7
 10
-234.7966318448249
 20
-84.164108745567404
 30
0.0
 11
-236.7966318448249
 21
-84.164108745567404
 31
0.0
  0
LINE
  5
E2
  8
1
 62
     7
 10
-234.7966318448249
 20
-25.66410874556739
 30
0.0
 11
-234.7966318448249
 21
-84.164108745567404
 31
0.0
  0
LINE
  5
E3
  8
1
 62
     7
 10
-261.99663184482478
 20
-69.664108745567404
 30
0.0
 11
-277.99663184482489
 21
-69.664108745567404
 31
0.0
  0
LINE
  5
E4
  8
1
 62
     7
 10
-254.99663184482489
 20
-62.664108745567397
 30
0.0
 11
-261.99663184482478
 21
-69.664108745567404
 31
0.0
  0
LINE
  5
E5
  8
1
 62
     7
 10
-254.99663184482489
 20
-25.66410874556739
 30
0.0
 11
-254.99663184482489
 21
-62.664108745567397
 31
0.0
  0
LINE
  5
E6
  8
1
 62
     7
 10
-274.99663184482478
 20
-116.1641087455673
 30
0.0
 11
-277.99663184482489
 21
-113.1641087455674
 31
0.0
  0
LINE
  5
E7
  8
1
 62
     7
 10
-261.99663184482478
 20
-69.664108745567404
 30
0.0
 11
-261.99663184482478
 21
130.33589125443251
 31
0.0
  0
LINE
  5
E8
  8
1
 62
     7
 10
-281.69663184482482
 20
-104.6641087455673
 30
0.0
 11
-281.69663184482482
 21
165.3358912544326
 31
0.0
  0
LINE
  5
E9
  8
1
 62
     7
 10
-277.99663184482489
 20
-104.6641087455673
 30
0.0
 11
-281.69663184482482
 21
-104.6641087455673
 31
0.0
  0
LINE
  5
EA
  8
1
 62
     7
 10
-277.99663184482489
 20
-42.16410874556739
 30
0.0
 11
-281.69663184482482
 21
-42.16410874556739
 31
0.0
  0
LINE
  5
EB
  8
1
 62
     7
 10
-248.69663184482491
 20
-127.1641087455674
 30
0.0
 11
-250.69663184482479
 21
-125.1641087455674
 31
0.0
  0
LINE
  5
EC
  8
1
 62
     7
 10
-236.7966318448249
 20
-88.664108745567404
 30
0.0
 11
-231.69663184482479
 21
-88.664108745567404
 31
0.0
  0
LINE
  5
ED
  8
1
 62
     7
 10
-231.69663184482479
 20
-88.664108745567404
 30
0.0
 11
-231.69663184482479
 21
-116.6641087455674
 31
0.0
  0
LINE
  5
EE
  8
1
 62
     7
 10
-231.69663184482479
 20
-116.6641087455674
 30
0.0
 11
-250.69663184482479
 21
-116.6641087455674
 31
0.0
  0
LINE
  5
EF
  8
1
 62
     7
 10
-250.69663184482479
 20
-125.1641087455674
 30
0.0
 11
-250.69663184482479
 21
-116.6641087455674
 31
0.0
  0
LINE
  5
F0
  8
1
 62
     7
 10
-223.89663184482481
 20
-25.66410874556739
 30
0.0
 11
-223.89663184482481
 21
-74.664108745567404
 31
0.0
  0
LINE
  5
F1
  8
1
 62
     7
 10
-223.89663184482481
 20
-74.664108745567404
 30
0.0
 11
-220.69663184482491
 21
-74.664108745567404
 31
0.0
  0
LINE
  5
F2
  8
1
 62
     7
 10
-257.69663184482482
 20
-18.66410874556739
 30
0.0
 11
-256.69663184482482
 21
-19.66410874556739
 31
0.0
  0
LINE
  5
F3
  8
1
 62
     7
 10
-236.7966318448249
 20
-84.164108745567404
 30
0.0
 11
-236.7966318448249
 21
-88.664108745567404
 31
0.0
  0
LINE
  5
F4
  8
1
 62
     7
 10
-234.7966318448249
 20
-84.164108745567404
 30
0.0
 11
-236.7966318448249
 21
-84.164108745567404
 31
0.0
  0
LINE
  5
F5
  8
1
 62
     7
 10
-277.99663184482489
 20
-113.1641087455674
 30
0.0
 11
-277.99663184482489
 21
-69.664108745567404
 31
0.0
  0
LINE
  5
F6
  8
1
 62
     7
 10
-261.99663184482478
 20
-69.664108745567404
 30
0.0
 11
-277.99663184482489
 21
-69.664108745567404
 31
0.0
  0
LINE
  5
F7
  8
1
 62
     7
 10
-254.99663184482489
 20
-62.664108745567397
 30
0.0
 11
-261.99663184482478
 21
-69.664108745567404
 31
0.0
  0
LINE
  5
F8
  8
1
 62
     7
 10
-274.99663184482478
 20
-116.1641087455673
 30
0.0
 11
-277.99663184482489
 21
-113.1641087455674
 31
0.0
  0
LINE
  5
F9
  8
1
 62
     7
 10
-277.99663184482489
 20
-104.6641087455673
 30
0.0
 11
-281.69663184482482
 21
-104.6641087455673
 31
0.0
  0
LINE
  5
FA
  8
1
 62
     7
 10
-277.99663184482489
 20
-42.16410874556739
 30
0.0
 11
-281.69663184482482
 21
-42.16410874556739
 31
0.0
  0
LINE
  5
FB
  8
1
 62
     7
 10
-220.69663184482491
 20
135.33589125443251
 30
0.0
 11
-220.69663184482491
 21
86.335891254432596
 31
0.0
  0
LINE
  5
FC
  8
1
 62
     7
 10
-281.69663184482482
 20
121.5858912544325
 30
0.0
 11
-277.99663184482489
 21
121.5858912544325
 31
0.0
  0
LINE
  5
FD
  8
1
  6
DASHDOT
 62
     3
 10
-284.75886844607652
 20
115.3358912544325
 30
0.0
 11
-275.12198623586818
 21
115.3358912544325
 31
0.0
  0
LINE
  5
FE
  8
1
 62
     7
 10
-281.69663184482482
 20
109.0858912544325
 30
0.0
 11
-277.99663184482489
 21
109.0858912544325
 31
0.0
  0
LINE
  5
FF
  8
1
 62
     7
 10
-281.69663184482482
 20
102.8358912544325
 30
0.0
 11
-277.99663184482489
 21
102.8358912544325
 31
0.0
  0
LINE
  5
100
  8
1
 62
     7
 10
-281.69663184482482
 20
165.3358912544326
 30
0.0
 11
-277.99663184482489
 21
165.3358912544326
 31
0.0
  0
LINE
  5
101
  8
1
 62
     7
 10
-233.99663184482489
 20
176.83589125443251
 30
0.0
 11
-233.99663184482489
 21
149.3358912544326
 31
0.0
  0
LINE
  5
102
  8
1
 62
     7
 10
-277.99663184482489
 20
173.83589125443251
 30
0.0
 11
-274.99663184482478
 21
176.83589125443251
 31
0.0
  0
LINE
  5
103
  8
1
 62
     7
 10
-254.99663184482489
 20
123.3358912544326
 30
0.0
 11
-254.99663184482489
 21
86.335891254432596
 31
0.0
  0
LINE
  5
104
  8
1
 62
     7
 10
-261.99663184482478
 20
130.33589125443251
 30
0.0
 11
-254.99663184482489
 21
123.3358912544326
 31
0.0
  0
LINE
  5
105
  8
1
 62
     7
 10
-277.99663184482489
 20
130.33589125443251
 30
0.0
 11
-261.99663184482478
 21
130.33589125443251
 31
0.0
  0
LINE
  5
106
  8
1
 62
     7
 10
-277.99663184482489
 20
173.83589125443251
 30
0.0
 11
-277.99663184482489
 21
-113.1641087455674
 31
0.0
  0
LINE
  5
107
  8
1
 62
     7
 10
-234.7966318448249
 20
144.83589125443251
 30
0.0
 11
-234.7966318448249
 21
123.3358912544326
 31
0.0
  0
LINE
  5
108
  8
1
 62
     7
 10
-236.7966318448249
 20
144.83589125443251
 30
0.0
 11
-234.7966318448249
 21
144.83589125443251
 31
0.0
  0
LINE
  5
109
  8
1
 62
     7
 10
-236.7966318448249
 20
149.3358912544326
 30
0.0
 11
-236.7966318448249
 21
144.83589125443251
 31
0.0
  0
LINE
  5
10A
  8
1
 62
     7
 10
-219.99663184482489
 20
135.33589125443251
 30
0.0
 11
-213.09663184482491
 21
135.33589125443251
 31
0.0
  0
LINE
  5
10B
  8
1
 62
     7
 10
-167.69663184482491
 20
-33.664108745567397
 30
0.0
 11
-167.69663184482491
 21
30.3358912544326
 31
0.0
  0
LINE
  5
10C
  8
1
 62
     7
 10
-219.99663184482489
 20
-25.66410874556739
 30
0.0
 11
-219.99663184482489
 21
-127.1641087455674
 31
0.0
  0
LINE
  5
10D
  8
1
 62
     7
 10
-167.69663184482491
 20
-33.664108745567397
 30
0.0
 11
-167.69663184482491
 21
94.335891254432596
 31
0.0
  0
LINE
  5
10E
  8
1
 62
     7
 10
-199.69663184482491
 20
-50.314108745567403
 30
0.0
 11
-200.69663184482479
 21
-49.31410874556741
 31
0.0
  0
LINE
  5
10F
  8
1
 62
     7
 10
-182.7966318448249
 20
-56.66410874556739
 30
0.0
 11
-184.79663184482479
 21
-56.66410874556739
 31
0.0
  0
LINE
  5
110
  8
1
 62
     7
 10
-182.7966318448249
 20
-44.66410874556739
 30
0.0
 11
-182.7966318448249
 21
-56.66410874556739
 31
0.0
  0
LINE
  5
111
  8
1
 62
     7
 10
-183.49663184482489
 20
-52.1141087455674
 30
0.0
 11
-189.08300686947231
 21
-52.1141087455674
 31
0.0
  0
LINE
  5
112
  8
1
 62
     7
 10
-183.49663184482489
 20
-50.314108745567403
 30
0.0
 11
-183.49663184482489
 21
-52.1141087455674
 31
0.0
  0
LINE
  5
113
  8
1
 62
     7
 10
-187.8966318448249
 20
-53.664108745567397
 30
0.0
 11
-189.69663184482479
 21
-53.664108745567397
 31
0.0
  0
LINE
  5
114
  8
1
 62
     7
 10
-200.69663184482479
 20
-49.31410874556741
 30
0.0
 11
-200.69663184482479
 21
-19.66410874556739
 31
0.0
  0
LINE
  5
115
  8
1
 62
     7
 10
-257.69663184482482
 20
-18.66410874556739
 30
0.0
 11
-256.69663184482482
 21
-19.66410874556739
 31
0.0
  0
LINE
  5
116
  8
1
 62
     7
 10
-256.69663184482482
 20
80.335891254432596
 30
0.0
 11
-257.69663184482482
 21
79.335891254432596
 31
0.0
  0
LINE
  5
117
  8
1
 62
     7
 10
-200.69663184482479
 20
80.335891254432596
 30
0.0
 11
-200.69663184482479
 21
109.9858912544326
 31
0.0
  0
LINE
  5
118
  8
1
 62
     7
 10
-200.69663184482479
 20
80.335891254432596
 30
0.0
 11
-256.69663184482482
 21
80.335891254432596
 31
0.0
  0
LINE
  5
119
  8
1
 62
     7
 10
-170.09663184482491
 20
110.3358912544325
 30
0.0
 11
-167.19663184482491
 21
110.3358912544325
 31
0.0
  0
LINE
  5
11A
  8
1
 62
     7
 10
-170.09663184482491
 20
110.9858912544326
 30
0.0
 11
-199.69663184482491
 21
110.9858912544326
 31
0.0
  0
LINE
  5
11B
  8
1
 62
     7
 10
-170.09663184482491
 20
110.9858912544326
 30
0.0
 11
-170.09663184482491
 21
94.335891254432596
 31
0.0
  0
LINE
  5
11C
  8
1
 62
     7
 10
-206.19663184482479
 20
-25.66410874556739
 30
0.0
 11
-206.19663184482479
 21
-84.514108745567398
 31
0.0
  0
LINE
  5
11D
  8
1
 62
     7
 10
-189.69663184482479
 20
-82.664108745567404
 30
0.0
 11
-187.8966318448249
 21
-82.664108745567404
 31
0.0
  0
LINE
  5
11E
  8
1
 62
     7
 10
-187.8966318448249
 20
-53.664108745567397
 30
0.0
 11
-187.8966318448249
 21
-82.664108745567404
 31
0.0
  0
LINE
  5
11F
  8
1
 62
     7
 10
-189.69663184482479
 20
-52.855109437910187
 30
0.0
 11
-189.69663184482479
 21
-82.664108745567404
 31
0.0
  0
LINE
  5
120
  8
1
 62
     7
 10
-184.79663184482479
 20
-56.66410874556739
 30
0.0
 11
-184.79663184482479
 21
-82.664108745567404
 31
0.0
  0
LINE
  5
121
  8
1
 62
     7
 10
-182.7966318448249
 20
-56.66410874556739
 30
0.0
 11
-184.79663184482479
 21
-56.66410874556739
 31
0.0
  0
LINE
  5
122
  8
1
 62
     7
 10
-182.7966318448249
 20
-44.66410874556739
 30
0.0
 11
-182.7966318448249
 21
-56.66410874556739
 31
0.0
  0
LINE
  5
123
  8
1
 62
     7
 10
-195.49663184482489
 20
-89.664108745567404
 30
0.0
 11
-200.49663184482489
 21
-89.664108745567404
 31
0.0
  0
LINE
  5
124
  8
1
 62
     7
 10
-200.49663184482489
 20
-62.16410874556739
 30
0.0
 11
-195.49663184482489
 21
-62.16410874556739
 31
0.0
  0
LINE
  5
125
  8
1
 62
     7
 10
-195.49663184482489
 20
-59.764108745567398
 30
0.0
 11
-198.49663184482489
 21
-59.764108745567412
 31
0.0
  0
LINE
  5
126
  8
1
 62
     7
 10
-192.929586455465
 20
-64.164108745567404
 30
0.0
 11
-195.49663184482489
 21
-64.164108745567404
 31
0.0
  0
LINE
  5
127
  8
1
 62
     7
 10
-192.75569286344839
 20
-62.364108745567393
 30
0.0
 11
-195.49663184482489
 21
-62.364108745567393
 31
0.0
  0
LINE
  5
128
  8
1
 62
     7
 10
-191.49663184482489
 20
-52.803251818744059
 30
0.0
 11
-191.49663184482489
 21
-61.663908710025332
 31
0.0
  0
LINE
  5
129
  8
1
 62
     7
 10
-187.8966318448249
 20
-53.664108745567397
 30
0.0
 11
-189.69663184482479
 21
-53.664108745567397
 31
0.0
  0
LINE
  5
12A
  8
1
 62
     7
 10
-187.8966318448249
 20
120.3358912544326
 30
0.0
 11
-187.8966318448249
 21
125.3358912544326
 31
0.0
  0
LINE
  5
12B
  8
1
 62
     7
 10
-189.69663184482479
 20
125.3358912544326
 30
0.0
 11
-189.69663184482479
 21
120.77302749201991
 31
0.0
  0
LINE
  5
12C
  8
1
 62
     7
 10
-189.69663184482479
 20
120.3358912544326
 30
0.0
 11
-187.8966318448249
 21
120.3358912544326
 31
0.0
  0
LINE
  5
12D
  8
1
 62
     7
 10
-187.8966318448249
 20
114.3358912544325
 30
0.0
 11
-187.8966318448249
 21
120.3358912544326
 31
0.0
  0
LINE
  5
12E
  8
1
 62
     7
 10
-189.69663184482479
 20
114.3358912544325
 30
0.0
 11
-187.8966318448249
 21
114.3358912544325
 31
0.0
  0
LINE
  5
12F
  8
1
 62
     7
 10
-183.49663184482489
 20
112.7858912544325
 30
0.0
 11
-183.49663184482489
 21
110.9858912544326
 31
0.0
  0
LINE
  5
130
  8
1
 62
     7
 10
-191.49663184482489
 20
122.3356912188904
 30
0.0
 11
-191.49663184482489
 21
113.47503432760909
 31
0.0
  0
LINE
  5
131
  8
1
 62
     7
 10
-195.49663184482489
 20
123.0358912544325
 30
0.0
 11
-192.75569286344839
 21
123.0358912544325
 31
0.0
  0
LINE
  5
132
  8
1
 62
     7
 10
-189.08300686947231
 20
112.7858912544325
 30
0.0
 11
-183.49663184482489
 21
112.7858912544325
 31
0.0
  0
LINE
  5
133
  8
1
 62
     7
 10
-189.69663184482479
 20
121.5526298599155
 30
0.0
 11
-189.69663184482479
 21
113.52689194677529
 31
0.0
  0
LINE
  5
134
  8
1
 62
     7
 10
-195.49663184482489
 20
124.8358912544325
 30
0.0
 11
-192.929586455465
 21
124.8358912544325
 31
0.0
  0
LINE
  5
135
  8
1
 62
     7
 10
-203.09663184482491
 20
183.23589125443249
 30
0.0
 11
-203.09663184482491
 21
142.33589125443251
 31
0.0
  0
LINE
  5
136
  8
1
 62
     7
 10
-200.49663184482489
 20
139.33589125443251
 30
0.0
 11
-200.49663184482489
 21
183.23589125443249
 31
0.0
  0
LINE
  5
137
  8
1
 62
     7
 10
-195.49663184482489
 20
187.8358912544326
 30
0.0
 11
-195.49663184482489
 21
145.85741392380501
 31
0.0
  0
LINE
  5
138
  8
1
 62
     7
 10
-195.49663184482489
 20
120.4358912544326
 30
0.0
 11
-195.49663184482489
 21
117.8358912544325
 31
0.0
  0
LINE
  5
139
  8
1
 62
     7
 10
-195.49663184482489
 20
122.8358912544325
 30
0.0
 11
-200.49663184482489
 21
122.8358912544325
 31
0.0
  0
LINE
  5
13A
  8
1
 62
     7
 10
-195.49663184482489
 20
129.33589125443251
 30
0.0
 11
-195.49663184482489
 21
122.8358912544325
 31
0.0
  0
LINE
  5
13B
  8
1
 62
     7
 10
-195.49663184482489
 20
150.3358912544326
 30
0.0
 11
-195.49663184482489
 21
139.33589125443251
 31
0.0
  0
LINE
  5
13C
  8
1
 62
     7
 10
-200.49663184482489
 20
150.3358912544326
 30
0.0
 11
-195.49663184482489
 21
150.3358912544326
 31
0.0
  0
LINE
  5
13D
  8
1
 62
     7
 10
-206.19663184482479
 20
126.3358912544326
 30
0.0
 11
-206.19663184482479
 21
86.335891254432596
 31
0.0
  0
LINE
  5
13E
  8
1
 62
     7
 10
-219.99663184482489
 20
187.8358912544326
 30
0.0
 11
-206.19663184482479
 21
187.8358912544326
 31
0.0
  0
LINE
  5
13F
  8
1
 62
     7
 10
-219.99663184482489
 20
187.8358912544326
 30
0.0
 11
-219.99663184482489
 21
86.335891254432596
 31
0.0
  0
LINE
  5
140
  8
1
 62
     7
 10
-190.49663184482489
 20
143.3358912544326
 30
0.0
 11
-188.69663184482479
 21
143.3358912544326
 31
0.0
  0
LINE
  5
141
  8
1
 62
     7
 10
-190.49663184482489
 20
143.3358912544326
 30
0.0
 11
-190.49663184482489
 21
142.33589125443251
 31
0.0
  0
LINE
  5
142
  8
1
 62
     7
 10
-190.49663184482489
 20
125.3358912544326
 30
0.0
 11
-188.69663184482479
 21
125.3358912544326
 31
0.0
  0
LINE
  5
143
  8
1
 62
     7
 10
-190.49663184482489
 20
126.3358912544326
 30
0.0
 11
-190.49663184482489
 21
125.3358912544326
 31
0.0
  0
LINE
  5
144
  8
1
 62
     7
 10
-182.7966318448249
 20
117.3358912544326
 30
0.0
 11
-182.7966318448249
 21
105.3358912544325
 31
0.0
  0
LINE
  5
145
  8
1
 62
     7
 10
-184.79663184482479
 20
117.3358912544326
 30
0.0
 11
-182.7966318448249
 21
117.3358912544326
 31
0.0
  0
LINE
  5
146
  8
1
 62
     7
 10
-184.79663184482479
 20
125.3358912544326
 30
0.0
 11
-184.79663184482479
 21
117.3358912544326
 31
0.0
  0
LINE
  5
147
  8
1
 62
     7
 10
-188.69663184482479
 20
125.3358912544326
 30
0.0
 11
-184.79663184482479
 21
125.3358912544326
 31
0.0
  0
LINE
  5
148
  8
1
 62
     7
 10
-188.69663184482479
 20
129.33589125443251
 30
0.0
 11
-188.69663184482479
 21
125.3358912544326
 31
0.0
  0
LINE
  5
149
  8
1
 62
     7
 10
-188.69663184482479
 20
143.3358912544326
 30
0.0
 11
-188.69663184482479
 21
139.33589125443251
 31
0.0
  0
LINE
  5
14A
  8
1
 62
     7
 10
-171.49663184482469
 20
123.3358912544326
 30
0.0
 11
-171.49663184482469
 21
105.3358912544325
 31
0.0
  0
LINE
  5
14B
  8
1
 62
     7
 10
-174.79663184482479
 20
142.33589125443251
 30
0.0
 11
-174.79663184482479
 21
127.8785319415519
 31
0.0
  0
LINE
  5
14C
  8
1
 62
     7
 10
-188.69663184482479
 20
143.3358912544326
 30
0.0
 11
-175.79663184482479
 21
143.3358912544326
 31
0.0
  0
LINE
  5
14D
  8
1
 62
     7
 10
-190.49663184482489
 20
126.3358912544326
 30
0.0
 11
-190.49663184482489
 21
129.33589125443251
 31
0.0
  0
LINE
  5
14E
  8
1
 62
     7
 10
-195.49663184482489
 20
126.3358912544326
 30
0.0
 11
-190.49663184482489
 21
126.3358912544326
 31
0.0
  0
LINE
  5
14F
  8
1
 62
     7
 10
-195.49663184482489
 20
129.33589125443251
 30
0.0
 11
-195.49663184482489
 21
126.3358912544326
 31
0.0
  0
LINE
  5
150
  8
1
 62
     7
 10
-195.49663184482489
 20
142.33589125443251
 30
0.0
 11
-195.49663184482489
 21
139.33589125443251
 31
0.0
  0
LINE
  5
151
  8
1
 62
     7
 10
-190.49663184482489
 20
142.33589125443251
 30
0.0
 11
-190.49663184482489
 21
139.33589125443251
 31
0.0
  0
LINE
  5
152
  8
1
 62
     7
 10
-195.49663184482489
 20
142.33589125443251
 30
0.0
 11
-190.49663184482489
 21
142.33589125443251
 31
0.0
  0
LINE
  5
153
  8
1
 62
     3
 10
-200.86458103725599
 20
129.33589125443251
 30
0.0
 11
-200.86458103725599
 21
139.33589125443251
 31
0.0
  0
LINE
  5
154
  8
1
 62
     3
 10
-200.86458103725599
 20
138.33589125443251
 30
0.0
 11
-202.59663184482491
 21
139.33589125443251
 31
0.0
  0
LINE
  5
155
  8
1
 62
     3
 10
-174.7966318448249
 20
138.33589125443251
 30
0.0
 11
-200.86458103725599
 21
138.33589125443251
 31
0.0
  0
LINE
  5
156
  8
1
 62
     3
 10
-200.86458103725599
 20
130.33589125443251
 30
0.0
 11
-202.59663184482491
 21
129.33589125443251
 31
0.0
  0
LINE
  5
157
  8
1
 62
     3
 10
-174.7966318448249
 20
130.33589125443251
 30
0.0
 11
-200.86458103725599
 21
130.33589125443251
 31
0.0
  0
LINE
  5
158
  8
1
 62
     7
 10
-175.79663184482479
 20
129.33589125443251
 30
0.0
 11
-175.79663184482479
 21
139.33589125443251
 31
0.0
  0
LINE
  5
159
  8
1
 62
     7
 10
-175.79663184482479
 20
139.33589125443251
 30
0.0
 11
-203.09663184482491
 21
139.33589125443251
 31
0.0
  0
LINE
  5
15A
  8
1
 62
     7
 10
-174.7966318448249
 20
138.33589125443251
 30
0.0
 11
-175.79663184482479
 21
139.33589125443251
 31
0.0
  0
LINE
  5
15B
  8
1
 62
     7
 10
-174.7966318448249
 20
130.33589125443251
 30
0.0
 11
-174.7966318448249
 21
138.33589125443251
 31
0.0
  0
LINE
  5
15C
  8
1
 62
     7
 10
-175.79663184482479
 20
129.33589125443251
 30
0.0
 11
-174.7966318448249
 21
130.33589125443251
 31
0.0
  0
LINE
  5
15D
  8
1
 62
     7
 10
-203.09663184482491
 20
129.33589125443251
 30
0.0
 11
-175.79663184482479
 21
129.33589125443251
 31
0.0
  0
LINE
  5
15E
  8
1
 62
     7
 10
-212.49663184482489
 20
126.3358912544326
 30
0.0
 11
-212.49663184482489
 21
142.33589125443251
 31
0.0
  0
LINE
  5
15F
  8
1
 62
     7
 10
-203.09663184482491
 20
142.33589125443251
 30
0.0
 11
-203.09663184482491
 21
126.3358912544326
 31
0.0
  0
LINE
  5
160
  8
1
 62
     7
 10
-212.49663184482489
 20
142.33589125443251
 30
0.0
 11
-203.09663184482491
 21
142.33589125443251
 31
0.0
  0
LINE
  5
161
  8
1
 62
     7
 10
-213.09663184482491
 20
141.2966607698913
 30
0.0
 11
-212.49663184482489
 21
142.33589125443251
 31
0.0
  0
LINE
  5
162
  8
1
 62
     7
 10
-213.09663184482491
 20
127.3751217389738
 30
0.0
 11
-213.09663184482491
 21
141.2966607698913
 31
0.0
  0
LINE
  5
163
  8
1
 62
     7
 10
-212.49663184482489
 20
126.3358912544326
 30
0.0
 11
-213.09663184482491
 21
127.3751217389738
 31
0.0
  0
LINE
  5
164
  8
1
 62
     7
 10
-203.09663184482491
 20
126.3358912544326
 30
0.0
 11
-212.49663184482489
 21
126.3358912544326
 31
0.0
  0
LINE
  5
165
  8
1
 62
     7
 10
-200.69663184482479
 20
109.9858912544326
 30
0.0
 11
-199.69663184482491
 21
110.9858912544326
 31
0.0
  0
LINE
  5
166
  8
1
 62
     7
 10
-220.69663184482491
 20
187.8358912544326
 30
0.0
 11
-220.69663184482491
 21
135.33589125443251
 31
0.0
  0
LINE
  5
167
  8
1
 62
     7
 10
-220.69663184482491
 20
135.33589125443251
 30
0.0
 11
-223.89663184482481
 21
135.33589125443251
 31
0.0
  0
LINE
  5
168
  8
1
 62
     7
 10
-223.89663184482481
 20
135.33589125443251
 30
0.0
 11
-223.89663184482481
 21
86.335891254432596
 31
0.0
  0
LINE
  5
169
  8
1
 62
     7
 10
-220.69663184482491
 20
187.8358912544326
 30
0.0
 11
-248.69663184482491
 21
187.8358912544326
 31
0.0
  0
LINE
  5
16A
  8
1
 62
     7
 10
-250.69663184482479
 20
177.3358912544326
 30
0.0
 11
-250.69663184482479
 21
185.8358912544326
 31
0.0
  0
LINE
  5
16B
  8
1
 62
     7
 10
-250.69663184482479
 20
177.3358912544326
 30
0.0
 11
-231.69663184482479
 21
177.3358912544326
 31
0.0
  0
LINE
  5
16C
  8
1
 62
     7
 10
-231.69663184482479
 20
177.3358912544326
 30
0.0
 11
-231.69663184482479
 21
149.3358912544326
 31
0.0
  0
LINE
  5
16D
  8
1
 62
     7
 10
-231.69663184482479
 20
149.3358912544326
 30
0.0
 11
-236.7966318448249
 21
149.3358912544326
 31
0.0
  0
LINE
  5
16E
  8
1
 62
     7
 10
-250.69663184482479
 20
185.8358912544326
 30
0.0
 11
-248.69663184482491
 21
187.8358912544326
 31
0.0
  0
LINE
  5
16F
  8
1
 62
     7
 10
-219.99663184482489
 20
-82.664108745567404
 30
0.0
 11
-215.19663184482479
 21
-82.664108745567404
 31
0.0
  0
LINE
  5
170
  8
1
 62
     7
 10
-215.19663184482479
 20
-82.664108745567404
 30
0.0
 11
-215.19663184482479
 21
-91.664108745567404
 31
0.0
  0
LINE
  5
171
  8
1
 62
     7
 10
-215.19663184482479
 20
-91.664108745567404
 30
0.0
 11
-219.99663184482489
 21
-91.664108745567404
 31
0.0
  0
LINE
  5
172
  8
1
 62
     7
 10
-215.19663184482479
 20
-84.514108745567398
 30
0.0
 11
-203.5966318448248
 21
-84.514108745567398
 31
0.0
  0
LINE
  5
173
  8
1
 62
     7
 10
-215.19663184482479
 20
-89.814108745567395
 30
0.0
 11
-203.5966318448248
 21
-89.814108745567395
 31
0.0
  0
LINE
  5
174
  8
1
 62
     7
 10
-219.99663184482489
 20
-110.1641087455674
 30
0.0
 11
-215.19663184482479
 21
-110.1641087455674
 31
0.0
  0
LINE
  5
175
  8
1
 62
     7
 10
-215.19663184482479
 20
-110.1641087455674
 30
0.0
 11
-215.19663184482479
 21
-119.1641087455673
 31
0.0
  0
LINE
  5
176
  8
1
 62
     7
 10
-215.19663184482479
 20
-119.1641087455673
 30
0.0
 11
-219.99663184482489
 21
-119.1641087455673
 31
0.0
  0
LINE
  5
177
  8
1
 62
     7
 10
-215.19663184482479
 20
-112.0141087455674
 30
0.0
 11
-203.5966318448248
 21
-112.0141087455674
 31
0.0
  0
LINE
  5
178
  8
1
 62
     7
 10
-215.19663184482479
 20
-117.3141087455674
 30
0.0
 11
-203.5966318448248
 21
-117.3141087455674
 31
0.0
  0
LINE
  5
179
  8
1
 62
     7
 10
-203.5966318448248
 20
-64.814718207750047
 30
0.0
 11
-203.5966318448248
 21
-119.5134992833848
 31
0.0
  0
LINE
  5
17A
  8
1
 62
     7
 10
-200.49663184482489
 20
-82.414108745567404
 30
0.0
 11
-195.49663184482489
 21
-82.414108745567404
 31
0.0
  0
LINE
  5
17B
  8
1
 62
     7
 10
-170.09663184482491
 20
94.335891254432596
 30
0.0
 11
-167.19663184482491
 21
94.335891254432596
 31
0.0
  0
LINE
  5
17C
  8
1
 62
     7
 10
-170.09663184482491
 20
-33.664108745567397
 30
0.0
 11
-167.19663184482491
 21
-33.664108745567397
 31
0.0
  0
LINE
  5
17D
  8
1
 62
     7
 10
-233.99663184482489
 20
-116.1641087455673
 30
0.0
 11
-233.99663184482489
 21
-88.664108745567404
 31
0.0
  0
LINE
  5
17E
  8
1
 62
     7
 10
-234.7966318448249
 20
-62.664108745567397
 30
0.0
 11
-254.99663184482489
 21
-62.664108745567397
 31
0.0
  0
LINE
  5
17F
  8
1
 62
     7
 10
-234.7966318448249
 20
-62.664108745567397
 30
0.0
 11
-223.89663184482481
 21
-62.664108745567397
 31
0.0
  0
LINE
  5
180
  8
1
 62
     7
 10
-254.99663184482489
 20
123.3358912544326
 30
0.0
 11
-223.89663184482481
 21
123.3358912544326
 31
0.0
  0
LINE
  5
181
  8
1
 62
     7
 10
-220.69663184482491
 20
-25.66410874556739
 30
0.0
 11
-220.69663184482491
 21
-127.1641087455674
 31
0.0
  0
LINE
  5
182
  8
1
 62
     7
 10
-234.7966318448249
 20
123.3358912544326
 30
0.0
 11
-234.7966318448249
 21
86.335891254432596
 31
0.0
  0
LINE
  5
183
  8
1
 62
     7
 10
-195.49663184482489
 20
185.2358912544326
 30
0.0
 11
-198.49663184482489
 21
185.2358912544326
 31
0.0
  0
LINE
  5
184
  8
1
 62
     7
 10
-198.49663184482489
 20
187.8358912544326
 30
0.0
 11
-195.49663184482489
 21
187.8358912544326
 31
0.0
  0
LINE
  5
185
  8
1
 62
     7
 10
-206.19663184482479
 20
187.8358912544326
 30
0.0
 11
-206.19663184482479
 21
142.33589125443251
 31
0.0
  0
LINE
  5
186
  8
1
 62
     7
 10
-195.49663184482489
 20
120.4358912544326
 30
0.0
 11
-198.49663184482489
 21
120.4358912544326
 31
0.0
  0
LINE
  5
187
  8
1
 62
     7
 10
-200.49663184482489
 20
122.4358912544326
 30
0.0
 11
-200.49663184482489
 21
129.33589125443251
 31
0.0
  0
LINE
  5
188
  8
1
 62
     7
 10
-195.49663184482489
 20
117.8358912544325
 30
0.0
 11
-198.49663184482489
 21
117.8358912544325
 31
0.0
  0
LINE
  5
189
  8
1
 62
     7
 10
-203.09663184482491
 20
126.3358912544326
 30
0.0
 11
-203.09663184482491
 21
122.4358912544326
 31
0.0
  0
LINE
  5
18A
  8
1
 62
     7
 10
-173.91795218838431
 20
125.7572115979922
 30
0.0
 11
-171.49663184482469
 21
123.3358912544326
 31
0.0
  0
LINE
  5
18B
  8
1
 62
     7
 10
-167.19663184482491
 20
94.335891254432596
 30
0.0
 11
-167.19663184482491
 21
30.3358912544326
 31
0.0
  0
LINE
  5
18C
  8
1
 62
     7
 10
-167.19663184482491
 20
30.3358912544326
 30
0.0
 11
-167.19663184482491
 21
-33.664108745567397
 31
0.0
  0
LINE
  5
18D
  8
1
 62
     7
 10
-170.09663184482491
 20
-33.664108745567397
 30
0.0
 11
-170.09663184482491
 21
-50.314108745567403
 31
0.0
  0
LINE
  5
18E
  8
1
 62
     7
 10
-170.09663184482491
 20
-44.66410874556739
 30
0.0
 11
-200.69663184482479
 21
-44.66410874556739
 31
0.0
  0
LINE
  5
18F
  8
1
 62
     7
 10
-167.19663184482491
 20
-49.66410874556739
 30
0.0
 11
-170.09663184482491
 21
-49.66410874556739
 31
0.0
  0
LINE
  5
190
  8
1
 62
     7
 10
-171.49663184482469
 20
-44.66410874556739
 30
0.0
 11
-171.49663184482469
 21
-62.664108745567397
 31
0.0
  0
LINE
  5
191
  8
1
 62
     7
 10
-171.49663184482469
 20
-62.664108745567397
 30
0.0
 11
-173.91795218838431
 21
-65.085429089127047
 31
0.0
  0
LINE
  5
192
  8
1
 62
     7
 10
-174.79663184482479
 20
-67.206749432686678
 30
0.0
 11
-174.79663184482479
 21
-81.664108745567404
 31
0.0
  0
LINE
  5
193
  8
1
 62
     7
 10
-175.79663184482479
 20
-82.664108745567404
 30
0.0
 11
-184.79663184482479
 21
-82.664108745567404
 31
0.0
  0
LINE
  5
194
  8
1
 62
     7
 10
-198.49663184482489
 20
-124.5641087455674
 30
0.0
 11
-195.49663184482489
 21
-124.5641087455674
 31
0.0
  0
LINE
  5
195
  8
1
 62
     7
 10
-195.49663184482489
 20
-127.1641087455674
 30
0.0
 11
-198.49663184482489
 21
-127.1641087455674
 31
0.0
  0
LINE
  5
196
  8
1
 62
     7
 10
-510.16279622219878
 20
-127.1641087455674
 30
0.0
 11
-513.16279622219895
 21
-127.1641087455674
 31
0.0
  0
LINE
  5
197
  8
1
 62
     7
 10
-517.76279622219886
 20
183.23589125443249
 30
0.0
 11
-517.76279622219886
 21
-122.5641087455674
 31
0.0
  0
LINE
  5
198
  8
1
 62
     7
 10
-520.86279622219877
 20
-119.4641087455674
 30
0.0
 11
-520.86279622219877
 21
-127.1641087455674
 31
0.0
  0
LINE
  5
199
  8
1
 62
     7
 10
-206.19663184482479
 20
-117.3141087455674
 30
0.0
 11
-206.19663184482479
 21
-127.1641087455674
 31
0.0
  0
LINE
  5
19A
  8
1
 62
     7
 10
-198.49663184482489
 20
-57.16410874556739
 30
0.0
 11
-195.49663184482489
 21
-57.16410874556739
 31
0.0
  0
LINE
  5
19B
  8
1
 62
     7
 10
-200.49663184482489
 20
-122.5641087455674
 30
0.0
 11
-200.49663184482489
 21
-61.764108745567398
 31
0.0
  0
LINE
  5
19C
  8
1
 62
     7
 10
-195.49663184482489
 20
-57.16410874556739
 30
0.0
 11
-195.49663184482489
 21
-127.1641087455674
 31
0.0
  0
LINE
  5
19D
  8
1
 62
     7
 10
-520.86279622219877
 20
187.8358912544326
 30
0.0
 11
-520.86279622219877
 21
-119.4641087455674
 31
0.0
  0
LINE
  5
19E
  8
1
 62
     7
 10
-510.16279622219878
 20
187.8358912544326
 30
0.0
 11
-510.16279622219878
 21
30.3358912544326
 31
0.0
  0
LINE
  5
19F
  8
1
 62
     7
 10
-488.58411656575851
 20
125.7572115979922
 30
0.0
 11
-486.16279622219878
 21
123.3358912544326
 31
0.0
  0
LINE
  5
1A0
  8
1
 62
     7
 10
-486.16279622219878
 20
-62.664108745567397
 30
0.0
 11
-488.58411656575851
 21
-65.085429089127047
 31
0.0
  0
LINE
  5
1A1
  8
1
 62
     7
 10
-489.46279622219879
 20
142.33589125443251
 30
0.0
 11
-489.46279622219879
 21
-81.664108745567404
 31
0.0
  0
LINE
  5
1A2
  8
1
 62
     7
 10
-510.16279622219878
 20
-127.1641087455674
 30
0.0
 11
-510.16279622219878
 21
30.3358912544326
 31
0.0
  0
LINE
  5
1A3
  8
1
 62
     7
 10
-200.69663184482479
 20
105.3358912544325
 30
0.0
 11
-170.09663184482491
 21
105.3358912544325
 31
0.0
  0
LINE
  5
1A4
  8
1
 62
     7
 10
-256.69663184482482
 20
-19.66410874556739
 30
0.0
 11
-200.69663184482479
 21
-19.66410874556739
 31
0.0
  0
LINE
  5
1A5
  8
1
 62
     7
 10
-199.69663184482491
 20
-50.314108745567403
 30
0.0
 11
-170.09663184482491
 21
-50.314108745567403
 31
0.0
  0
LINE
  5
1A6
  8
1
 62
     7
 10
-484.76279622219897
 20
110.3358912544325
 30
0.0
 11
-481.86279622219899
 21
110.3358912544325
 31
0.0
  0
LINE
  5
1A7
  8
1
 62
     7
 10
-486.16279622219878
 20
110.9858912544326
 30
0.0
 11
-484.76279622219897
 21
110.9858912544326
 31
0.0
  0
LINE
  5
1A8
  8
1
 62
     7
 10
-481.86279622219899
 20
110.3358912544325
 30
0.0
 11
-481.86279622219899
 21
30.33589125443261
 31
0.0
  0
LINE
  5
1A9
  8
1
 62
     7
 10
-484.76279622219897
 20
110.9858912544326
 30
0.0
 11
-484.76279622219897
 21
30.3358912544326
 31
0.0
  0
LINE
  5
1AA
  8
1
 62
     7
 10
-481.86279622219899
 20
-49.664108745567368
 30
0.0
 11
-484.76279622219897
 21
-49.664108745567368
 31
0.0
  0
LINE
  5
1AB
  8
1
 62
     7
 10
-484.76279622219897
 20
-50.314108745567388
 30
0.0
 11
-486.16279622219878
 21
-50.314108745567388
 31
0.0
  0
LINE
  5
1AC
  8
1
 62
     7
 10
-484.76279622219897
 20
30.3358912544326
 30
0.0
 11
-484.76279622219897
 21
-50.314108745567388
 31
0.0
  0
LINE
  5
1AD
  8
1
 62
     7
 10
-481.86279622219899
 20
30.33589125443261
 30
0.0
 11
-481.86279622219899
 21
-49.664108745567368
 31
0.0
  0
LINE
  5
1AE
  8
1
 62
     7
 10
-565.36279622219899
 20
185.8358912544326
 30
0.0
 11
-565.36279622219899
 21
-125.1641087455674
 31
0.0
  0
LINE
  5
1AF
  8
1
 62
     7
 10
-263.99663184482478
 20
255.7255545917906
 30
0.0
 11
-261.39663184482492
 21
255.7255545917906
 31
0.0
  0
LINE
  5
1B0
  8
1
 62
     7
 10
-578.66279622219906
 20
176.83589125443251
 30
0.0
 11
-578.66279622219906
 21
255.7255545917906
 31
0.0
  0
LINE
  5
1B1
  8
1
 62
     7
 10
-576.06279622219904
 20
176.83589125443251
 30
0.0
 11
-576.06279622219904
 21
255.7255545917906
 31
0.0
  0
LINE
  5
1B2
  8
1
 62
     7
 10
-576.36279622219888
 20
255.7255545917906
 30
0.0
 11
-576.36279622219888
 21
260.7911073726055
 31
0.0
  0
LINE
  5
1B3
  8
1
 62
     7
 10
-577.36279622219899
 20
255.7255545917906
 30
0.0
 11
-577.36279622219899
 21
260.7911073726055
 31
0.0
  0
LINE
  5
1B4
  8
1
 62
     7
 10
-578.36279622219899
 20
255.7255545917906
 30
0.0
 11
-578.36279622219899
 21
260.75944531191732
 31
0.0
  0
LINE
  5
1B5
  8
1
 62
     7
 10
-578.66279622219906
 20
255.7255545917906
 30
0.0
 11
-576.06279622219904
 21
255.7255545917906
 31
0.0
  0
LINE
  5
1B6
  8
1
 62
     7
 10
136.24208048662291
 20
254.7039603017528
 30
0.0
 11
131.04208048662281
 21
254.7039603017528
 31
0.0
  0
LINE
  5
1B7
  8
1
 62
     7
 10
135.74208048662291
 20
259.70396030175277
 30
0.0
 11
135.74208048662291
 21
254.7039603017528
 31
0.0
  0
LINE
  5
1B8
  8
1
 62
     7
 10
135.04208048662281
 20
259.70396030175277
 30
0.0
 11
135.04208048662281
 21
254.7039603017528
 31
0.0
  0
LINE
  5
1B9
  8
1
 62
     7
 10
134.3420804866229
 20
259.70396030175277
 30
0.0
 11
134.3420804866229
 21
254.7039603017528
 31
0.0
  0
LINE
  5
1BA
  8
1
 62
     7
 10
132.9420804866229
 20
259.70396030175277
 30
0.0
 11
132.9420804866229
 21
254.7039603017528
 31
0.0
  0
LINE
  5
1BB
  8
1
 62
     7
 10
132.24208048662291
 20
259.70396030175277
 30
0.0
 11
132.24208048662291
 21
254.7039603017528
 31
0.0
  0
LINE
  5
1BC
  8
1
 62
     7
 10
131.54208048662289
 20
259.70396030175277
 30
0.0
 11
131.54208048662289
 21
254.7039603017528
 31
0.0
  0
ARC
  5
1BD
  8
1
 62
     7
 10
-507.61255127815798
 20
-60.914225704099387
 30
0.0
 40
3.249926466581103
 50
270.29619097785752
 51
319.60268170187561
  0
ARC
  5
1BE
  8
1
 62
     7
 10
-507.61255127815798
 20
121.5860082129645
 30
0.0
 40
3.2499264665811962
 50
25.367556225264281
 51
89.703809022142366
  0
ARC
  5
1BF
  8
1
  6
DASHDOT
 62
     3
 10
133.64208048662289
 20
30.3358912544326
 30
0.0
 40
58.000000000000057
 50
20.08574478048072
 51
37.896670814089049
  0
ARC
  5
1C0
  8
1
  6
DASHDOT
 62
     3
 10
133.64208048662289
 20
30.3358912544326
 30
0.0
 40
57.999999999999993
 50
261.07926795387669
 51
279.30791604585681
  0
ARC
  5
1C1
  8
1
  6
DASHDOT
 62
     3
 10
133.64208048662289
 20
30.3358912544326
 30
0.0
 40
57.999999999999972
 50
141.0669462838701
 51
160.0449370939275
  0
ARC
  5
1C2
  8
1
 62
     7
 10
84.144605803564588
 20
75.166461181659699
 30
0.0
 40
2.8050000000000042
 50
44.99999999999978
 51
135.0
  0
ARC
  5
1C3
  8
1
 62
     7
 10
79.477701047733404
 20
79.833365937490925
 30
0.0
 40
2.8050000000000042
 50
314.99999999999977
 51
45.0
  0
ARC
  5
1C4
  8
1
 62
     7
 10
84.14460580356463
 20
84.50027069332215
 30
0.0
 40
2.8050000000000042
 50
224.9999999999998
 51
315.0
  0
ARC
  5
1C5
  8
1
 62
     7
 10
88.811510559395813
 20
79.833365937490896
 30
0.0
 40
2.8050000000000042
 50
134.9999999999998
 51
225.0
  0
ARC
  5
1C6
  8
1
 62
     7
 10
178.47265041385
 20
79.833365937490925
 30
0.0
 40
2.804999999999962
 50
314.99999999999932
 51
45.000000000000618
  0
ARC
  5
1C7
  8
1
 62
     7
 10
183.1395551696813
 20
84.50027069332215
 30
0.0
 40
2.8050000000000228
 50
224.99999999999929
 51
314.99999999999898
  0
ARC
  5
1C8
  8
1
 62
     7
 10
187.80645992551251
 20
79.833365937490925
 30
0.0
 40
2.8050000000000228
 50
135.0000000000006
 51
224.99999999999929
  0
ARC
  5
1C9
  8
1
 62
     7
 10
183.1395551696813
 20
75.166461181659699
 30
0.0
 40
2.8049999999999429
 50
45.000000000001023
 51
135.0000000000006
  0
ARC
  5
1CA
  8
1
 62
     7
 10
183.1395551696813
 20
-14.49467867279451
 30
0.0
 40
2.805000000000029
 50
224.99999999999949
 51
314.99999999999898
  0
ARC
  5
1CB
  8
1
 62
     7
 10
187.80645992551251
 20
-19.161583428625711
 30
0.0
 40
2.8050000000000228
 50
135.0000000000006
 51
224.99999999999949
  0
ARC
  5
1CC
  8
1
 62
     7
 10
183.1395551696813
 20
-23.82848818445693
 30
0.0
 40
2.8049999999999549
 50
45.000000000001293
 51
135.0000000000004
  0
ARC
  5
1CD
  8
1
 62
     7
 10
178.47265041385
 20
-19.161583428625729
 30
0.0
 40
2.804999999999962
 50
314.99999999999932
 51
45.000000000000711
  0
ARC
  5
1CE
  8
1
 62
     7
 10
88.811510559395813
 20
-19.161583428625729
 30
0.0
 40
2.8049999999999979
 50
134.99999999999989
 51
225.0
  0
ARC
  5
1CF
  8
1
 62
     7
 10
84.14460580356463
 20
-23.82848818445693
 30
0.0
 40
2.805000000000001
 50
45.000000000000149
 51
134.99999999999989
  0
ARC
  5
1D0
  8
1
 62
     7
 10
79.477701047733404
 20
-19.161583428625711
 30
0.0
 40
2.805000000000001
 50
314.99999999999977
 51
45.000000000000099
  0
ARC
  5
1D1
  8
1
 62
     7
 10
84.14460580356463
 20
-14.49467867279451
 30
0.0
 40
2.8049999999999939
 50
225.0
 51
314.99999999999989
  0
ARC
  5
1D2
  8
1
 62
     7
 10
133.64208048662289
 20
30.3358912544326
 30
0.0
 40
30.0
 50
104.4775121859299
 51
75.522487814070075
  0
ARC
  5
1D3
  8
1
 62
     7
 10
164.05331828616909
 20
143.83217584339801
 30
0.0
 40
4.750000000000238
 50
166.1581850546701
 51
236.7026665023416
  0
ARC
  5
1D4
  8
1
 62
     7
 10
164.05331828616909
 20
143.83217584339801
 30
0.0
 40
4.7499999999999662
 50
273.29733349765769
 51
343.84157815207527
  0
ARC
  5
1D5
  8
1
 62
     7
 10
103.2308426870768
 20
143.83217584339801
 30
0.0
 40
4.7500000000001164
 50
196.15818505466979
 51
266.70266650234242
  0
ARC
  5
1D6
  8
1
 62
     7
 10
50.557033697203693
 20
113.4209380438519
 30
0.0
 40
4.7500000000001918
 50
226.15818505466939
 51
296.70266650234231
  0
ARC
  5
1D7
  8
1
 62
     7
 10
20.145795897657528
 20
60.74712905397881
 30
0.0
 40
4.7500000000001483
 50
256.15818505466888
 51
326.70266650234151
  0
ARC
  5
1D8
  8
1
 62
     7
 10
20.145795897657528
 20
-0.0753465451135682
 30
0.0
 40
4.7500000000000986
 50
286.15818505466831
 51
356.70266650234157
  0
ARC
  5
1D9
  8
1
 62
     7
 10
50.557033697203693
 20
-52.749155534986699
 30
0.0
 40
4.7500000000000817
 50
316.15818505466888
 51
26.70266650234181
  0
ARC
  5
1DA
  8
1
 62
     7
 10
103.2308426870768
 20
-83.160393334532884
 30
0.0
 40
4.7500000000000382
 50
346.15818505466927
 51
56.702666502342041
  0
ARC
  5
1DB
  8
1
 62
     7
 10
164.053318286169
 20
-83.160393334532912
 30
0.0
 40
4.7500000000002167
 50
16.158185054669051
 51
86.702666502341089
  0
ARC
  5
1DC
  8
1
 62
     7
 10
216.7271272760421
 20
-52.749155534986777
 30
0.0
 40
4.750000000000183
 50
46.158185054668863
 51
116.70266650234041
  0
ARC
  5
1DD
  8
1
 62
     7
 10
247.1383650755885
 20
-0.075346545113657
 30
0.0
 40
4.7500000000001332
 50
76.158185054668891
 51
146.7026665023412
  0
ARC
  5
1DE
  8
1
 62
     7
 10
247.1383650755885
 20
60.747129053978703
 30
0.0
 40
4.7500000000001359
 50
106.1581850546696
 51
176.7026665023418
  0
ARC
  5
1DF
  8
1
 62
     7
 10
216.7271272760423
 20
113.42093804385181
 30
0.0
 40
4.7500000000000728
 50
136.15818505466891
 51
206.70266650234089
  0
ARC
  5
1E0
  8
1
 62
     7
 10
103.2308426870768
 20
143.83217584339801
 30
0.0
 40
4.74999999999996
 50
303.29733349765871
 51
13.84157815207508
  0
ARC
  5
1E1
  8
1
 62
     7
 10
50.557033697203693
 20
113.4209380438519
 30
0.0
 40
4.7500000000000249
 50
333.29733349765871
 51
43.841578152075463
  0
ARC
  5
1E2
  8
1
 62
     7
 10
20.145795897657528
 20
60.74712905397881
 30
0.0
 40
4.7499999999999343
 50
3.297333497658502
 51
73.841578152075741
  0
ARC
  5
1E3
  8
1
 62
     7
 10
20.145795897657528
 20
-0.0753465451135682
 30
0.0
 40
4.7499999999999778
 50
33.297333497658506
 51
103.8415781520762
  0
ARC
  5
1E4
  8
1
 62
     7
 10
50.557033697203693
 20
-52.749155534986699
 30
0.0
 40
4.7499999999999574
 50
63.297333497659217
 51
133.84157815207561
  0
ARC
  5
1E5
  8
1
 62
     7
 10
103.2308426870768
 20
-83.160393334532884
 30
0.0
 40
4.7499999999999876
 50
93.297333497658911
 51
163.8415781520751
  0
ARC
  5
1E6
  8
1
 62
     7
 10
164.053318286169
 20
-83.160393334532912
 30
0.0
 40
4.749999999999921
 50
123.29733349765741
 51
193.8415781520751
  0
ARC
  5
1E7
  8
1
 62
     7
 10
216.7271272760421
 20
-52.749155534986777
 30
0.0
 40
4.7499999999999289
 50
153.29733349765789
 51
223.84157815207439
  0
ARC
  5
1E8
  8
1
 62
     7
 10
247.1383650755885
 20
-0.075346545113657
 30
0.0
 40
4.7499999999999689
 50
183.2973334976582
 51
253.84157815207379
  0
ARC
  5
1E9
  8
1
 62
     7
 10
247.1383650755885
 20
60.747129053978703
 30
0.0
 40
4.7500000000000391
 50
213.29733349765769
 51
283.84157815207448
  0
ARC
  5
1EA
  8
1
 62
     7
 10
216.7271272760423
 20
113.42093804385181
 30
0.0
 40
4.7499999999999547
 50
243.29733349765971
 51
313.84157815207561
  0
ARC
  5
1EB
  8
1
 62
     7
 10
133.64208048662289
 20
30.3358912544326
 30
0.0
 40
120.0000000000001
 50
347.2685506116764
 51
0.0
  0
ARC
  5
1EC
  8
1
 62
     7
 10
133.64208048662289
 20
30.3358912544326
 30
0.0
 40
120.0
 50
47.268550611676318
 51
72.731449388323568
  0
ARC
  5
1ED
  8
1
 62
     7
 10
133.64208048662289
 20
30.3358912544326
 30
0.0
 40
120.0
 50
77.268550611676361
 51
102.7314493883235
  0
ARC
  5
1EE
  8
1
 62
     7
 10
133.64208048662289
 20
30.3358912544326
 30
0.0
 40
120.0
 50
107.2685506116762
 51
132.73144938832351
  0
ARC
  5
1EF
  8
1
 62
     7
 10
133.64208048662289
 20
30.3358912544326
 30
0.0
 40
120.0
 50
137.2685506116762
 51
152.5617685048835
  0
ARC
  5
1F0
  8
1
 62
     7
 10
133.64208048662289
 20
30.3358912544326
 30
0.0
 40
120.0
 50
152.5617685048835
 51
162.73144938832351
  0
ARC
  5
1F1
  8
1
 62
     7
 10
133.64208048662289
 20
30.3358912544326
 30
0.0
 40
119.9999999999997
 50
167.26855061167629
 51
192.73144938832351
  0
ARC
  5
1F2
  8
1
 62
     7
 10
133.64208048662289
 20
30.3358912544326
 30
0.0
 40
119.9999999999999
 50
197.2685506116764
 51
222.7314493883236
  0
ARC
  5
1F3
  8
1
 62
     7
 10
133.64208048662289
 20
30.3358912544326
 30
0.0
 40
119.9999999999999
 50
227.2685506116764
 51
252.73144938832371
  0
ARC
  5
1F4
  8
1
 62
     7
 10
133.64208048662289
 20
30.3358912544326
 30
0.0
 40
120.0000000000001
 50
317.26855061167629
 51
342.7314493883236
  0
ARC
  5
1F5
  8
1
 62
     7
 10
133.64208048662289
 20
30.3358912544326
 30
0.0
 40
120.0
 50
287.26855061167629
 51
312.73144938832371
  0
ARC
  5
1F6
  8
1
 62
     7
 10
133.64208048662289
 20
30.3358912544326
 30
0.0
 40
119.9999999999999
 50
257.2685506116764
 51
282.7314493883236
  0
ARC
  5
1F7
  8
1
 62
     7
 10
133.64208048662289
 20
30.3358912544326
 30
0.0
 40
120.0
 50
17.268550611676339
 51
42.731449388323547
  0
ARC
  5
1F8
  8
1
 62
     7
 10
133.64208048662289
 20
30.3358912544326
 30
0.0
 40
120.0000000000001
 50
0.0
 51
12.73144938832357
  0
ARC
  5
1F9
  8
1
 62
     7
 10
-188.77524021234211
 20
-52.993543990830098
 30
0.0
 40
0.9317331516326635
 50
109.2879753766659
 51
171.45550223034931
  0
ARC
  5
1FA
  8
1
 62
     7
 10
-188.63584278064499
 20
-53.054071215687337
 30
0.0
 40
2.8717632979781289
 50
107.42599341646481
 51
174.9894106261367
  0
ARC
  5
1FB
  8
1
 62
     7
 10
-192.94638690078389
 20
-60.914225704099429
 30
0.0
 40
3.249926466581051
 50
270.29619097785462
 51
0.5884663544626343
  0
ARC
  5
1FC
  8
1
 62
     7
 10
-188.77524021234211
 20
-52.993543990830098
 30
0.0
 40
0.9317331516326635
 50
109.2879753766659
 51
171.45550223034931
  0
ARC
  5
1FD
  8
1
 62
     7
 10
-192.46234502381009
 20
-61.409503624915317
 30
0.0
 40
0.9986610493033603
 50
252.91793376309931
 51
345.24145448810827
  0
ARC
  5
1FE
  8
1
 62
     7
 10
-188.63584278064499
 20
-53.054071215687337
 30
0.0
 40
2.8717632979781289
 50
107.42599341646481
 51
174.9894106261367
  0
ARC
  5
1FF
  8
1
 62
     7
 10
-188.63584278064499
 20
113.72585372455249
 30
0.0
 40
2.8717632979781511
 50
185.010589373866
 51
252.57400658353501
  0
ARC
  5
200
  8
1
 62
     7
 10
-192.46234502381009
 20
122.0812861337804
 30
0.0
 40
0.9986610493032788
 50
14.758545511890841
 51
107.0820662369001
  0
ARC
  5
201
  8
1
 62
     7
 10
-192.94638690078389
 20
121.5860082129645
 30
0.0
 40
3.249926466581051
 50
359.41153364553833
 51
89.703809022145364
  0
ARC
  5
202
  8
1
 62
     7
 10
-205.4813341498164
 20
-87.170576948895132
 30
0.0
 40
4.8847065875080284
 50
293.08583469447149
 51
67.304265426347996
  0
ARC
  5
203
  8
1
 62
     7
 10
-205.44974252609219
 20
-114.636656866717
 30
0.0
 40
4.8847440372541531
 50
292.29447857069482
 51
67.705521429305207
  0
ARC
  5
204
  8
1
 62
     7
 10
-502.46279622219879
 20
-32.664108745567297
 30
0.0
 40
3.0
 50
0.0
 51
90.0
  0
ARC
  5
205
  8
1
 62
     7
 10
-502.46279622219879
 20
-10.664108745567299
 30
0.0
 40
3.0
 50
270.0
 51
0.0
  0
ARC
  5
206
  8
1
 62
     7
 10
-502.46279622219879
 20
93.33589125443271
 30
0.0
 40
3.0
 50
270.0
 51
0.0
  0
ARC
  5
207
  8
1
 62
     7
 10
-502.46279622219879
 20
71.33589125443271
 30
0.0
 40
3.0
 50
0.0
 51
90.0
  0
ARC
  5
208
  8
1
 62
     7
 10
-502.46279622219879
 20
-61.66410874556739
 30
0.0
 40
3.0000000000000062
 50
270.0
 51
0.0
  0
ARC
  5
209
  8
1
 62
     7
 10
-502.46279622219879
 20
122.3358912544326
 30
0.0
 40
3.0
 50
0.0
 51
90.0
  0
ARC
  5
20A
  8
1
 62
     7
 10
-188.77524021234211
 20
113.6653264996952
 30
0.0
 40
0.9317331516326088
 50
188.5444977696506
 51
250.71202462333429
  0
ARC
  5
20B
  8
1
 62
     7
 10
-204.02488564116391
 20
-123.4576466369091
 30
0.0
 40
3.6396407535145641
 50
14.21148292771174
 51
76.846261620068773
  0
ARC
  5
20C
  8
1
 62
     7
 10
-204.02488564116391
 20
-60.870570854225683
 30
0.0
 40
3.639640753514537
 50
283.1537383799311
 51
345.7885170722879
  0
CIRCLE
  5
20D
  8
1
 62
     7
 10
133.64208048662289
 20
30.3358912544326
 30
0.0
 40
80.650000000000105
  0
CIRCLE
  5
20E
  8
1
 62
     7
 10
133.64208048662289
 20
30.3358912544326
 30
0.0
 40
64.0
  0
CIRCLE
  5
20F
  8
1
 62
     7
 10
84.14460580356463
 20
79.833365937490925
 30
0.0
 40
6.0
  0
CIRCLE
  5
210
  8
1
 62
     7
 10
183.1395551696813
 20
79.833365937490925
 30
0.0
 40
6.0
  0
CIRCLE
  5
211
  8
1
 62
     7
 10
183.1395551696813
 20
-19.161583428625711
 30
0.0
 40
6.0
  0
CIRCLE
  5
212
  8
1
 62
     7
 10
84.14460580356463
 20
-19.161583428625711
 30
0.0
 40
6.0
  0
CIRCLE
  5
213
  8
1
 62
     3
 10
183.8715539061204
 20
59.335891254432603
 30
0.0
 40
5.0
  0
CIRCLE
  5
214
  8
1
 62
     7
 10
183.8715539061204
 20
59.335891254432603
 30
0.0
 40
4.0
  0
CIRCLE
  5
215
  8
1
 62
     3
 10
83.412607067125506
 20
59.335891254432603
 30
0.0
 40
5.0
  0
CIRCLE
  5
216
  8
1
 62
     7
 10
83.412607067125506
 20
59.335891254432603
 30
0.0
 40
4.0
  0
CIRCLE
  5
217
  8
1
 62
     3
 10
133.64208048662289
 20
-27.66410874556739
 30
0.0
 40
5.0
  0
CIRCLE
  5
218
  8
1
 62
     7
 10
133.64208048662289
 20
-27.66410874556739
 30
0.0
 40
4.0
  0
CIRCLE
  5
219
  8
1
 62
     7
 10
133.64208048662289
 20
30.3358912544326
 30
0.0
 40
157.5
  0
CIRCLE
  5
21A
  8
1
 62
     7
 10
133.64208048662289
 20
30.3358912544326
 30
0.0
 40
113.0
  0
CIRCLE
  5
21B
  8
1
 62
     7
 10
133.64208048662289
 20
30.3358912544326
 30
0.0
 40
95.0
  0
CIRCLE
  5
21C
  8
1
 62
     7
 10
223.7087224802045
 20
82.33589125443261
 30
0.0
 40
5.0
  0
CIRCLE
  5
21D
  8
1
 62
     7
 10
223.7087224802045
 20
82.33589125443261
 30
0.0
 40
4.0
  0
CIRCLE
  5
21E
  8
1
 62
     7
 10
133.642080486623
 20
134.33589125443251
 30
0.0
 40
4.0
  0
CIRCLE
  5
21F
  8
1
 62
     7
 10
133.642080486623
 20
134.33589125443251
 30
0.0
 40
5.0
  0
CIRCLE
  5
220
  8
1
 62
     7
 10
43.575438493041361
 20
82.335891254432639
 30
0.0
 40
3.9999999999999489
  0
CIRCLE
  5
221
  8
1
 62
     7
 10
43.575438493041361
 20
82.335891254432639
 30
0.0
 40
5.0000000000000062
  0
CIRCLE
  5
222
  8
1
 62
     7
 10
43.575438493041361
 20
-21.664108745567379
 30
0.0
 40
4.0
  0
CIRCLE
  5
223
  8
1
 62
     7
 10
43.575438493041361
 20
-21.664108745567379
 30
0.0
 40
5.0
  0
CIRCLE
  5
224
  8
1
 62
     7
 10
133.64208048662289
 20
-73.664108745567404
 30
0.0
 40
4.0
  0
CIRCLE
  5
225
  8
1
 62
     7
 10
133.64208048662289
 20
-73.664108745567404
 30
0.0
 40
5.0
  0
CIRCLE
  5
226
  8
1
 62
     7
 10
223.7087224802045
 20
-21.664108745567461
 30
0.0
 40
4.0
  0
CIRCLE
  5
227
  8
1
 62
     7
 10
223.7087224802045
 20
-21.664108745567461
 30
0.0
 40
5.0
  0
CIRCLE
  5
228
  8
1
 62
     7
 10
133.64208048662289
 20
30.3358912544326
 30
0.0
 40
154.89999999999989
  0
ARC
  5
229
  8
1
 62
     7
 10
-198.49663184482489
 20
183.23589125443249
 30
0.0
 40
2.0
 50
90.0
 51
180.0
  0
ARC
  5
22A
  8
1
 62
     7
 10
-198.49663184482489
 20
183.23589125443249
 30
0.0
 40
4.5999999999999943
 50
90.0
 51
180.0
  0
ARC
  5
22B
  8
1
 62
     7
 10
-203.0966318448248
 20
180.13589125443261
 30
0.0
 40
3.099999999999993
 50
90.0
 51
180.0
  0
ARC
  5
22C
  8
1
 62
     7
 10
-198.49663184482489
 20
122.4358912544326
 30
0.0
 40
2.0
 50
180.0
 51
270.0
  0
ARC
  5
22D
  8
1
 62
     7
 10
-198.49663184482489
 20
122.4358912544326
 30
0.0
 40
4.6000000000000227
 50
180.0
 51
270.0
  0
ARC
  5
22E
  8
1
 62
     7
 10
-175.79663184482479
 20
142.33589125443251
 30
0.0
 40
1.0
 50
0.0
 51
90.0
  0
ARC
  5
22F
  8
1
 62
     7
 10
-171.79663184482479
 20
127.8785319415519
 30
0.0
 40
3.0
 50
180.0
 51
225.00000000000131
  0
ARC
  5
230
  8
1
 62
     7
 10
-171.79663184482479
 20
-67.206749432686678
 30
0.0
 40
2.9999999999999631
 50
134.9999999999996
 51
180.0
  0
ARC
  5
231
  8
1
 62
     7
 10
-175.79663184482479
 20
-81.664108745567404
 30
0.0
 40
1.0
 50
270.0
 51
0.0
  0
ARC
  5
232
  8
1
 62
     7
 10
-198.49663184482489
 20
-122.5641087455674
 30
0.0
 40
2.0
 50
180.0
 51
270.0
  0
ARC
  5
233
  8
1
 62
     7
 10
-198.49663184482489
 20
-122.5641087455674
 30
0.0
 40
4.5999999999999712
 50
189.18137758155791
 51
270.0
  0
ARC
  5
234
  8
1
 62
     7
 10
-513.16279622219895
 20
-122.5641087455674
 30
0.0
 40
4.6000000000000227
 50
180.0
 51
270.0
  0
ARC
  5
235
  8
1
 62
     7
 10
-517.76279622219874
 20
-119.4641087455674
 30
0.0
 40
3.1000000000000232
 50
180.0
 51
270.0
  0
ARC
  5
236
  8
1
 62
     7
 10
-203.0966318448248
 20
-119.4641087455674
 30
0.0
 40
3.099999999999993
 50
180.0
 51
256.91458520263132
  0
ARC
  5
237
  8
1
 62
     7
 10
-204.02488564116391
 20
-123.4576466369091
 30
0.0
 40
1.0000000000000371
 50
9.1813775815586194
 51
76.914585202626043
  0
ARC
  5
238
  8
1
 62
     7
 10
-203.19663184482479
 20
-119.5134992833848
 30
0.0
 40
0.4000000000000057
 50
180.0
 51
270.0
  0
ARC
  5
239
  8
1
 62
     7
 10
-198.49663184482489
 20
-61.764108745567398
 30
0.0
 40
4.6000000000000156
 50
90.0
 51
170.81862241844149
  0
ARC
  5
23A
  8
1
 62
     7
 10
-198.49663184482489
 20
-61.764108745567398
 30
0.0
 40
2.0
 50
90.0
 51
180.0
  0
ARC
  5
23B
  8
1
 62
     7
 10
-204.02488564116391
 20
-60.870570854225683
 30
0.0
 40
1.0000000000000031
 50
283.08541479737318
 51
350.81862241844249
  0
ARC
  5
23C
  8
1
 62
     7
 10
-203.0966318448248
 20
-64.864108745567393
 30
0.0
 40
3.0999999999999899
 50
103.0854147973688
 51
180.0
  0
ARC
  5
23D
  8
1
 62
     7
 10
-203.19663184482479
 20
-64.814718207750047
 30
0.0
 40
0.4000000000000057
 50
90.0
 51
180.0
  0
ARC
  5
23E
  8
1
 62
     7
 10
-513.16279622219895
 20
183.23589125443249
 30
0.0
 40
4.5999999999999943
 50
90.0
 51
180.0
  0
ARC
  5
23F
  8
1
 62
     7
 10
-517.76279622219874
 20
180.13589125443261
 30
0.0
 40
3.099999999999993
 50
90.0
 51
180.0
  0
ARC
  5
240
  8
1
 62
     7
 10
-486.46279622219879
 20
127.8785319415519
 30
0.0
 40
3.0
 50
180.0
 51
224.9999999999998
  0
ARC
  5
241
  8
1
 62
     7
 10
-486.46279622219879
 20
-67.206749432686678
 30
0.0
 40
3.0000000000000431
 50
135.00000000000111
 51
180.0
  0
ARC
  5
242
  8
1
 62
     7
 10
-490.46279622219879
 20
142.33589125443251
 30
0.0
 40
1.0
 50
0.0
 51
90.0
  0
ARC
  5
243
  8
1
 62
     7
 10
-490.46279622219879
 20
-81.664108745567404
 30
0.0
 40
1.0
 50
270.0
 51
0.0
  0
TEXT
  5
244
  8
1
 62
     7
 10
-591.37349691457302
 20
362.72172368703599
 30
0.0
 40
14.0
  1
MSB 70
 41
0.9
  7
SIMPLEX
  0
ENDSEC
  0
EOF
