  0
SECTION
  2
HEADER
  9
$ACADVER
  1
AC1009
  9
$INSBASE
 10
0.0
 20
0.0
 30
0.0
  9
$EXTMIN
 10
-190.1999999999999
 20
-190.6213203435596
 30
0.0
  9
$EXTMAX
 10
1296.4174157926479
 20
329.45497114668012
 30
0.0
  9
$LIMMIN
 10
-190.1999999999999
 20
-190.1999999999999
  9
$LIMMAX
 10
1296.4174157926479
 20
329.45497114668001
  9
$ORTHOMODE
 70
     0
  9
$REGENMODE
 70
     1
  9
$FILLMODE
 70
     1
  9
$QTEXTMODE
 70
     0
  9
$MIRRTEXT
 70
     1
  9
$DRAGMODE
 70
     2
  9
$LTSCALE
 40
1.0
  9
$OSMODE
 70
    37
  9
$ATTMODE
 70
     1
  9
$TEXTSIZE
 40
3.5
  9
$TRACEWID
 40
0.5
  9
$TEXTSTYLE
  7
STANDARD
  9
$CLAYER
  8
0
  9
$CELTYPE
  6
BYLAYER
  9
$CECOLOR
 62
   256
  9
$DIMSCALE
 40
1.0
  9
$DIMASZ
 40
0.18
  9
$DIMEXO
 40
0.0625
  9
$DIMDLI
 40
0.38
  9
$DIMRND
 40
0.0
  9
$DIMDLE
 40
0.0
  9
$DIMEXE
 40
0.18
  9
$DIMTP
 40
0.0
  9
$DIMTM
 40
0.0
  9
$DIMTXT
 40
0.18
  9
$DIMCEN
 40
0.09
  9
$DIMTSZ
 40
0.0
  9
$DIMTOL
 70
     0
  9
$DIMLIM
 70
     0
  9
$DIMTIH
 70
     1
  9
$DIMTOH
 70
     1
  9
$DIMSE1
 70
     0
  9
$DIMSE2
 70
     0
  9
$DIMTAD
 70
     0
  9
$DIMZIN
 70
     0
  9
$DIMBLK
  1

  9
$DIMASO
 70
     1
  9
$DIMSHO
 70
     1
  9
$DIMPOST
  1

  9
$DIMAPOST
  1

  9
$DIMALT
 70
     0
  9
$DIMALTD
 70
     2
  9
$DIMALTF
 40
25.399999999999999
  9
$DIMLFAC
 40
1.0
  9
$DIMTOFL
 70
     0
  9
$DIMTVP
 40
0.0
  9
$DIMTIX
 70
     0
  9
$DIMSOXD
 70
     0
  9
$DIMSAH
 70
     0
  9
$DIMBLK1
  1

  9
$DIMBLK2
  1

  9
$DIMSTYLE
  2
STANDARD
  9
$DIMCLRD
 70
     0
  9
$DIMCLRE
 70
     0
  9
$DIMCLRT
 70
     0
  9
$DIMTFAC
 40
1.0
  9
$DIMGAP
 40
0.09
  9
$LUNITS
 70
     2
  9
$LUPREC
 70
     4
  9
$SKETCHINC
 40
0.1
  9
$FILLETRAD
 40
2.0
  9
$AUNITS
 70
     0
  9
$AUPREC
 70
     0
  9
$MENU
  1
ACAD
  9
$ELEVATION
 40
0.0
  9
$PELEVATION
 40
0.0
  9
$THICKNESS
 40
0.0
  9
$LIMCHECK
 70
     0
  9
$BLIPMODE
 70
     0
  9
$CHAMFERA
 40
0.0
  9
$CHAMFERB
 40
0.0
  9
$SKPOLY
 70
     0
  9
$TDCREATE
 40
2452094.554507175
  9
$TDUPDATE
 40
2452094.5571961799
  9
$TDINDWG
 40
0.0026928241
  9
$TDUSRTIMER
 40
0.0026928241
  9
$USRTIMER
 70
     1
  9
$ANGBASE
 50
0.0
  9
$ANGDIR
 70
     0
  9
$PDMODE
 70
     0
  9
$PDSIZE
 40
0.0
  9
$PLINEWID
 40
0.0
  9
$COORDS
 70
     1
  9
$SPLFRAME
 70
     0
  9
$SPLINETYPE
 70
     6
  9
$SPLINESEGS
 70
     8
  9
$ATTDIA
 70
     0
  9
$ATTREQ
 70
     1
  9
$HANDLING
 70
 10241
  9
$HANDSEED
  5
2FD
  9
$SURFTAB1
 70
     6
  9
$SURFTAB2
 70
     6
  9
$SURFTYPE
 70
     6
  9
$SURFU
 70
     6
  9
$SURFV
 70
     6
  9
$UCSNAME
  2

  9
$UCSORG
 10
0.0
 20
0.0
 30
0.0
  9
$UCSXDIR
 10
1.0
 20
0.0
 30
0.0
  9
$UCSYDIR
 10
0.0
 20
1.0
 30
0.0
  9
$PUCSNAME
  2

  9
$PUCSORG
 10
0.0
 20
0.0
 30
0.0
  9
$PUCSXDIR
 10
1.0
 20
0.0
 30
0.0
  9
$PUCSYDIR
 10
0.0
 20
1.0
 30
0.0
  9
$USERI1
 70
     0
  9
$USERI2
 70
     0
  9
$USERI3
 70
     0
  9
$USERI4
 70
     0
  9
$USERI5
 70
     0
  9
$USERR1
 40
0.0
  9
$USERR2
 40
0.0
  9
$USERR3
 40
0.0
  9
$USERR4
 40
0.0
  9
$USERR5
 40
0.0
  9
$WORLDVIEW
 70
     1
  9
$SHADEDGE
 70
     3
  9
$SHADEDIF
 70
    70
  9
$TILEMODE
 70
     1
  9
$MAXACTVP
 70
    64
  9
$PLIMCHECK
 70
     0
  9
$PEXTMIN
 10
1.0000000000000000E+020
 20
1.0000000000000000E+020
 30
1.0000000000000000E+020
  9
$PEXTMAX
 10
-1.0000000000000000E+020
 20
-1.0000000000000000E+020
 30
-1.0000000000000000E+020
  9
$PLIMMIN
 10
0.0
 20
0.0
  9
$PLIMMAX
 10
12.0
 20
9.0
  9
$UNITMODE
 70
     0
  9
$VISRETAIN
 70
     1
  9
$PLINEGEN
 70
     0
  9
$PSLTSCALE
 70
     1
  0
ENDSEC
  0
SECTION
  2
TABLES
  0
TABLE
  2
VPORT
 70
     2
  0
VPORT
  2
*ACTIVE
 70
     0
 10
0.0
 20
0.0
 11
1.0
 21
1.0
 12
-123.1664120654721
 22
283.92499763307598
 13
0.0
 23
0.0
 14
1.0
 24
1.0
 15
0.0
 25
0.0
 16
0.0
 26
0.0
 36
1.0
 17
0.0
 27
0.0
 37
0.0
 40
8.9571418577363602
 41
2.5817307692307692
 42
50.0
 43
0.0
 44
0.0
 50
0.0
 51
0.0
 71
     0
 72
   100
 73
     1
 74
     1
 75
     0
 76
     0
 77
     0
 78
     0
  0
ENDTAB
  0
TABLE
  2
LTYPE
 70
     9
  0
LTYPE
  2
CONTINUOUS
 70
     0
  3
Solid line
 72
    65
 73
     0
 40
0.0
  0
LTYPE
  2
BORDER
 70
     0
  3
__ __ . __ __ .
 72
    65
 73
     6
 40
68.462644148345632
 49
19.56075547095589
 49
-9.7803777354779466
 49
19.56075547095589
 49
-9.7803777354779466
 49
0.0
 49
-9.7803777354779466
  0
LTYPE
  2
CENTER
 70
     0
  3
____ _ ____ _
 72
    65
 73
     4
 40
78.243021883823573
 49
48.901888677389749
 49
-9.7803777354779466
 49
9.7803777354779466
 49
-9.7803777354779466
  0
LTYPE
  2
DASHDOT
 70
     0
  3
__ . __ . __ .
 72
    65
 73
     4
 40
39.121510941911787
 49
19.56075547095589
 49
-9.7803777354779466
 49
0.0
 49
-9.7803777354779466
  0
LTYPE
  2
DASHED
 70
     0
  3
__ __ __ __ __
 72
    65
 73
     2
 40
29.341133206433831
 49
19.56075547095589
 49
-9.7803777354779466
  0
LTYPE
  2
DIVIDE
 70
     0
  3
__ . . __ . . 
 72
    65
 73
     6
 40
48.901888677389749
 49
19.56075547095589
 49
-9.7803777354779466
 49
0.0
 49
-9.7803777354779466
 49
0.0
 49
-9.7803777354779466
  0
LTYPE
  2
DOT
 70
     0
  3
..............
 72
    65
 73
     4
 40
19.56075547095589
 49
0.0
 49
-9.7803777354779466
 49
0.0
 49
-9.7803777354779466
  0
LTYPE
  2
HIDDEN
 70
     0
  3
_ _ _ _ _ _ _
 72
    65
 73
     2
 40
14.67056660321691
 49
9.7803777354779466
 49
-4.8901888677389733
  0
LTYPE
  2
PHANTOM
 70
     0
  3
_____ _ _ _____ _ _ 
 72
    65
 73
     6
 40
97.803777354779498
 49
48.901888677389749
 49
-9.7803777354779466
 49
9.7803777354779466
 49
-9.7803777354779466
 49
9.7803777354779466
 49
-9.7803777354779466
  0
ENDTAB
  0
TABLE
  2
LAYER
 70
     2
  0
LAYER
  2
0
 70
     0
 62
     7
  6
CONTINUOUS
  0
LAYER
  2
1
 70
     0
 62
     7
  6
CONTINUOUS
  0
ENDTAB
  0
TABLE
  2
STYLE
 70
     4
  0
STYLE
  2
STANDARD
 70
     0
 40
0.0
 41
1.0
 50
0.0
 71
     0
 42
3.5
  3
txt
  4

  0
STYLE
  2
SIMPLEX
 70
     0
 40
0.0
 41
1.0
 50
0.0
 71
     0
 42
3.5
  3
simplex
  4

  0
STYLE
  2
COMPLEX
 70
     0
 40
0.0
 41
1.0
 50
0.0
 71
     0
 42
3.5
  3
complex
  4

  0
STYLE
  2
ITALIC
 70
     0
 40
0.0
 41
1.0
 50
0.0
 71
     0
 42
3.5
  3
italic
  4

  0
ENDTAB
  0
TABLE
  2
VIEW
 70
     0
  0
ENDTAB
  0
TABLE
  2
UCS
 70
     0
  0
ENDTAB
  0
TABLE
  2
APPID
 70
     1
  0
APPID
  2
ACAD
 70
     0
  0
ENDTAB
  0
TABLE
  2
DIMSTYLE
 70
     1
  0
DIMSTYLE
  2
STANDARD
 70
     0
  3

  4

  5

  6

  7

 40
1.0
 41
0.18
 42
0.0625
 43
0.38
 44
0.18
 45
0.0
 46
0.0
 47
0.0
 48
0.0
140
0.18
141
0.09
142
0.0
143
25.399999999999999
144
1.0
145
0.0
146
1.0
147
0.09
 71
     0
 72
     0
 73
     1
 74
     1
 75
     0
 76
     0
 77
     0
 78
     0
170
     0
171
     2
172
     0
173
     0
174
     0
175
     0
176
     0
177
     0
178
     0
  0
ENDTAB
  0
ENDSEC
  0
SECTION
  2
BLOCKS
  0
BLOCK
  8
0
  2
$MODEL_SPACE
 70
     0
 10
0.0
 20
0.0
 30
0.0
  3
$MODEL_SPACE
  1

  0
ENDBLK
  5
20
  8
0
  0
BLOCK
 67
     1
  8
0
  2
$PAPER_SPACE
 70
     0
 10
0.0
 20
0.0
 30
0.0
  3
$PAPER_SPACE
  1

  0
ENDBLK
  5
1C
 67
     1
  8
0
  0
ENDSEC
  0
SECTION
  2
ENTITIES
  0
LINE
  5
33
  8
1
 62
     3
 10
478.19999999999999
 20
0.0
 30
0.0
 11
484.0350990559258
 21
0.0
 31
0.0
  0
LINE
  5
34
  8
1
 62
     3
 10
766.20000000000005
 20
0.0
 30
0.0
 11
772.03509905592591
 21
0.0
 31
0.0
  0
LINE
  5
35
  8
1
 62
     7
 10
453.79041932382847
 20
-107.4999999999999
 30
0.0
 11
455.29999999999978
 21
-107.4999999999999
 31
0.0
  0
LINE
  5
36
  8
1
 62
     7
 10
454.49999999999977
 20
-102.4778931105633
 30
0.0
 11
454.49999999999977
 21
-71.000000000000099
 31
0.0
  0
LINE
  5
37
  8
1
 62
     7
 10
453.94117409090683
 20
-102.4778931105633
 30
0.0
 11
454.49999999999977
 21
-102.4778931105633
 31
0.0
  0
LINE
  5
38
  8
1
 62
     7
 10
451.09999999999962
 20
-107.4999999999999
 30
0.0
 11
452.49999999999977
 21
-83.861676174656708
 31
0.0
  0
LINE
  5
39
  8
1
 62
     7
 10
454.49999999999977
 20
-83.861676174656708
 30
0.0
 11
453.09999999999968
 21
-130.49999999999989
 31
0.0
  0
LINE
  5
3A
  8
1
 62
     7
 10
452.49999999999977
 20
-83.861676174656708
 30
0.0
 11
454.49999999999977
 21
-83.861676174656708
 31
0.0
  0
LINE
  5
3B
  8
1
 62
     7
 10
452.49999999999977
 20
-71.000000000000099
 30
0.0
 11
452.49999999999977
 21
-83.861676174656708
 31
0.0
  0
LINE
  5
3C
  8
1
 62
     7
 10
453.0999999999998
 20
-48.000000000000107
 30
0.0
 11
455.29999999999978
 21
-47.999999999999901
 31
0.0
  0
LINE
  5
3D
  8
1
 62
     7
 10
454.49999999999977
 20
-47.999999999999901
 30
0.0
 11
454.49999999999977
 21
47.999999999999851
 31
0.0
  0
LINE
  5
3E
  8
1
 62
     7
 10
454.49999999999977
 20
44.655735593436461
 30
0.0
 11
453.0999999999998
 21
-48.000000000000107
 31
0.0
  0
LINE
  5
3F
  8
1
 62
     7
 10
452.49999999999977
 20
44.655735593436461
 30
0.0
 11
451.0999999999998
 21
-48.000000000000107
 31
0.0
  0
LINE
  5
40
  8
1
 62
     7
 10
453.0999999999998
 20
71.000000000000043
 30
0.0
 11
455.29999999999978
 21
71.000000000000043
 31
0.0
  0
LINE
  5
41
  8
1
 62
     7
 10
454.49999999999977
 20
71.000000000000043
 30
0.0
 11
454.49999999999977
 21
128.5395186575299
 31
0.0
  0
LINE
  5
42
  8
1
 62
     7
 10
453.09999999999968
 20
128.5395186575299
 30
0.0
 11
453.09999999999968
 21
130.49999999999989
 31
0.0
  0
LINE
  5
43
  8
1
 62
     7
 10
451.9880852880284
 20
107.4999999999999
 30
0.0
 11
446.49999999999977
 21
107.4999999999999
 31
0.0
  0
LINE
  5
44
  8
1
 62
     7
 10
452.49999999999977
 20
128.5395186575299
 30
0.0
 11
454.49999999999977
 21
128.5395186575299
 31
0.0
  0
LINE
  5
45
  8
1
 62
     7
 10
452.49999999999977
 20
128.5395186575299
 30
0.0
 11
451.0999999999998
 21
71.000000000000043
 31
0.0
  0
LINE
  5
46
  8
1
 62
     7
 10
454.49999999999977
 20
128.5395186575299
 30
0.0
 11
453.0999999999998
 21
71.000000000000043
 31
0.0
  0
LINE
  5
47
  8
1
 62
     7
 10
452.49999999999977
 20
44.655735593436461
 30
0.0
 11
454.49999999999977
 21
44.655735593436461
 31
0.0
  0
LINE
  5
48
  8
1
 62
     7
 10
458.29999999999978
 20
-130.49999999999989
 30
0.0
 11
458.29999999999978
 21
-74.000000000000099
 31
0.0
  0
LINE
  5
49
  8
1
 62
     7
 10
467.29999999999978
 20
-130.49999999999989
 30
0.0
 11
446.49999999999977
 21
-130.49999999999989
 31
0.0
  0
LINE
  5
4A
  8
1
 62
     7
 10
446.49999999999977
 20
-107.4999999999999
 30
0.0
 11
451.09999999999962
 21
-107.4999999999999
 31
0.0
  0
LINE
  5
4B
  8
1
 62
     7
 10
451.09999999999962
 20
-107.4999999999999
 30
0.0
 11
451.09999999999962
 21
-130.49999999999989
 31
0.0
  0
LINE
  5
4C
  8
1
 62
     7
 10
458.29999999999978
 20
44.999999999999858
 30
0.0
 11
458.29999999999978
 21
-44.999999999999908
 31
0.0
  0
LINE
  5
4D
  8
1
 62
     7
 10
446.49999999999977
 20
-47.999999999999901
 30
0.0
 11
451.0999999999998
 21
-48.000000000000107
 31
0.0
  0
LINE
  5
4E
  8
1
 62
     7
 10
453.0999999999998
 20
-71.000000000000099
 30
0.0
 11
453.0999999999998
 21
-48.000000000000107
 31
0.0
  0
LINE
  5
4F
  8
1
 62
     7
 10
455.29999999999978
 20
-71.000000000000099
 30
0.0
 11
446.49999999999977
 21
-71.000000000000099
 31
0.0
  0
LINE
  5
50
  8
1
 62
     7
 10
451.0999999999998
 20
-48.000000000000107
 30
0.0
 11
451.0999999999998
 21
-71.000000000000099
 31
0.0
  0
LINE
  5
51
  8
1
 62
     7
 10
455.29999999999978
 20
47.999999999999858
 30
0.0
 11
446.49999999999977
 21
47.999999999999858
 31
0.0
  0
LINE
  5
52
  8
1
 62
     7
 10
458.29999999999978
 20
74.000000000000043
 30
0.0
 11
458.29999999999978
 21
130.49999999999989
 31
0.0
  0
LINE
  5
53
  8
1
 62
     7
 10
453.0999999999998
 20
48.000000000000028
 30
0.0
 11
453.0999999999998
 21
71.000000000000043
 31
0.0
  0
LINE
  5
54
  8
1
 62
     7
 10
446.49999999999977
 20
71.000000000000043
 30
0.0
 11
451.0999999999998
 21
71.000000000000043
 31
0.0
  0
LINE
  5
55
  8
1
 62
     7
 10
451.0999999999998
 20
71.000000000000043
 30
0.0
 11
451.0999999999998
 21
48.000000000000028
 31
0.0
  0
LINE
  5
56
  8
1
 62
     7
 10
704.70000000000005
 20
-73.0
 30
0.0
 11
704.70000000000005
 21
-130.0
 31
0.0
  0
LINE
  5
57
  8
1
 62
     7
 10
708.20000000000005
 20
-73.0
 30
0.0
 11
704.70000000000005
 21
-73.0
 31
0.0
  0
LINE
  5
58
  8
1
 62
     7
 10
708.20000000000005
 20
72.999999999999972
 30
0.0
 11
704.70000000000005
 21
72.999999999999972
 31
0.0
  0
LINE
  5
59
  8
1
 62
     7
 10
628.20000000000005
 20
-35.0
 30
0.0
 11
708.20000000000005
 21
-35.0
 31
0.0
  0
LINE
  5
5A
  8
1
 62
     7
 10
628.20000000000005
 20
34.999999999999993
 30
0.0
 11
708.20000000000005
 21
34.999999999999993
 31
0.0
  0
LINE
  5
5B
  8
1
 62
     7
 10
628.20000000000005
 20
40.999999999999993
 30
0.0
 11
708.20000000000005
 21
40.999999999999993
 31
0.0
  0
LINE
  5
5C
  8
1
 62
     7
 10
726.79999999999995
 20
-42.5
 30
0.0
 11
726.79999999999995
 21
-129.0
 31
0.0
  0
LINE
  5
5D
  8
1
 62
     7
 10
726.79999999999995
 20
42.499999999999957
 30
0.0
 11
726.79999999999995
 21
186.99999999999989
 31
0.0
  0
LINE
  5
5E
  8
1
 62
     7
 10
722.79999999999995
 20
42.499999999999957
 30
0.0
 11
722.79999999999995
 21
108.4999999999999
 31
0.0
  0
LINE
  5
5F
  8
1
 62
     7
 10
731.20000000000016
 20
-42.5
 30
0.0
 11
731.20000000000016
 21
-89.350000000000023
 31
0.0
  0
LINE
  5
60
  8
1
 62
     7
 10
736.20000000000005
 20
-55.0
 30
0.0
 11
731.20000000000016
 21
-55.0
 31
0.0
  0
LINE
  5
61
  8
1
 62
     7
 10
736.20000000000005
 20
54.999999999999972
 30
0.0
 11
731.20000000000016
 21
54.999999999999972
 31
0.0
  0
LINE
  5
62
  8
1
 62
     7
 10
736.20000000000005
 20
-42.5
 30
0.0
 11
708.20000000000005
 21
-42.5
 31
0.0
  0
LINE
  5
63
  8
1
 62
     7
 10
736.20000000000005
 20
-35.25
 30
0.0
 11
708.20000000000005
 21
-35.25
 31
0.0
  0
LINE
  5
64
  8
1
 62
     7
 10
736.20000000000005
 20
35.249999999999993
 30
0.0
 11
708.20000000000005
 21
35.249999999999993
 31
0.0
  0
LINE
  5
65
  8
1
 62
     7
 10
736.20000000000005
 20
42.499999999999957
 30
0.0
 11
708.20000000000005
 21
42.499999999999957
 31
0.0
  0
LINE
  5
66
  8
1
 62
     7
 10
722.79999999999995
 20
-130.0
 30
0.0
 11
709.00000000000011
 21
-130.0
 31
0.0
  0
LINE
  5
67
  8
1
 62
     7
 10
739.28582618673295
 20
104.618821315066
 30
0.0
 11
739.10000000000002
 21
107.4999999999999
 31
0.0
  0
LINE
  5
68
  8
1
 62
     7
 10
741.10000000000002
 20
107.4999999999999
 30
0.0
 11
741.42248292635395
 21
102.4999999999999
 31
0.0
  0
LINE
  5
69
  8
1
 62
     7
 10
742.50000000000011
 20
95.999999999999957
 30
0.0
 11
740.73469788728698
 21
95.999999999999957
 31
0.0
  0
LINE
  5
6A
  8
1
 62
     7
 10
742.50000000000011
 20
102.4999999999999
 30
0.0
 11
742.50000000000011
 21
95.999999999999957
 31
0.0
  0
LINE
  5
6B
  8
1
 62
     7
 10
740.50000000000011
 20
102.4999999999999
 30
0.0
 11
742.50000000000011
 21
102.4999999999999
 31
0.0
  0
LINE
  5
6C
  8
1
 62
     7
 10
742.50000000000011
 20
-96.0
 30
0.0
 11
742.50000000000011
 21
-130.49999999999989
 31
0.0
  0
LINE
  5
6D
  8
1
 62
     7
 10
740.73469788728698
 20
-96.0
 30
0.0
 11
742.50000000000011
 21
-96.0
 31
0.0
  0
LINE
  5
6E
  8
1
 62
     7
 10
740.50000000000011
 20
-130.49999999999989
 30
0.0
 11
742.50000000000011
 21
-130.49999999999989
 31
0.0
  0
LINE
  5
6F
  8
1
 62
     7
 10
749.5
 20
93.349999999999923
 30
0.0
 11
749.5
 21
91.349999999999937
 31
0.0
  0
LINE
  5
70
  8
1
 62
     7
 10
744.5
 20
93.349999999999966
 30
0.0
 11
749.5
 21
93.349999999999923
 31
0.0
  0
LINE
  5
71
  8
1
 62
     7
 10
740.50000000000011
 20
97.349999999999966
 30
0.0
 11
740.50000000000011
 21
102.4999999999999
 31
0.0
  0
LINE
  5
72
  8
1
 62
     7
 10
734.50000000000011
 20
-91.350000000000037
 30
0.0
 11
734.50000000000011
 21
-190.0
 31
0.0
  0
LINE
  5
73
  8
1
 62
     7
 10
749.5
 20
-93.350000000000023
 30
0.0
 11
749.5
 21
-91.350000000000037
 31
0.0
  0
LINE
  5
74
  8
1
 62
     7
 10
744.5
 20
-93.350000000000023
 30
0.0
 11
749.5
 21
-93.350000000000023
 31
0.0
  0
LINE
  5
75
  8
1
 62
     7
 10
738.50000000000011
 20
-101.0
 30
0.0
 11
738.50000000000011
 21
-91.350000000000037
 31
0.0
  0
LINE
  5
76
  8
1
 62
     7
 10
740.50000000000011
 20
-97.350000000000023
 30
0.0
 11
740.50000000000011
 21
-130.49999999999989
 31
0.0
  0
LINE
  5
77
  8
1
 62
     7
 10
738.50000000000011
 20
101.0
 30
0.0
 11
738.50000000000011
 21
91.349999999999966
 31
0.0
  0
LINE
  5
78
  8
1
 62
     7
 10
734.50000000000011
 20
91.349999999999966
 30
0.0
 11
734.50000000000011
 21
112.0
 31
0.0
  0
LINE
  5
79
  8
1
 62
     7
 10
750.29999999999995
 20
-91.850000000000023
 30
0.0
 11
763.29999999999995
 21
-91.850000000000023
 31
0.0
  0
LINE
  5
7A
  8
1
 62
     7
 10
750.29999999999995
 20
-84.800000000000026
 30
0.0
 11
763.29999999999995
 21
-84.800000000000026
 31
0.0
  0
LINE
  5
7B
  8
1
 62
     7
 10
750.29999999999995
 20
-84.300000000000026
 30
0.0
 11
750.29999999999995
 21
-96.0
 31
0.0
  0
LINE
  5
7C
  8
1
 62
     7
 10
750.29999999999995
 20
84.299999999999969
 30
0.0
 11
750.29999999999995
 21
95.999999999999957
 31
0.0
  0
LINE
  5
7D
  8
1
 62
     7
 10
746.29999999999995
 20
-128.49999999999989
 30
0.0
 11
748.29999999999995
 21
-130.49999999999989
 31
0.0
  0
LINE
  5
7E
  8
1
 62
     7
 10
746.29999999999995
 20
-128.49999999999989
 30
0.0
 11
746.29999999999995
 21
-93.350000000000023
 31
0.0
  0
LINE
  5
7F
  8
1
 62
     7
 10
748.29999999999995
 20
-98.0
 30
0.0
 11
746.29999999999995
 21
-98.0
 31
0.0
  0
LINE
  5
80
  8
1
 62
     7
 10
755.29999999999995
 20
-130.49999999999989
 30
0.0
 11
757.29999999999995
 21
-128.49999999999989
 31
0.0
  0
LINE
  5
81
  8
1
 62
     7
 10
757.29999999999995
 20
-128.49999999999989
 30
0.0
 11
757.29999999999995
 21
-108.95685424949249
 31
0.0
  0
LINE
  5
82
  8
1
 62
     7
 10
755.29999999999995
 20
-130.49999999999989
 30
0.0
 11
748.29999999999995
 21
-130.49999999999989
 31
0.0
  0
LINE
  5
83
  8
1
 62
     7
 10
746.29999999999995
 20
97.999999999999972
 30
0.0
 11
748.29999999999995
 21
97.999999999999972
 31
0.0
  0
LINE
  5
84
  8
1
 62
     7
 10
746.29999999999995
 20
104.4999999999999
 30
0.0
 11
746.29999999999995
 21
93.349999999999966
 31
0.0
  0
LINE
  5
85
  8
1
 62
     7
 10
741.10000000000002
 20
107.4999999999999
 30
0.0
 11
741.10000000000002
 21
113.40000000000001
 31
0.0
  0
LINE
  5
86
  8
1
 62
     7
 10
743.29999999999995
 20
107.4999999999999
 30
0.0
 11
734.50000000000011
 21
107.4999999999999
 31
0.0
  0
LINE
  5
87
  8
1
 62
     7
 10
757.29999999999995
 20
113.40000000000001
 30
0.0
 11
757.29999999999995
 21
108.95685424949249
 31
0.0
  0
LINE
  5
88
  8
1
 62
     7
 10
757.29999999999995
 20
128.49999999999989
 30
0.0
 11
755.29999999999995
 21
130.49999999999989
 31
0.0
  0
LINE
  5
89
  8
1
 62
     7
 10
757.29999999999995
 20
128.49999999999989
 30
0.0
 11
757.29999999999995
 21
124.59999999999989
 31
0.0
  0
LINE
  5
8A
  8
1
 62
     7
 10
741.10000000000002
 20
130.49999999999989
 30
0.0
 11
755.29999999999995
 21
130.49999999999989
 31
0.0
  0
LINE
  5
8B
  8
1
 62
     7
 10
741.10000000000002
 20
130.49999999999989
 30
0.0
 11
741.10000000000002
 21
124.59999999999989
 31
0.0
  0
LINE
  5
8C
  8
1
 62
     7
 10
741.10000000000002
 20
130.49999999999989
 30
0.0
 11
734.50000000000011
 21
130.49999999999989
 31
0.0
  0
LINE
  5
8D
  8
1
 62
     7
 10
739.10000000000002
 20
112.0
 30
0.0
 11
739.10000000000002
 21
107.4999999999999
 31
0.0
  0
LINE
  5
8E
  8
1
 62
     7
 10
739.10000000000002
 20
130.49999999999989
 30
0.0
 11
739.10000000000002
 21
126.0
 31
0.0
  0
LINE
  5
8F
  8
1
 62
     7
 10
734.50000000000011
 20
126.0
 30
0.0
 11
734.50000000000011
 21
189.99999999999989
 31
0.0
  0
LINE
  5
90
  8
1
 62
     7
 10
729.70000000000005
 20
126.0
 30
0.0
 11
729.70000000000005
 21
185.09999999999991
 31
0.0
  0
LINE
  5
91
  8
1
 62
     7
 10
760.39999999999986
 20
112.0
 30
0.0
 11
726.79999999999995
 21
112.0
 31
0.0
  0
LINE
  5
92
  8
1
 62
     7
 10
722.79999999999995
 20
129.49999999999989
 30
0.0
 11
722.79999999999995
 21
189.99999999999989
 31
0.0
  0
LINE
  5
93
  8
1
 62
     3
 10
729.72487113059606
 20
112.0
 30
0.0
 11
729.72487113059606
 21
126.0
 31
0.0
  0
LINE
  5
94
  8
1
 62
     3
 10
729.72487113059606
 20
124.59999999999989
 30
0.0
 11
727.29999999999995
 21
126.0
 31
0.0
  0
LINE
  5
95
  8
1
 62
     3
 10
761.79999999999995
 20
124.59999999999989
 30
0.0
 11
729.72487113059606
 21
124.59999999999989
 31
0.0
  0
LINE
  5
96
  8
1
 62
     3
 10
729.72487113059606
 20
113.40000000000001
 30
0.0
 11
727.29999999999995
 21
112.0
 31
0.0
  0
LINE
  5
97
  8
1
 62
     3
 10
761.79999999999995
 20
113.40000000000001
 30
0.0
 11
729.72487113059606
 21
113.40000000000001
 31
0.0
  0
LINE
  5
98
  8
1
 62
     7
 10
760.39999999999986
 20
112.0
 30
0.0
 11
760.39999999999986
 21
126.0
 31
0.0
  0
LINE
  5
99
  8
1
 62
     7
 10
760.39999999999986
 20
126.0
 30
0.0
 11
726.79999999999995
 21
126.0
 31
0.0
  0
LINE
  5
9A
  8
1
 62
     7
 10
761.79999999999995
 20
124.59999999999989
 30
0.0
 11
760.39999999999986
 21
126.0
 31
0.0
  0
LINE
  5
9B
  8
1
 62
     7
 10
761.79999999999995
 20
113.40000000000001
 30
0.0
 11
761.79999999999995
 21
124.59999999999989
 31
0.0
  0
LINE
  5
9C
  8
1
 62
     7
 10
760.39999999999986
 20
112.0
 30
0.0
 11
761.79999999999995
 21
113.40000000000001
 31
0.0
  0
LINE
  5
9D
  8
1
 62
     7
 10
713.60000000000002
 20
108.4999999999999
 30
0.0
 11
713.60000000000002
 21
129.49999999999989
 31
0.0
  0
LINE
  5
9E
  8
1
 62
     7
 10
713.60000000000002
 20
129.49999999999989
 30
0.0
 11
726.79999999999995
 21
129.49999999999989
 31
0.0
  0
LINE
  5
9F
  8
1
 62
     7
 10
712.79999999999995
 20
128.11435935394491
 30
0.0
 11
713.60000000000002
 21
129.49999999999989
 31
0.0
  0
LINE
  5
A0
  8
1
 62
     7
 10
712.79999999999995
 20
109.88564064605509
 30
0.0
 11
712.79999999999995
 21
128.11435935394491
 31
0.0
  0
LINE
  5
A1
  8
1
 62
     7
 10
713.60000000000002
 20
108.4999999999999
 30
0.0
 11
712.79999999999995
 21
109.88564064605509
 31
0.0
  0
LINE
  5
A2
  8
1
 62
     7
 10
726.79999999999995
 20
108.4999999999999
 30
0.0
 11
713.60000000000002
 21
108.4999999999999
 31
0.0
  0
LINE
  5
A3
  8
1
 62
     7
 10
709.00000000000011
 20
130.0
 30
0.0
 11
722.79999999999995
 21
130.0
 31
0.0
  0
LINE
  5
A4
  8
1
  6
DASHDOT
 62
     3
 10
728.20000000000005
 20
-75.0
 30
0.0
 11
769.20000000000005
 21
-75.0
 31
0.0
  0
LINE
  5
A5
  8
1
 62
     7
 10
766.20000000000005
 20
-79.800000000000026
 30
0.0
 11
731.20000000000016
 21
-79.800000000000026
 31
0.0
  0
LINE
  5
A6
  8
1
 62
     7
 10
731.20000000000016
 20
-70.200000000000017
 30
0.0
 11
766.20000000000005
 21
-70.200000000000017
 31
0.0
  0
LINE
  5
A7
  8
1
 62
     3
 10
766.20000000000005
 20
-81.0
 30
0.0
 11
731.20000000000016
 21
-81.0
 31
0.0
  0
LINE
  5
A8
  8
1
 62
     3
 10
731.20000000000016
 20
-69.0
 30
0.0
 11
766.20000000000005
 21
-69.0
 31
0.0
  0
LINE
  5
A9
  8
1
  6
DASHDOT
 62
     3
 10
728.20000000000005
 20
74.999999999999972
 30
0.0
 11
769.20000000000005
 21
74.999999999999972
 31
0.0
  0
LINE
  5
AA
  8
1
 62
     7
 10
731.20000000000016
 20
-84.300000000000026
 30
0.0
 11
766.20000000000005
 21
-84.300000000000026
 31
0.0
  0
LINE
  5
AB
  8
1
 62
     7
 10
731.20000000000016
 20
84.299999999999969
 30
0.0
 11
766.20000000000005
 21
84.299999999999969
 31
0.0
  0
LINE
  5
AC
  8
1
 62
     7
 10
766.20000000000005
 20
-89.350000000000023
 30
0.0
 11
764.20000000000016
 21
-91.350000000000037
 31
0.0
  0
LINE
  5
AD
  8
1
 62
     7
 10
731.20000000000016
 20
-89.350000000000023
 30
0.0
 11
733.20000000000005
 21
-91.350000000000037
 31
0.0
  0
LINE
  5
AE
  8
1
 62
     7
 10
731.20000000000016
 20
89.349999999999966
 30
0.0
 11
733.20000000000005
 21
91.349999999999966
 31
0.0
  0
LINE
  5
AF
  8
1
 62
     7
 10
764.20000000000016
 20
91.349999999999966
 30
0.0
 11
766.20000000000005
 21
89.349999999999966
 31
0.0
  0
LINE
  5
B0
  8
1
 62
     7
 10
731.20000000000016
 20
89.349999999999966
 30
0.0
 11
731.20000000000016
 21
42.499999999999957
 31
0.0
  0
LINE
  5
B1
  8
1
 62
     7
 10
764.20000000000016
 20
91.349999999999966
 30
0.0
 11
733.20000000000005
 21
91.349999999999966
 31
0.0
  0
LINE
  5
B2
  8
1
 62
     7
 10
766.20000000000005
 20
-89.350000000000023
 30
0.0
 11
766.20000000000005
 21
89.349999999999966
 31
0.0
  0
LINE
  5
B3
  8
1
 62
     7
 10
733.20000000000005
 20
-91.350000000000037
 30
0.0
 11
764.20000000000016
 21
-91.350000000000037
 31
0.0
  0
LINE
  5
B4
  8
1
 62
     7
 10
736.20000000000005
 20
-62.5
 30
0.0
 11
766.20000000000005
 21
-62.5
 31
0.0
  0
LINE
  5
B5
  8
1
 62
     7
 10
736.20000000000005
 20
62.499999999999972
 30
0.0
 11
736.20000000000005
 21
-62.5
 31
0.0
  0
LINE
  5
B6
  8
1
 62
     7
 10
766.20000000000005
 20
62.499999999999972
 30
0.0
 11
736.20000000000005
 21
62.499999999999972
 31
0.0
  0
LINE
  5
B7
  8
1
 62
     7
 10
734.50000000000011
 20
-145.0
 30
0.0
 11
729.89999999999975
 21
-145.0
 31
0.0
  0
LINE
  5
B8
  8
1
 62
     7
 10
734.50000000000011
 20
-104.0
 30
0.0
 11
729.91394289005098
 21
-104.0
 31
0.0
  0
LINE
  5
B9
  8
1
 62
     7
 10
729.70000000000005
 20
145.0
 30
0.0
 11
734.50000000000011
 21
145.0
 31
0.0
  0
LINE
  5
BA
  8
1
 62
     7
 10
734.50000000000011
 20
104.0
 30
0.0
 11
729.91394289005098
 21
104.0
 31
0.0
  0
LINE
  5
BB
  8
1
 62
     7
 10
725.79999999999995
 20
130.0
 30
0.0
 11
725.29999999999995
 21
130.0
 31
0.0
  0
LINE
  5
BC
  8
1
 62
     7
 10
734.50000000000011
 20
102.89999999999969
 30
0.0
 11
731.70000000000005
 21
102.89999999999969
 31
0.0
  0
LINE
  5
BD
  8
1
 62
     7
 10
734.50000000000011
 20
99.999999999999943
 30
0.0
 11
729.79999999999995
 21
99.999999999999844
 31
0.0
  0
LINE
  5
BE
  8
1
 62
     7
 10
729.70000000000005
 20
104.89999999999969
 30
0.0
 11
729.70000000000005
 21
112.0
 31
0.0
  0
LINE
  5
BF
  8
1
 62
     7
 10
725.29999999999995
 20
184.99999999999989
 30
0.0
 11
725.79999999999995
 21
184.99999999999989
 31
0.0
  0
LINE
  5
C0
  8
1
 62
     7
 10
731.70000000000005
 20
187.09999999999991
 30
0.0
 11
734.50000000000011
 21
187.09999999999991
 31
0.0
  0
LINE
  5
C1
  8
1
 62
     7
 10
729.79999999999995
 20
189.99999999999989
 30
0.0
 11
734.50000000000011
 21
189.99999999999989
 31
0.0
  0
LINE
  5
C2
  8
1
 62
     7
 10
725.70000000000005
 20
-181.09999999999991
 30
0.0
 11
725.70000000000005
 21
-133.90000000000001
 31
0.0
  0
LINE
  5
C3
  8
1
 62
     7
 10
727.20000000000016
 20
-132.90000000000001
 30
0.0
 11
726.70000000000016
 21
-132.90000000000001
 31
0.0
  0
LINE
  5
C4
  8
1
 62
     7
 10
725.29999999999995
 20
-130.0
 30
0.0
 11
725.79999999999995
 21
-130.0
 31
0.0
  0
LINE
  5
C5
  8
1
 62
     7
 10
731.70000000000005
 20
-102.89999999999991
 30
0.0
 11
734.50000000000011
 21
-102.89999999999991
 31
0.0
  0
LINE
  5
C6
  8
1
 62
     7
 10
729.79999999999995
 20
-99.999999999999915
 30
0.0
 11
734.50000000000011
 21
-100.0
 31
0.0
  0
LINE
  5
C7
  8
1
 62
     7
 10
726.70000000000016
 20
-182.09999999999991
 30
0.0
 11
727.20000000000016
 21
-182.09999999999991
 31
0.0
  0
LINE
  5
C8
  8
1
 62
     7
 10
729.70000000000005
 20
-185.09999999999991
 30
0.0
 11
729.70000000000005
 21
-176.4108423691101
 31
0.0
  0
LINE
  5
C9
  8
1
 62
     7
 10
725.79999999999995
 20
-185.0
 30
0.0
 11
725.29999999999995
 21
-185.0
 31
0.0
  0
LINE
  5
CA
  8
1
 62
     7
 10
734.50000000000011
 20
-187.09999999999999
 30
0.0
 11
731.70000000000005
 21
-187.09999999999999
 31
0.0
  0
LINE
  5
CB
  8
1
 62
     7
 10
726.79999999999995
 20
-186.0
 30
0.0
 11
726.79999999999995
 21
-187.0
 31
0.0
  0
LINE
  5
CC
  8
1
 62
     7
 10
734.50000000000011
 20
-190.0
 30
0.0
 11
729.79999999999995
 21
-190.0
 31
0.0
  0
LINE
  5
CD
  8
1
 62
     7
 10
709.00000000000011
 20
189.99999999999989
 30
0.0
 11
709.00000000000011
 21
42.499999999999957
 31
0.0
  0
LINE
  5
CE
  8
1
 62
     7
 10
722.79999999999995
 20
189.99999999999989
 30
0.0
 11
709.00000000000011
 21
189.99999999999989
 31
0.0
  0
LINE
  5
CF
  8
1
 62
     7
 10
722.79999999999995
 20
-190.0
 30
0.0
 11
722.79999999999995
 21
-178.0
 31
0.0
  0
LINE
  5
D0
  8
1
 62
     7
 10
709.00000000000011
 20
-190.0
 30
0.0
 11
722.79999999999995
 21
-190.0
 31
0.0
  0
LINE
  5
D1
  8
1
 62
     7
 10
706.20000000000016
 20
-190.0
 30
0.0
 11
706.20000000000016
 21
-190.1999999999999
 31
0.0
  0
LINE
  5
D2
  8
1
 62
     7
 10
708.20000000000005
 20
-190.0
 30
0.0
 11
706.20000000000016
 21
-190.0
 31
0.0
  0
LINE
  5
D3
  8
1
 62
     7
 10
706.20000000000016
 20
190.1999999999999
 30
0.0
 11
678.20000000000005
 21
190.1999999999999
 31
0.0
  0
LINE
  5
D4
  8
1
 62
     7
 10
708.20000000000005
 20
189.99999999999989
 30
0.0
 11
708.20000000000005
 21
-190.0
 31
0.0
  0
LINE
  5
D5
  8
1
 62
     7
 10
706.20000000000016
 20
189.99999999999989
 30
0.0
 11
708.20000000000005
 21
189.99999999999989
 31
0.0
  0
LINE
  5
D6
  8
1
 62
     7
 10
706.20000000000016
 20
190.1999999999999
 30
0.0
 11
706.20000000000016
 21
189.99999999999989
 31
0.0
  0
LINE
  5
D7
  8
1
 62
     7
 10
704.70000000000005
 20
-130.0
 30
0.0
 11
708.20000000000005
 21
-130.0
 31
0.0
  0
LINE
  5
D8
  8
1
 62
     7
 10
704.70000000000005
 20
130.0
 30
0.0
 11
704.70000000000005
 21
72.999999999999972
 31
0.0
  0
LINE
  5
D9
  8
1
 62
     7
 10
708.20000000000005
 20
130.0
 30
0.0
 11
704.70000000000005
 21
130.0
 31
0.0
  0
LINE
  5
DA
  8
1
 62
     7
 10
688.20000000000005
 20
-108.4999999999999
 30
0.0
 11
688.20000000000005
 21
-60.0
 31
0.0
  0
LINE
  5
DB
  8
1
 62
     7
 10
688.20000000000005
 20
122.89999999999981
 30
0.0
 11
688.20000000000005
 21
180.0
 31
0.0
  0
LINE
  5
DC
  8
1
 62
     7
 10
687.20000000000005
 20
-60.0
 30
0.0
 11
687.20000000000005
 21
-96.000000000000128
 31
0.0
  0
LINE
  5
DD
  8
1
 62
     7
 10
682.20000000000005
 20
-90.000000000000114
 30
0.0
 11
682.20000000000005
 21
-50.000000000000199
 31
0.0
  0
LINE
  5
DE
  8
1
 62
     7
 10
688.20000000000005
 20
59.999999999999957
 30
0.0
 11
688.20000000000005
 21
108.4999999999999
 31
0.0
  0
LINE
  5
DF
  8
1
 62
     7
 10
675.20000000000005
 20
-181.09999999999991
 30
0.0
 11
697.20000000000005
 21
-181.09999999999991
 31
0.0
  0
LINE
  5
E0
  8
1
 62
     7
 10
692.20000000000005
 20
-143.5
 30
0.0
 11
697.20000000000005
 21
-143.5
 31
0.0
  0
LINE
  5
E1
  8
1
 62
     7
 10
697.20000000000005
 20
-143.5
 30
0.0
 11
697.20000000000005
 21
-181.09999999999991
 31
0.0
  0
LINE
  5
E2
  8
1
 62
     7
 10
692.20000000000005
 20
-122.90000000000001
 30
0.0
 11
692.20000000000005
 21
-143.5
 31
0.0
  0
LINE
  5
E3
  8
1
 62
     7
 10
692.20000000000005
 20
-108.4999999999999
 30
0.0
 11
674.70000000000005
 21
-108.4999999999999
 31
0.0
  0
LINE
  5
E4
  8
1
 62
     7
 10
674.70000000000005
 20
-108.4999999999999
 30
0.0
 11
674.70000000000005
 21
-122.90000000000001
 31
0.0
  0
LINE
  5
E5
  8
1
 62
     7
 10
674.70000000000005
 20
-122.90000000000001
 30
0.0
 11
692.20000000000005
 21
-122.90000000000001
 31
0.0
  0
LINE
  5
E6
  8
1
 62
     7
 10
692.20000000000005
 20
-108.4999999999999
 30
0.0
 11
692.20000000000005
 21
-60.0
 31
0.0
  0
LINE
  5
E7
  8
1
 62
     7
 10
692.20000000000005
 20
-60.0
 30
0.0
 11
683.20000000000005
 21
-60.0
 31
0.0
  0
LINE
  5
E8
  8
1
 62
     7
 10
683.20000000000005
 20
-60.0
 30
0.0
 11
682.20000000000005
 21
-59.0
 31
0.0
  0
LINE
  5
E9
  8
1
 62
     7
 10
692.20000000000005
 20
59.999999999999972
 30
0.0
 11
692.20000000000005
 21
108.4999999999999
 31
0.0
  0
LINE
  5
EA
  8
1
 62
     7
 10
683.20000000000005
 20
59.999999999999972
 30
0.0
 11
692.20000000000005
 21
59.999999999999972
 31
0.0
  0
LINE
  5
EB
  8
1
 62
     7
 10
682.20000000000005
 20
58.999999999999972
 30
0.0
 11
683.20000000000005
 21
59.999999999999972
 31
0.0
  0
LINE
  5
EC
  8
1
 62
     7
 10
674.70000000000005
 20
108.4999999999999
 30
0.0
 11
692.20000000000005
 21
108.4999999999999
 31
0.0
  0
LINE
  5
ED
  8
1
 62
     7
 10
674.70000000000005
 20
122.89999999999981
 30
0.0
 11
674.70000000000005
 21
108.4999999999999
 31
0.0
  0
LINE
  5
EE
  8
1
 62
     7
 10
692.20000000000005
 20
122.89999999999981
 30
0.0
 11
674.70000000000005
 21
122.89999999999981
 31
0.0
  0
LINE
  5
EF
  8
1
 62
     7
 10
692.20000000000005
 20
143.5
 30
0.0
 11
692.20000000000005
 21
122.89999999999981
 31
0.0
  0
LINE
  5
F0
  8
1
 62
     7
 10
697.20000000000005
 20
143.5
 30
0.0
 11
692.20000000000005
 21
143.5
 31
0.0
  0
LINE
  5
F1
  8
1
 62
     7
 10
697.20000000000005
 20
181.09999999999991
 30
0.0
 11
675.20000000000005
 21
181.09999999999991
 31
0.0
  0
LINE
  5
F2
  8
1
 62
     7
 10
697.20000000000005
 20
181.09999999999991
 30
0.0
 11
697.20000000000005
 21
143.5
 31
0.0
  0
LINE
  5
F3
  8
1
 62
     7
 10
675.20000000000005
 20
187.1999999999999
 30
0.0
 11
678.20000000000005
 21
190.1999999999999
 31
0.0
  0
LINE
  5
F4
  8
1
 62
     7
 10
678.20000000000005
 20
-190.1999999999999
 30
0.0
 11
675.20000000000005
 21
-187.1999999999999
 31
0.0
  0
LINE
  5
F5
  8
1
 62
     7
 10
678.20000000000005
 20
-190.1999999999999
 30
0.0
 11
706.20000000000016
 21
-190.1999999999999
 31
0.0
  0
LINE
  5
F6
  8
1
 62
     7
 10
675.20000000000005
 20
-180.0
 30
0.0
 11
675.20000000000005
 21
-187.1999999999999
 31
0.0
  0
LINE
  5
F7
  8
1
 62
     7
 10
675.20000000000005
 20
187.1999999999999
 30
0.0
 11
675.20000000000005
 21
180.0
 31
0.0
  0
LINE
  5
F8
  8
1
 62
     7
 10
682.20000000000005
 20
-90.000000000000114
 30
0.0
 11
648.20000000000005
 21
-90.000000000000114
 31
0.0
  0
LINE
  5
F9
  8
1
 62
     7
 10
651.60000000000002
 20
-82.000000000000085
 30
0.0
 11
651.60000000000002
 21
-58.000000000000107
 31
0.0
  0
LINE
  5
FA
  8
1
 62
     7
 10
678.79999999999995
 20
-82.000000000000085
 30
0.0
 11
678.79999999999995
 21
-58.000000000000107
 31
0.0
  0
LINE
  5
FB
  8
1
 62
     7
 10
682.20000000000005
 20
-59.607695154587113
 30
0.0
 11
671.20000000000005
 21
-59.607695154587113
 31
0.0
  0
LINE
  5
FC
  8
1
 62
     7
 10
648.20000000000005
 20
-59.607695154587113
 30
0.0
 11
659.20000000000005
 21
-59.607695154587113
 31
0.0
  0
LINE
  5
FD
  8
1
 62
     7
 10
648.20000000000005
 20
-80.392304845413406
 30
0.0
 11
659.20000000000005
 21
-80.392304845413605
 31
0.0
  0
LINE
  5
FE
  8
1
 62
     7
 10
682.20000000000005
 20
-80.392304845413406
 30
0.0
 11
671.20000000000005
 21
-80.392304845413605
 31
0.0
  0
LINE
  5
FF
  8
1
 62
     7
 10
648.20000000000005
 20
89.999999999999957
 30
0.0
 11
682.20000000000005
 21
89.999999999999957
 31
0.0
  0
LINE
  5
100
  8
1
 62
     7
 10
651.60000000000002
 20
57.999999999999972
 30
0.0
 11
651.60000000000002
 21
81.999999999999972
 31
0.0
  0
LINE
  5
101
  8
1
 62
     7
 10
678.79999999999995
 20
57.999999999999972
 30
0.0
 11
678.79999999999995
 21
81.999999999999972
 31
0.0
  0
LINE
  5
102
  8
1
 62
     7
 10
671.20000000000005
 20
59.607695154586722
 30
0.0
 11
682.20000000000005
 21
59.607695154586821
 31
0.0
  0
LINE
  5
103
  8
1
 62
     7
 10
659.20000000000005
 20
59.607695154586722
 30
0.0
 11
648.20000000000005
 21
59.607695154586821
 31
0.0
  0
LINE
  5
104
  8
1
 62
     7
 10
659.20000000000005
 20
80.392304845413236
 30
0.0
 11
648.20000000000005
 21
80.392304845413108
 31
0.0
  0
LINE
  5
105
  8
1
 62
     7
 10
671.20000000000005
 20
80.392304845413236
 30
0.0
 11
682.20000000000005
 21
80.392304845413108
 31
0.0
  0
LINE
  5
106
  8
1
 62
     7
 10
630.20000000000005
 20
49.749999999999972
 30
0.0
 11
628.20000000000005
 21
47.749999999999972
 31
0.0
  0
LINE
  5
107
  8
1
 62
     7
 10
628.20000000000005
 20
-47.75
 30
0.0
 11
630.20000000000005
 21
-49.75
 31
0.0
  0
LINE
  5
108
  8
1
 62
     7
 10
648.20000000000005
 20
-48.25
 30
0.0
 11
648.20000000000005
 21
-115.0000000000001
 31
0.0
  0
LINE
  5
109
  8
1
 62
     7
 10
645.20000000000005
 20
48.249999999999972
 30
0.0
 11
645.20000000000005
 21
57.249999999999972
 31
0.0
  0
LINE
  5
10A
  8
1
 62
     7
 10
645.00000000000011
 20
49.999999999999972
 30
0.0
 11
645.00000000000011
 21
111.0
 31
0.0
  0
LINE
  5
10B
  8
1
 62
     7
 10
642.20000000000005
 20
49.999999999999972
 30
0.0
 11
645.20000000000005
 21
49.999999999999972
 31
0.0
  0
LINE
  5
10C
  8
1
 62
     7
 10
642.20000000000005
 20
49.749999999999972
 30
0.0
 11
642.20000000000005
 21
49.999999999999972
 31
0.0
  0
LINE
  5
10D
  8
1
 62
     7
 10
630.20000000000005
 20
49.749999999999972
 30
0.0
 11
642.20000000000005
 21
49.749999999999972
 31
0.0
  0
LINE
  5
10E
  8
1
 62
     7
 10
628.20000000000005
 20
-47.75
 30
0.0
 11
628.20000000000005
 21
47.749999999999972
 31
0.0
  0
LINE
  5
10F
  8
1
 62
     7
 10
642.20000000000005
 20
-49.75
 30
0.0
 11
630.20000000000005
 21
-49.75
 31
0.0
  0
LINE
  5
110
  8
1
 62
     7
 10
642.20000000000005
 20
-50.0
 30
0.0
 11
642.20000000000005
 21
-49.75
 31
0.0
  0
LINE
  5
111
  8
1
 62
     7
 10
645.20000000000005
 20
-50.0
 30
0.0
 11
642.20000000000005
 21
-50.0
 31
0.0
  0
LINE
  5
112
  8
1
 62
     7
 10
648.20000000000005
 20
-48.25
 30
0.0
 11
645.20000000000005
 21
-48.25
 31
0.0
  0
LINE
  5
113
  8
1
 62
     7
 10
648.20000000000005
 20
48.249999999999972
 30
0.0
 11
645.20000000000005
 21
48.249999999999972
 31
0.0
  0
LINE
  5
114
  8
1
 62
     7
 10
645.20000000000005
 20
-56.739794855663519
 30
0.0
 11
645.20000000000005
 21
-48.25
 31
0.0
  0
LINE
  5
115
  8
1
 62
     7
 10
648.20000000000005
 20
-56.739794855663519
 30
0.0
 11
645.20000000000005
 21
-56.739794855663519
 31
0.0
  0
LINE
  5
116
  8
1
 62
     7
 10
645.20000000000005
 20
57.249999999999972
 30
0.0
 11
648.20000000000005
 21
57.249999999999972
 31
0.0
  0
LINE
  5
117
  8
1
 62
     7
 10
642.24195134850106
 20
-95.500000000000128
 30
0.0
 11
643.89999999999986
 21
-95.500000000000128
 31
0.0
  0
LINE
  5
118
  8
1
 62
     7
 10
643.89999999999986
 20
-109.5000000000001
 30
0.0
 11
642.24195134850106
 21
-109.5000000000001
 31
0.0
  0
LINE
  5
119
  8
1
 62
     7
 10
645.00000000000011
 20
-95.000000000000114
 30
0.0
 11
644.20000000000005
 21
-95.000000000000114
 31
0.0
  0
LINE
  5
11A
  8
1
 62
     7
 10
644.20000000000005
 20
-95.000000000000114
 30
0.0
 11
644.20000000000005
 21
-110.0
 31
0.0
  0
LINE
  5
11B
  8
1
 62
     7
 10
644.20000000000005
 20
-110.0
 30
0.0
 11
645.00000000000011
 21
-110.0
 31
0.0
  0
LINE
  5
11C
  8
1
 62
     7
 10
643.89999999999986
 20
95.499999999999943
 30
0.0
 11
642.24195134850106
 21
95.499999999999943
 31
0.0
  0
LINE
  5
11D
  8
1
 62
     7
 10
642.24195134850106
 20
109.4999999999999
 30
0.0
 11
643.89999999999986
 21
109.4999999999999
 31
0.0
  0
LINE
  5
11E
  8
1
 62
     7
 10
644.20000000000005
 20
94.999999999999957
 30
0.0
 11
645.00000000000011
 21
94.999999999999957
 31
0.0
  0
LINE
  5
11F
  8
1
 62
     7
 10
644.20000000000005
 20
110.0
 30
0.0
 11
644.20000000000005
 21
94.999999999999957
 31
0.0
  0
LINE
  5
120
  8
1
 62
     7
 10
645.00000000000011
 20
110.0
 30
0.0
 11
644.20000000000005
 21
110.0
 31
0.0
  0
LINE
  5
121
  8
1
 62
     7
 10
646.20000000000005
 20
-111.0
 30
0.0
 11
646.20000000000005
 21
-177.0
 31
0.0
  0
LINE
  5
122
  8
1
 62
     7
 10
645.00000000000011
 20
79.999999999999972
 30
0.0
 11
648.20000000000005
 21
79.999999999999972
 31
0.0
  0
LINE
  5
123
  8
1
 62
     7
 10
645.00000000000011
 20
111.0
 30
0.0
 11
648.20000000000005
 21
111.0
 31
0.0
  0
LINE
  5
124
  8
1
 62
     7
 10
645.00000000000011
 20
-111.0
 30
0.0
 11
645.00000000000011
 21
-50.0
 31
0.0
  0
LINE
  5
125
  8
1
 62
     7
 10
648.20000000000005
 20
-111.0
 30
0.0
 11
645.00000000000011
 21
-111.0
 31
0.0
  0
LINE
  5
126
  8
1
 62
     7
 10
648.20000000000005
 20
-80.000000000000099
 30
0.0
 11
645.00000000000011
 21
-80.000000000000099
 31
0.0
  0
LINE
  5
127
  8
1
 62
     7
 10
648.20000000000005
 20
-115.0000000000001
 30
0.0
 11
646.20000000000005
 21
-115.0000000000001
 31
0.0
  0
LINE
  5
128
  8
1
 62
     7
 10
648.20000000000005
 20
115.0
 30
0.0
 11
648.20000000000005
 21
48.249999999999972
 31
0.0
  0
LINE
  5
129
  8
1
 62
     7
 10
646.20000000000005
 20
115.0
 30
0.0
 11
648.20000000000005
 21
115.0
 31
0.0
  0
LINE
  5
12A
  8
1
 62
     3
 10
623.20000000000005
 20
0.0
 30
0.0
 11
628.20000000000005
 21
0.0
 31
0.0
  0
LINE
  5
12B
  8
1
 62
     7
 10
682.20000000000005
 20
83.999999999999957
 30
0.0
 11
687.20000000000005
 21
83.999999999999957
 31
0.0
  0
LINE
  5
12C
  8
1
 62
     7
 10
682.20000000000005
 20
-84.000000000000114
 30
0.0
 11
687.20000000000005
 21
-84.000000000000114
 31
0.0
  0
LINE
  5
12D
  8
1
 62
     7
 10
687.20000000000005
 20
95.999999999999957
 30
0.0
 11
687.20000000000005
 21
59.999999999999972
 31
0.0
  0
LINE
  5
12E
  8
1
 62
     7
 10
669.20000000000005
 20
-96.000000000000128
 30
0.0
 11
687.20000000000005
 21
-96.000000000000128
 31
0.0
  0
LINE
  5
12F
  8
1
 62
     7
 10
669.20000000000005
 20
-124.0000000000001
 30
0.0
 11
669.20000000000005
 21
-96.000000000000128
 31
0.0
  0
LINE
  5
130
  8
1
 62
     7
 10
688.20000000000005
 20
-124.0000000000001
 30
0.0
 11
669.20000000000005
 21
-124.0000000000001
 31
0.0
  0
LINE
  5
131
  8
1
 62
     7
 10
669.20000000000005
 20
95.999999999999957
 30
0.0
 11
687.20000000000005
 21
95.999999999999957
 31
0.0
  0
LINE
  5
132
  8
1
 62
     7
 10
669.20000000000005
 20
124.0
 30
0.0
 11
669.20000000000005
 21
95.999999999999957
 31
0.0
  0
LINE
  5
133
  8
1
 62
     7
 10
688.20000000000005
 20
124.0
 30
0.0
 11
669.20000000000005
 21
124.0
 31
0.0
  0
LINE
  5
134
  8
1
 62
     7
 10
646.20000000000005
 20
-177.0
 30
0.0
 11
649.20000000000005
 21
-180.0
 31
0.0
  0
LINE
  5
135
  8
1
 62
     7
 10
646.20000000000005
 20
177.0
 30
0.0
 11
649.20000000000005
 21
180.0
 31
0.0
  0
LINE
  5
136
  8
1
 62
     7
 10
688.20000000000005
 20
180.0
 30
0.0
 11
649.20000000000005
 21
180.0
 31
0.0
  0
LINE
  5
137
  8
1
 62
     7
 10
688.20000000000005
 20
-180.0
 30
0.0
 11
688.20000000000005
 21
-122.90000000000001
 31
0.0
  0
LINE
  5
138
  8
1
 62
     7
 10
649.20000000000005
 20
-180.0
 30
0.0
 11
688.20000000000005
 21
-180.0
 31
0.0
  0
LINE
  5
139
  8
1
 62
     7
 10
1118.4174157926479
 20
223.0
 30
0.0
 11
1094.4174157926479
 21
223.0
 31
0.0
  0
LINE
  5
13A
  8
1
 62
     7
 10
766.20000000000005
 20
81.499999999999957
 30
0.0
 11
731.20000000000016
 21
81.499999999999957
 31
0.0
  0
LINE
  5
13B
  8
1
 62
     7
 10
766.20000000000005
 20
68.499999999999972
 30
0.0
 11
731.20000000000016
 21
68.499999999999972
 31
0.0
  0
LINE
  5
13C
  8
1
 62
     7
 10
709.00000000000011
 20
-42.5
 30
0.0
 11
709.00000000000011
 21
-190.0
 31
0.0
  0
LINE
  5
13D
  8
1
 62
     7
 10
725.70000000000005
 20
-178.0
 30
0.0
 11
713.79999999999995
 21
-178.0
 31
0.0
  0
LINE
  5
13E
  8
1
 62
     7
 10
725.70000000000005
 20
-148.0
 30
0.0
 11
713.79999999999995
 21
-148.0
 31
0.0
  0
LINE
  5
13F
  8
1
 62
     7
 10
729.70000000000005
 20
-143.5891576308899
 30
0.0
 11
729.70000000000005
 21
-104.89999999999991
 31
0.0
  0
LINE
  5
140
  8
1
 62
     7
 10
729.70000000000005
 20
-173.5891576308899
 30
0.0
 11
729.70000000000005
 21
-146.4108423691101
 31
0.0
  0
LINE
  5
141
  8
1
 62
     7
 10
709.00000000000011
 20
-170.0
 30
0.0
 11
713.79999999999995
 21
-170.0
 31
0.0
  0
LINE
  5
142
  8
1
 62
     7
 10
713.79999999999995
 20
-170.0
 30
0.0
 11
713.79999999999995
 21
-172.0
 31
0.0
  0
LINE
  5
143
  8
1
 62
     7
 10
713.79999999999995
 20
-180.0
 30
0.0
 11
709.00000000000011
 21
-180.0
 31
0.0
  0
LINE
  5
144
  8
1
 62
     7
 10
713.79999999999995
 20
-178.0
 30
0.0
 11
713.79999999999995
 21
-180.0
 31
0.0
  0
LINE
  5
145
  8
1
 62
     7
 10
713.79999999999995
 20
-172.0
 30
0.0
 11
725.70000000000005
 21
-172.0
 31
0.0
  0
LINE
  5
146
  8
1
 62
     7
 10
722.79999999999995
 20
-172.0
 30
0.0
 11
722.79999999999995
 21
-148.0
 31
0.0
  0
LINE
  5
147
  8
1
 62
     7
 10
722.79999999999995
 20
-142.0
 30
0.0
 11
722.79999999999995
 21
-42.5
 31
0.0
  0
LINE
  5
148
  8
1
 62
     7
 10
709.00000000000011
 20
-140.0
 30
0.0
 11
713.79999999999995
 21
-140.0
 31
0.0
  0
LINE
  5
149
  8
1
 62
     7
 10
713.79999999999995
 20
-140.0
 30
0.0
 11
713.79999999999995
 21
-142.0
 31
0.0
  0
LINE
  5
14A
  8
1
 62
     7
 10
713.79999999999995
 20
-150.0
 30
0.0
 11
709.00000000000011
 21
-150.0
 31
0.0
  0
LINE
  5
14B
  8
1
 62
     7
 10
713.79999999999995
 20
-142.0
 30
0.0
 11
725.70000000000005
 21
-142.0
 31
0.0
  0
LINE
  5
14C
  8
1
 62
     7
 10
713.79999999999995
 20
-148.0
 30
0.0
 11
713.79999999999995
 21
-150.0
 31
0.0
  0
LINE
  5
14D
  8
1
 62
     7
 10
682.20000000000005
 20
49.999999999999972
 30
0.0
 11
682.20000000000005
 21
89.999999999999957
 31
0.0
  0
LINE
  5
14E
  8
1
 62
     7
 10
682.20000000000005
 20
49.999999999999972
 30
0.0
 11
648.20000000000005
 21
49.999999999999972
 31
0.0
  0
LINE
  5
14F
  8
1
 62
     7
 10
682.20000000000005
 20
-50.000000000000199
 30
0.0
 11
648.20000000000005
 21
-50.000000000000199
 31
0.0
  0
LINE
  5
150
  8
1
 62
     7
 10
643.00000000000011
 20
148.0
 30
0.0
 11
646.20000000000005
 21
148.0
 31
0.0
  0
LINE
  5
151
  8
1
 62
     7
 10
646.20000000000005
 20
223.0
 30
0.0
 11
643.00000000000011
 21
223.0
 31
0.0
  0
LINE
  5
152
  8
1
 62
     7
 10
643.00000000000011
 20
223.0
 30
0.0
 11
643.00000000000011
 21
148.0
 31
0.0
  0
LINE
  5
153
  8
1
 62
     7
 10
646.20000000000005
 20
111.0
 30
0.0
 11
646.20000000000005
 21
223.0
 31
0.0
  0
LINE
  5
154
  8
1
 62
     7
 10
643.00000000000011
 20
154.49999999999989
 30
0.0
 11
635.50000000000011
 21
154.49999999999989
 31
0.0
  0
LINE
  5
155
  8
1
 62
     7
 10
635.50000000000011
 20
154.49999999999989
 30
0.0
 11
635.00000000000011
 21
155.36602540378439
 31
0.0
  0
LINE
  5
156
  8
1
 62
     7
 10
635.00000000000011
 20
155.36602540378439
 30
0.0
 11
635.00000000000011
 21
166.6339745962155
 31
0.0
  0
LINE
  5
157
  8
1
 62
     7
 10
635.00000000000011
 20
166.6339745962155
 30
0.0
 11
635.50000000000011
 21
167.5
 31
0.0
  0
LINE
  5
158
  8
1
 62
     7
 10
635.50000000000011
 20
167.5
 30
0.0
 11
643.00000000000011
 21
167.5
 31
0.0
  0
LINE
  5
159
  8
1
 62
     7
 10
635.50000000000011
 20
154.49999999999989
 30
0.0
 11
635.50000000000011
 21
167.5
 31
0.0
  0
LINE
  5
15A
  8
1
  6
DASHDOT
 62
     3
 10
1165.8143854123171
 20
59.396969619669989
 30
0.0
 11
1153.08646335096
 21
46.66904755831213
 31
0.0
  0
LINE
  5
15B
  8
1
  6
DASHDOT
 62
     3
 10
1047.0204461729779
 20
59.396969619669989
 30
0.0
 11
1059.7483682343361
 21
46.669047558312137
 31
0.0
  0
LINE
  5
15C
  8
1
  6
DASHDOT
 62
     3
 10
1047.0204461729779
 20
-59.39696961967001
 30
0.0
 11
1059.7483682343361
 21
-46.669047558312123
 31
0.0
  0
LINE
  5
15D
  8
1
  6
DASHDOT
 62
     3
 10
1165.8143854123171
 20
-59.39696961967001
 30
0.0
 11
1153.08646335096
 21
-46.669047558312123
 31
0.0
  0
LINE
  5
15E
  8
1
  6
DASHDOT
 62
     3
 10
1106.4174157926479
 20
84.500000000000014
 30
0.0
 11
1106.4174157926479
 21
65.5
 31
0.0
  0
LINE
  5
15F
  8
1
  6
DASHDOT
 62
     3
 10
1021.9174157926479
 20
0.0
 30
0.0
 11
1040.917415792647
 21
0.0
 31
0.0
  0
LINE
  5
160
  8
1
  6
DASHDOT
 62
     3
 10
1106.4174157926479
 20
-84.500000000000014
 30
0.0
 11
1106.4174157926479
 21
-65.5
 31
0.0
  0
LINE
  5
161
  8
1
  6
DASHDOT
 62
     3
 10
1190.917415792647
 20
0.0
 30
0.0
 11
1171.917415792647
 21
0.0
 31
0.0
  0
LINE
  5
162
  8
1
  6
DASHDOT
 62
     3
 10
17.5
 20
0.0
 30
0.0
 11
-17.5
 21
0.0
 31
0.0
  0
LINE
  5
163
  8
1
  6
DASHDOT
 62
     3
 10
0.0
 20
17.499999999999989
 30
0.0
 11
0.0
 21
-17.5
 31
0.0
  0
LINE
  5
164
  8
1
 62
     7
 10
-12.0
 20
223.0
 30
0.0
 11
12.0
 21
223.0
 31
0.0
  0
LINE
  5
165
  8
1
 62
     7
 10
25.0
 20
148.0
 30
0.0
 11
-25.0
 21
148.0
 31
0.0
  0
LINE
  5
166
  8
1
 62
     7
 10
-25.0
 20
148.0
 30
0.0
 11
-25.0
 21
163.0
 31
0.0
  0
LINE
  5
167
  8
1
 62
     7
 10
-15.0
 20
173.0
 30
0.0
 11
-15.0
 21
220.0
 31
0.0
  0
LINE
  5
168
  8
1
 62
     7
 10
15.0
 20
220.0
 30
0.0
 11
15.0
 21
173.0
 31
0.0
  0
LINE
  5
169
  8
1
 62
     7
 10
25.0
 20
163.0
 30
0.0
 11
25.0
 21
148.0
 31
0.0
  0
LINE
  5
16A
  8
1
 62
     7
 10
17.5
 20
157.53589838486221
 30
0.0
 11
20.5
 21
159.26794919243099
 31
0.0
  0
LINE
  5
16B
  8
1
 62
     7
 10
20.5
 20
159.26794919243099
 30
0.0
 11
20.5
 21
162.7320508075689
 31
0.0
  0
LINE
  5
16C
  8
1
 62
     7
 10
20.5
 20
162.7320508075689
 30
0.0
 11
17.5
 21
164.46410161513779
 31
0.0
  0
LINE
  5
16D
  8
1
 62
     7
 10
17.5
 20
164.46410161513779
 30
0.0
 11
14.5
 21
162.7320508075689
 31
0.0
  0
LINE
  5
16E
  8
1
 62
     7
 10
14.5
 20
162.7320508075689
 30
0.0
 11
14.5
 21
159.26794919243099
 31
0.0
  0
LINE
  5
16F
  8
1
 62
     7
 10
14.5
 20
159.26794919243099
 30
0.0
 11
17.5
 21
157.53589838486221
 31
0.0
  0
LINE
  5
170
  8
1
 62
     7
 10
-17.5
 20
157.53589838486221
 30
0.0
 11
-14.5
 21
159.26794919243099
 31
0.0
  0
LINE
  5
171
  8
1
 62
     7
 10
-14.5
 20
159.26794919243099
 30
0.0
 11
-14.5
 21
162.7320508075689
 31
0.0
  0
LINE
  5
172
  8
1
 62
     7
 10
-14.5
 20
162.7320508075689
 30
0.0
 11
-17.5
 21
164.46410161513779
 31
0.0
  0
LINE
  5
173
  8
1
 62
     7
 10
-17.5
 20
164.46410161513779
 30
0.0
 11
-20.5
 21
162.7320508075689
 31
0.0
  0
LINE
  5
174
  8
1
 62
     7
 10
-20.5
 20
162.7320508075689
 30
0.0
 11
-20.5
 21
159.26794919243099
 31
0.0
  0
LINE
  5
175
  8
1
 62
     7
 10
-20.5
 20
159.26794919243099
 30
0.0
 11
-17.5
 21
157.53589838486221
 31
0.0
  0
LINE
  5
176
  8
1
 62
     7
 10
-9.0
 20
33.823069050575477
 30
0.0
 11
-9.0
 21
40.999999999999993
 31
0.0
  0
LINE
  5
177
  8
1
 62
     7
 10
-9.0
 20
40.999999999999993
 30
0.0
 11
9.0
 21
40.999999999999993
 31
0.0
  0
LINE
  5
178
  8
1
 62
     7
 10
9.0
 20
40.999999999999993
 30
0.0
 11
9.0
 21
33.823069050575477
 31
0.0
  0
LINE
  5
179
  8
1
 62
     7
 10
3.849999999999993
 20
101.9225
 30
0.0
 11
3.849999999999993
 21
103.0774999999999
 31
0.0
  0
LINE
  5
17A
  8
1
 62
     7
 10
0.5775000000000148
 20
106.34999999999989
 30
0.0
 11
-0.5774999999999864
 21
106.34999999999989
 31
0.0
  0
LINE
  5
17B
  8
1
 62
     7
 10
-3.849999999999993
 20
103.0774999999999
 30
0.0
 11
-3.849999999999993
 21
101.9225
 31
0.0
  0
LINE
  5
17C
  8
1
 62
     7
 10
-0.5774999999999864
 20
98.650000000000006
 30
0.0
 11
0.5775000000000148
 21
98.650000000000006
 31
0.0
  0
LINE
  5
17D
  8
1
 62
     7
 10
-101.9225
 20
3.849999999999993
 30
0.0
 11
-103.0774999999999
 21
3.849999999999993
 31
0.0
  0
LINE
  5
17E
  8
1
 62
     7
 10
-106.34999999999989
 20
0.5774999999999864
 30
0.0
 11
-106.34999999999989
 21
-0.5774999999999011
 31
0.0
  0
LINE
  5
17F
  8
1
 62
     7
 10
-103.0774999999999
 20
-3.8500000000000232
 30
0.0
 11
-101.9225
 21
-3.8500000000000232
 31
0.0
  0
LINE
  5
180
  8
1
 62
     7
 10
-98.649999999999977
 20
-0.5774999999999011
 30
0.0
 11
-98.649999999999977
 21
0.5774999999999864
 31
0.0
  0
LINE
  5
181
  8
1
 62
     7
 10
-3.849999999999993
 20
-101.9225
 30
0.0
 11
-3.849999999999993
 21
-103.0774999999999
 31
0.0
  0
LINE
  5
182
  8
1
 62
     7
 10
-0.5774999999999864
 20
-106.34999999999989
 30
0.0
 11
0.5774999999999011
 21
-106.34999999999989
 31
0.0
  0
LINE
  5
183
  8
1
 62
     7
 10
3.849999999999993
 20
-103.0774999999999
 30
0.0
 11
3.849999999999993
 21
-101.9225
 31
0.0
  0
LINE
  5
184
  8
1
 62
     7
 10
0.5774999999999011
 20
-98.650000000000006
 30
0.0
 11
-0.5774999999999864
 21
-98.650000000000006
 31
0.0
  0
LINE
  5
185
  8
1
 62
     7
 10
101.9225
 20
-3.8500000000000232
 30
0.0
 11
103.0774999999999
 21
-3.8500000000000232
 31
0.0
  0
LINE
  5
186
  8
1
 62
     7
 10
106.34999999999989
 20
-0.5775000000000148
 30
0.0
 11
106.34999999999989
 21
0.5774999999999864
 31
0.0
  0
LINE
  5
187
  8
1
 62
     7
 10
103.0774999999999
 20
3.849999999999993
 30
0.0
 11
101.9225
 21
3.849999999999993
 31
0.0
  0
LINE
  5
188
  8
1
 62
     7
 10
98.650000000000006
 20
0.5774999999999864
 30
0.0
 11
98.650000000000006
 21
-0.5775000000000148
 31
0.0
  0
LINE
  5
189
  8
1
 62
     7
 10
19.0
 20
-53.739794855663597
 30
0.0
 11
19.0
 21
-51.942603999073718
 31
0.0
  0
LINE
  5
18A
  8
1
 62
     7
 10
-19.0
 20
-53.739794855663597
 30
0.0
 11
-19.0
 21
-51.942603999073718
 31
0.0
  0
LINE
  5
18B
  8
1
 62
     7
 10
10.0
 20
-48.989794855663611
 30
0.0
 11
10.0
 21
-56.739794855663597
 31
0.0
  0
LINE
  5
18C
  8
1
 62
     7
 10
10.0
 20
-56.739794855663597
 30
0.0
 11
16.0
 21
-56.739794855663597
 31
0.0
  0
LINE
  5
18D
  8
1
 62
     7
 10
-10.0
 20
-48.989794855663611
 30
0.0
 11
-10.0
 21
-56.739794855663597
 31
0.0
  0
LINE
  5
18E
  8
1
 62
     7
 10
-10.0
 20
-56.739794855663597
 30
0.0
 11
-16.0
 21
-56.739794855663597
 31
0.0
  0
LINE
  5
18F
  8
1
  6
DASHDOT
 62
     3
 10
9.5
 20
210.0
 30
0.0
 11
-9.5
 21
210.0
 31
0.0
  0
LINE
  5
190
  8
1
  6
DASHDOT
 62
     3
 10
0.0
 20
219.49999999999989
 30
0.0
 11
0.0
 21
200.49999999999989
 31
0.0
  0
LINE
  5
191
  8
1
  6
DASHDOT
 62
     3
 10
1115.9174157926479
 20
210.0
 30
0.0
 11
1096.9174157926479
 21
210.0
 31
0.0
  0
LINE
  5
192
  8
1
  6
DASHDOT
 62
     3
 10
1106.4174157926479
 20
219.5000000000004
 30
0.0
 11
1106.4174157926479
 21
200.49999999999949
 31
0.0
  0
LINE
  5
193
  8
1
 62
     7
 10
1121.4174157926491
 20
189.4069692487578
 30
0.0
 11
1121.4174157926491
 21
220.0
 31
0.0
  0
LINE
  5
194
  8
1
 62
     7
 10
1091.417415792647
 20
189.406969248758
 30
0.0
 11
1091.417415792647
 21
220.0
 31
0.0
  0
LINE
  5
195
  8
1
 62
     7
 10
663.89999999999975
 20
230.0
 30
0.0
 11
663.89999999999975
 21
180.0
 31
0.0
  0
LINE
  5
196
  8
1
 62
     7
 10
666.5
 20
230.0
 30
0.0
 11
666.5
 21
180.0
 31
0.0
  0
LINE
  5
197
  8
1
 62
     7
 10
663.89999999999975
 20
230.0
 30
0.0
 11
666.5
 21
230.0
 31
0.0
  0
LINE
  5
198
  8
1
 62
     7
 10
665.60000000000002
 20
230.0
 30
0.0
 11
665.60000000000002
 21
235.0
 31
0.0
  0
LINE
  5
199
  8
1
 62
     7
 10
665.39999999999986
 20
230.0
 30
0.0
 11
665.39999999999986
 21
235.0
 31
0.0
  0
LINE
  5
19A
  8
1
 62
     7
 10
665.20000000000005
 20
230.0
 30
0.0
 11
665.20000000000005
 21
235.0
 31
0.0
  0
LINE
  5
19B
  8
1
 62
     7
 10
665.00000000000011
 20
230.0
 30
0.0
 11
665.00000000000011
 21
235.0
 31
0.0
  0
LINE
  5
19C
  8
1
 62
     7
 10
664.79999999999995
 20
230.0
 30
0.0
 11
664.79999999999995
 21
235.0
 31
0.0
  0
LINE
  5
19D
  8
1
 62
     7
 10
1046.755948573079
 20
232.70525551094539
 30
0.0
 11
1041.7331342763759
 21
231.35939647641229
 31
0.0
  0
LINE
  5
19E
  8
1
 62
     7
 10
1045.886615329418
 20
232.47231837035321
 30
0.0
 11
1044.5925201039061
 21
237.30194750179851
 31
0.0
  0
LINE
  5
19F
  8
1
 62
     7
 10
1045.6934301641611
 20
232.42055456133269
 30
0.0
 11
1044.3993349386481
 21
237.25018369277799
 31
0.0
  0
LINE
  5
1A0
  8
1
 62
     7
 10
1045.5002449989031
 20
232.36879075231221
 30
0.0
 11
1044.2061497733901
 21
237.19841988375751
 31
0.0
  0
LINE
  5
1A1
  8
1
 62
     7
 10
1045.3070598336451
 20
232.31702694329169
 30
0.0
 11
1044.012964608133
 21
237.146656074737
 31
0.0
  0
LINE
  5
1A2
  8
1
 62
     7
 10
1045.1138746683871
 20
232.26526313427121
 30
0.0
 11
1043.8197794428741
 21
237.09489226571651
 31
0.0
  0
LINE
  5
1A3
  8
1
 62
     7
 10
1043.3752081810669
 20
231.7993888530865
 30
0.0
 11
1042.0811129555541
 21
236.629017984532
 31
0.0
  0
LINE
  5
1A4
  8
1
 62
     7
 10
1043.1820230158089
 20
231.7476250440661
 30
0.0
 11
1041.887927790297
 21
236.57725417551151
 31
0.0
  0
LINE
  5
1A5
  8
1
 62
     7
 10
1042.98883785055
 20
231.6958612350455
 30
0.0
 11
1041.694742625039
 21
236.5254903664908
 31
0.0
  0
LINE
  5
1A6
  8
1
 62
     7
 10
1042.7956526852929
 20
231.6440974260251
 30
0.0
 11
1041.501557459781
 21
236.47372655747051
 31
0.0
  0
LINE
  5
1A7
  8
1
 62
     7
 10
1042.602467520036
 20
231.5923336170045
 30
0.0
 11
1041.3083722945221
 21
236.42196274845
 31
0.0
  0
LINE
  5
1A8
  8
1
 62
     7
 10
1044.244541424727
 20
232.0323259936788
 30
0.0
 11
1057.241797223169
 21
183.52590699492291
 31
0.0
  0
LINE
  5
1A9
  8
1
 62
     7
 10
1046.755948573079
 20
232.70525551094539
 30
0.0
 11
1059.757808841679
 21
184.18165239562001
 31
0.0
  0
LINE
  5
1AA
  8
1
 62
     7
 10
1041.7331342763759
 20
231.35939647641229
 30
0.0
 11
1054.7349945449751
 21
182.8357933610869
 31
0.0
  0
LINE
  5
1AB
  8
1
 62
     7
 10
64.498721623781108
 20
231.141856290009
 30
0.0
 11
59.47590732707792
 21
232.48771532454231
 31
0.0
  0
LINE
  5
1AC
  8
1
 62
     7
 10
61.639335796250613
 20
237.08440731539531
 30
0.0
 11
60.345240570738007
 21
232.2547781839499
 31
0.0
  0
LINE
  5
1AD
  8
1
 62
     7
 10
61.832520961508493
 20
237.0326435063748
 30
0.0
 11
60.538425735995901
 21
232.20301437492941
 31
0.0
  0
LINE
  5
1AE
  8
1
 62
     7
 10
62.025706126766217
 20
236.98087969735431
 30
0.0
 11
60.731610901253617
 21
232.1512505659089
 31
0.0
  0
LINE
  5
1AF
  8
1
 62
     7
 10
62.218891292024011
 20
236.9291158883338
 30
0.0
 11
60.924796066511419
 21
232.09948675688841
 31
0.0
  0
LINE
  5
1B0
  8
1
 62
     7
 10
62.412076457281891
 20
236.87735207931331
 30
0.0
 11
61.117981231769321
 21
232.0477229478679
 31
0.0
  0
LINE
  5
1B1
  8
1
 62
     7
 10
64.150742944602314
 20
236.4114777981288
 30
0.0
 11
62.856647719089693
 21
231.58184866668341
 31
0.0
  0
LINE
  5
1B2
  8
1
 62
     7
 10
64.343928109860201
 20
236.35971398910829
 30
0.0
 11
63.049832884347609
 21
231.5300848576629
 31
0.0
  0
LINE
  5
1B3
  8
1
 62
     7
 10
64.537113275118003
 20
236.3079501800876
 30
0.0
 11
63.243018049605411
 21
231.47832104864241
 31
0.0
  0
LINE
  5
1B4
  8
1
 62
     7
 10
64.730298440375719
 20
236.25618637106729
 30
0.0
 11
63.436203214863099
 21
231.4265572396219
 31
0.0
  0
LINE
  5
1B5
  8
1
 62
     7
 10
64.923483605633606
 20
236.2044225620468
 30
0.0
 11
63.629388380121021
 21
231.37479343060139
 31
0.0
  0
LINE
  5
1B6
  8
1
 62
     7
 10
46.468672563275703
 20
173.89842572664949
 30
0.0
 11
61.9873144754295
 21
231.81478580727571
 31
0.0
  0
LINE
  5
1B7
  8
1
 62
     7
 10
43.951945476676897
 20
174.5515009640857
 30
0.0
 11
59.47590732707792
 21
232.48771532454231
 31
0.0
  0
LINE
  5
1B8
  8
1
 62
     7
 10
48.975679042986613
 20
173.209072690429
 30
0.0
 11
64.498721623781108
 21
231.141856290009
 31
0.0
  0
LINE
  5
1B9
  8
1
  6
DASHDOT
 62
     3
 10
1124.1511858858489
 20
0.0
 30
0.0
 11
1088.683645699447
 21
0.0
 31
0.0
  0
LINE
  5
1BA
  8
1
  6
DASHDOT
 62
     3
 10
1106.4174157926479
 20
17.733770093201571
 30
0.0
 11
1106.4174157926479
 21
-17.73377009320151
 31
0.0
  0
LINE
  5
1BB
  8
1
 62
     7
 10
438.79999999999978
 20
186.99999999999989
 30
0.0
 11
438.79999999999978
 21
-187.0
 31
0.0
  0
LINE
  5
1BC
  8
1
 62
     7
 10
451.28582618673312
 20
104.618821315066
 30
0.0
 11
451.09999999999962
 21
107.4999999999999
 31
0.0
  0
LINE
  5
1BD
  8
1
 62
     7
 10
456.49999999999977
 20
93.349999999999966
 30
0.0
 11
458.29999999999978
 21
93.349999999999966
 31
0.0
  0
LINE
  5
1BE
  8
1
 62
     7
 10
446.49999999999977
 20
-190.0
 30
0.0
 11
446.49999999999977
 21
189.99999999999989
 31
0.0
  0
LINE
  5
1BF
  8
1
 62
     7
 10
456.49999999999977
 20
-93.350000000000023
 30
0.0
 11
458.29999999999978
 21
-93.350000000000023
 31
0.0
  0
LINE
  5
1C0
  8
1
 62
     7
 10
467.29999999999978
 20
-130.49999999999989
 30
0.0
 11
469.29999999999978
 21
-128.49999999999989
 31
0.0
  0
LINE
  5
1C1
  8
1
 62
     7
 10
455.29999999999978
 20
107.4999999999999
 30
0.0
 11
454.49999999999977
 21
107.4999999999999
 31
0.0
  0
LINE
  5
1C2
  8
1
 62
     7
 10
469.29999999999978
 20
128.49999999999989
 30
0.0
 11
467.29999999999978
 21
130.49999999999989
 31
0.0
  0
LINE
  5
1C3
  8
1
 62
     7
 10
453.09999999999968
 20
130.49999999999989
 30
0.0
 11
467.29999999999978
 21
130.49999999999989
 31
0.0
  0
LINE
  5
1C4
  8
1
 62
     7
 10
453.09999999999968
 20
130.49999999999989
 30
0.0
 11
446.49999999999977
 21
130.49999999999989
 31
0.0
  0
LINE
  5
1C5
  8
1
 62
     7
 10
451.09999999999962
 20
130.49999999999989
 30
0.0
 11
451.09999999999962
 21
107.4999999999999
 31
0.0
  0
LINE
  5
1C6
  8
1
 62
     7
 10
472.39999999999981
 20
112.0
 30
0.0
 11
469.29999999999978
 21
112.0
 31
0.0
  0
LINE
  5
1C7
  8
1
 62
     3
 10
473.79999999999978
 20
124.59999999999989
 30
0.0
 11
469.29999999999978
 21
124.59999999999989
 31
0.0
  0
LINE
  5
1C8
  8
1
 62
     3
 10
473.79999999999978
 20
113.40000000000001
 30
0.0
 11
469.29999999999978
 21
113.40000000000001
 31
0.0
  0
LINE
  5
1C9
  8
1
 62
     7
 10
472.39999999999981
 20
112.0
 30
0.0
 11
472.39999999999981
 21
126.0
 31
0.0
  0
LINE
  5
1CA
  8
1
 62
     7
 10
472.39999999999981
 20
126.0
 30
0.0
 11
469.29999999999978
 21
126.0
 31
0.0
  0
LINE
  5
1CB
  8
1
 62
     7
 10
473.79999999999978
 20
124.59999999999989
 30
0.0
 11
472.39999999999981
 21
126.0
 31
0.0
  0
LINE
  5
1CC
  8
1
 62
     7
 10
473.79999999999978
 20
113.40000000000001
 30
0.0
 11
473.79999999999978
 21
124.59999999999989
 31
0.0
  0
LINE
  5
1CD
  8
1
 62
     7
 10
472.39999999999981
 20
112.0
 30
0.0
 11
473.79999999999978
 21
113.40000000000001
 31
0.0
  0
LINE
  5
1CE
  8
1
 62
     7
 10
478.19999999999999
 20
-89.350000000000023
 30
0.0
 11
476.19999999999987
 21
-91.350000000000037
 31
0.0
  0
LINE
  5
1CF
  8
1
 62
     7
 10
476.19999999999987
 20
91.349999999999966
 30
0.0
 11
478.19999999999999
 21
89.349999999999966
 31
0.0
  0
LINE
  5
1D0
  8
1
 62
     7
 10
476.19999999999987
 20
91.349999999999966
 30
0.0
 11
474.59999999999962
 21
91.349999999999966
 31
0.0
  0
LINE
  5
1D1
  8
1
 62
     7
 10
478.19999999999999
 20
-89.350000000000023
 30
0.0
 11
478.19999999999999
 21
89.349999999999966
 31
0.0
  0
LINE
  5
1D2
  8
1
 62
     7
 10
437.29999999999978
 20
184.99999999999989
 30
0.0
 11
437.79999999999978
 21
184.99999999999989
 31
0.0
  0
LINE
  5
1D3
  8
1
 62
     7
 10
441.79999999999978
 20
189.99999999999989
 30
0.0
 11
446.49999999999977
 21
189.99999999999989
 31
0.0
  0
LINE
  5
1D4
  8
1
 62
     7
 10
437.79999999999978
 20
-185.0
 30
0.0
 11
437.29999999999978
 21
-185.0
 31
0.0
  0
LINE
  5
1D5
  8
1
 62
     7
 10
446.49999999999977
 20
-190.0
 30
0.0
 11
441.79999999999978
 21
-190.0
 31
0.0
  0
LINE
  5
1D6
  8
1
 62
     7
 10
434.79999999999978
 20
189.99999999999989
 30
0.0
 11
420.99999999999977
 21
189.99999999999989
 31
0.0
  0
LINE
  5
1D7
  8
1
 62
     7
 10
420.99999999999977
 20
-190.0
 30
0.0
 11
434.79999999999978
 21
-190.0
 31
0.0
  0
LINE
  5
1D8
  8
1
 62
     7
 10
418.19999999999999
 20
-190.0
 30
0.0
 11
418.19999999999999
 21
-190.1999999999999
 31
0.0
  0
LINE
  5
1D9
  8
1
 62
     7
 10
420.19999999999987
 20
-190.0
 30
0.0
 11
418.19999999999999
 21
-190.0
 31
0.0
  0
LINE
  5
1DA
  8
1
 62
     7
 10
418.19999999999999
 20
190.1999999999999
 30
0.0
 11
390.19999999999982
 21
190.1999999999999
 31
0.0
  0
LINE
  5
1DB
  8
1
 62
     7
 10
420.19999999999987
 20
189.99999999999989
 30
0.0
 11
420.19999999999987
 21
-190.0
 31
0.0
  0
LINE
  5
1DC
  8
1
 62
     7
 10
418.19999999999999
 20
189.99999999999989
 30
0.0
 11
420.19999999999987
 21
189.99999999999989
 31
0.0
  0
LINE
  5
1DD
  8
1
 62
     7
 10
418.19999999999999
 20
190.1999999999999
 30
0.0
 11
418.19999999999999
 21
189.99999999999989
 31
0.0
  0
LINE
  5
1DE
  8
1
 62
     7
 10
387.19999999999982
 20
187.1999999999999
 30
0.0
 11
390.19999999999982
 21
190.1999999999999
 31
0.0
  0
LINE
  5
1DF
  8
1
 62
     7
 10
390.19999999999982
 20
-190.1999999999999
 30
0.0
 11
387.19999999999982
 21
-187.1999999999999
 31
0.0
  0
LINE
  5
1E0
  8
1
 62
     7
 10
390.19999999999982
 20
-190.1999999999999
 30
0.0
 11
418.19999999999999
 21
-190.1999999999999
 31
0.0
  0
LINE
  5
1E1
  8
1
 62
     7
 10
387.19999999999982
 20
-187.1999999999999
 30
0.0
 11
387.19999999999982
 21
187.1999999999999
 31
0.0
  0
LINE
  5
1E2
  8
1
 62
     7
 10
342.19999999999982
 20
49.749999999999972
 30
0.0
 11
340.19999999999982
 21
47.749999999999972
 31
0.0
  0
LINE
  5
1E3
  8
1
 62
     7
 10
340.19999999999982
 20
-47.75
 30
0.0
 11
342.19999999999982
 21
-49.75
 31
0.0
  0
LINE
  5
1E4
  8
1
 62
     7
 10
354.19999999999982
 20
49.999999999999972
 30
0.0
 11
356.99999999999977
 21
49.999999999999972
 31
0.0
  0
LINE
  5
1E5
  8
1
 62
     7
 10
354.19999999999982
 20
49.749999999999972
 30
0.0
 11
354.19999999999982
 21
49.999999999999972
 31
0.0
  0
LINE
  5
1E6
  8
1
 62
     7
 10
342.19999999999982
 20
49.749999999999972
 30
0.0
 11
354.19999999999982
 21
49.749999999999972
 31
0.0
  0
LINE
  5
1E7
  8
1
 62
     7
 10
340.19999999999982
 20
-47.75
 30
0.0
 11
340.19999999999982
 21
47.749999999999972
 31
0.0
  0
LINE
  5
1E8
  8
1
 62
     7
 10
354.19999999999982
 20
-49.75
 30
0.0
 11
342.19999999999982
 21
-49.75
 31
0.0
  0
LINE
  5
1E9
  8
1
 62
     7
 10
354.19999999999982
 20
-50.0
 30
0.0
 11
354.19999999999982
 21
-49.75
 31
0.0
  0
LINE
  5
1EA
  8
1
 62
     7
 10
354.24195134850117
 20
-95.500000000000128
 30
0.0
 11
355.89999999999981
 21
-95.500000000000128
 31
0.0
  0
LINE
  5
1EB
  8
1
 62
     7
 10
355.89999999999981
 20
-109.5000000000001
 30
0.0
 11
354.24195134850117
 21
-109.5000000000001
 31
0.0
  0
LINE
  5
1EC
  8
1
 62
     7
 10
356.99999999999977
 20
-95.000000000000114
 30
0.0
 11
356.19999999999982
 21
-95.000000000000114
 31
0.0
  0
LINE
  5
1ED
  8
1
 62
     7
 10
356.19999999999982
 20
-95.000000000000114
 30
0.0
 11
356.19999999999982
 21
-110.0
 31
0.0
  0
LINE
  5
1EE
  8
1
 62
     7
 10
356.19999999999982
 20
-110.0
 30
0.0
 11
356.99999999999977
 21
-110.0
 31
0.0
  0
LINE
  5
1EF
  8
1
 62
     7
 10
355.89999999999981
 20
95.499999999999943
 30
0.0
 11
354.24195134850117
 21
95.499999999999943
 31
0.0
  0
LINE
  5
1F0
  8
1
 62
     7
 10
354.24195134850117
 20
109.4999999999999
 30
0.0
 11
355.89999999999981
 21
109.4999999999999
 31
0.0
  0
LINE
  5
1F1
  8
1
 62
     7
 10
356.19999999999982
 20
94.999999999999957
 30
0.0
 11
356.99999999999977
 21
94.999999999999957
 31
0.0
  0
LINE
  5
1F2
  8
1
 62
     7
 10
356.19999999999982
 20
110.0
 30
0.0
 11
356.19999999999982
 21
94.999999999999957
 31
0.0
  0
LINE
  5
1F3
  8
1
 62
     7
 10
356.99999999999977
 20
110.0
 30
0.0
 11
356.19999999999982
 21
110.0
 31
0.0
  0
LINE
  5
1F4
  8
1
 62
     7
 10
358.19999999999982
 20
-177.0
 30
0.0
 11
358.19999999999982
 21
223.0
 31
0.0
  0
LINE
  5
1F5
  8
1
 62
     7
 10
356.99999999999977
 20
111.0
 30
0.0
 11
358.19999999999982
 21
111.0
 31
0.0
  0
LINE
  5
1F6
  8
1
 62
     3
 10
335.19999999999982
 20
0.0
 30
0.0
 11
340.19999999999982
 21
0.0
 31
0.0
  0
LINE
  5
1F7
  8
1
 62
     7
 10
358.19999999999982
 20
-177.0
 30
0.0
 11
361.19999999999982
 21
-180.0
 31
0.0
  0
LINE
  5
1F8
  8
1
 62
     7
 10
358.19999999999982
 20
177.0
 30
0.0
 11
361.19999999999982
 21
180.0
 31
0.0
  0
LINE
  5
1F9
  8
1
 62
     7
 10
361.19999999999982
 20
-180.0
 30
0.0
 11
387.19999999999982
 21
-180.0
 31
0.0
  0
LINE
  5
1FA
  8
1
 62
     7
 10
420.99999999999977
 20
-190.0
 30
0.0
 11
420.99999999999977
 21
189.99999999999989
 31
0.0
  0
LINE
  5
1FB
  8
1
 62
     7
 10
434.79999999999978
 20
-190.0
 30
0.0
 11
434.79999999999978
 21
189.99999999999989
 31
0.0
  0
LINE
  5
1FC
  8
1
 62
     7
 10
354.99999999999977
 20
148.0
 30
0.0
 11
358.19999999999982
 21
148.0
 31
0.0
  0
LINE
  5
1FD
  8
1
 62
     7
 10
358.19999999999982
 20
223.0
 30
0.0
 11
354.99999999999977
 21
223.0
 31
0.0
  0
LINE
  5
1FE
  8
1
 62
     7
 10
354.99999999999977
 20
223.0
 30
0.0
 11
354.99999999999977
 21
148.0
 31
0.0
  0
LINE
  5
1FF
  8
1
 62
     7
 10
354.99999999999977
 20
154.49999999999989
 30
0.0
 11
347.49999999999977
 21
154.49999999999989
 31
0.0
  0
LINE
  5
200
  8
1
 62
     7
 10
347.49999999999977
 20
154.49999999999989
 30
0.0
 11
346.99999999999977
 21
155.36602540378439
 31
0.0
  0
LINE
  5
201
  8
1
 62
     7
 10
346.99999999999977
 20
155.36602540378439
 30
0.0
 11
346.99999999999977
 21
166.6339745962155
 31
0.0
  0
LINE
  5
202
  8
1
 62
     7
 10
346.99999999999977
 20
166.6339745962155
 30
0.0
 11
347.49999999999977
 21
167.5
 31
0.0
  0
LINE
  5
203
  8
1
 62
     7
 10
347.49999999999977
 20
167.5
 30
0.0
 11
354.99999999999977
 21
167.5
 31
0.0
  0
LINE
  5
204
  8
1
 62
     7
 10
347.49999999999977
 20
154.49999999999989
 30
0.0
 11
347.49999999999977
 21
167.5
 31
0.0
  0
LINE
  5
205
  8
1
 62
     7
 10
375.89999999999981
 20
230.0
 30
0.0
 11
375.89999999999981
 21
180.0
 31
0.0
  0
LINE
  5
206
  8
1
 62
     7
 10
378.49999999999977
 20
230.0
 30
0.0
 11
378.49999999999977
 21
180.0
 31
0.0
  0
LINE
  5
207
  8
1
 62
     7
 10
375.89999999999981
 20
230.0
 30
0.0
 11
378.49999999999977
 21
230.0
 31
0.0
  0
LINE
  5
208
  8
1
 62
     7
 10
377.5999999999998
 20
230.0
 30
0.0
 11
377.5999999999998
 21
235.0
 31
0.0
  0
LINE
  5
209
  8
1
 62
     7
 10
377.39999999999981
 20
230.0
 30
0.0
 11
377.39999999999981
 21
235.0
 31
0.0
  0
LINE
  5
20A
  8
1
 62
     7
 10
377.19999999999982
 20
230.0
 30
0.0
 11
377.19999999999982
 21
235.0
 31
0.0
  0
LINE
  5
20B
  8
1
 62
     7
 10
376.99999999999977
 20
230.0
 30
0.0
 11
376.99999999999977
 21
235.0
 31
0.0
  0
LINE
  5
20C
  8
1
 62
     7
 10
376.79999999999978
 20
230.0
 30
0.0
 11
376.79999999999978
 21
235.0
 31
0.0
  0
LINE
  5
20D
  8
1
 62
     7
 10
356.99999999999977
 20
-50.0
 30
0.0
 11
354.19999999999982
 21
-50.0
 31
0.0
  0
LINE
  5
20E
  8
1
 62
     7
 10
356.99999999999977
 20
-111.0
 30
0.0
 11
356.99999999999977
 21
111.0
 31
0.0
  0
LINE
  5
20F
  8
1
 62
     7
 10
358.19999999999982
 20
-111.0
 30
0.0
 11
356.99999999999977
 21
-111.0
 31
0.0
  0
LINE
  5
210
  8
1
 62
     7
 10
643.00000000000011
 20
216.5
 30
0.0
 11
646.20000000000005
 21
216.5
 31
0.0
  0
LINE
  5
211
  8
1
 62
     7
 10
646.20000000000005
 20
203.5
 30
0.0
 11
643.00000000000011
 21
203.5
 31
0.0
  0
LINE
  5
212
  8
1
  6
DASHDOT
 62
     3
 10
640.00000000000011
 20
210.0
 30
0.0
 11
649.20000000000005
 21
210.0
 31
0.0
  0
LINE
  5
213
  8
1
  6
DASHDOT
 62
     3
 10
351.99999999999977
 20
210.0
 30
0.0
 11
361.19999999999982
 21
210.0
 31
0.0
  0
LINE
  5
214
  8
1
 62
     7
 10
387.19999999999982
 20
180.0
 30
0.0
 11
361.19999999999982
 21
180.0
 31
0.0
  0
LINE
  5
215
  8
1
 62
     7
 10
474.59999999999962
 20
-91.350000000000037
 30
0.0
 11
476.19999999999987
 21
-91.350000000000037
 31
0.0
  0
LINE
  5
216
  8
1
 62
     7
 10
472.39999999999981
 20
52.5
 30
0.0
 11
469.29999999999978
 21
52.5
 31
0.0
  0
LINE
  5
217
  8
1
 62
     3
 10
473.79999999999978
 20
65.100000000000009
 30
0.0
 11
469.29999999999978
 21
65.100000000000009
 31
0.0
  0
LINE
  5
218
  8
1
 62
     3
 10
473.79999999999978
 20
53.899999999999991
 30
0.0
 11
469.29999999999978
 21
53.899999999999991
 31
0.0
  0
LINE
  5
219
  8
1
 62
     7
 10
472.39999999999981
 20
52.5
 30
0.0
 11
472.39999999999981
 21
66.5
 31
0.0
  0
LINE
  5
21A
  8
1
 62
     7
 10
472.39999999999981
 20
66.5
 30
0.0
 11
469.29999999999978
 21
66.5
 31
0.0
  0
LINE
  5
21B
  8
1
 62
     7
 10
473.79999999999978
 20
65.100000000000009
 30
0.0
 11
472.39999999999981
 21
66.5
 31
0.0
  0
LINE
  5
21C
  8
1
 62
     7
 10
473.79999999999978
 20
53.899999999999991
 30
0.0
 11
473.79999999999978
 21
65.100000000000009
 31
0.0
  0
LINE
  5
21D
  8
1
 62
     7
 10
472.39999999999981
 20
52.5
 30
0.0
 11
473.79999999999978
 21
53.899999999999991
 31
0.0
  0
LINE
  5
21E
  8
1
 62
     7
 10
472.39999999999981
 20
-66.5
 30
0.0
 11
469.29999999999978
 21
-66.5
 31
0.0
  0
LINE
  5
21F
  8
1
 62
     3
 10
473.79999999999978
 20
-53.900000000000013
 30
0.0
 11
469.29999999999978
 21
-53.900000000000013
 31
0.0
  0
LINE
  5
220
  8
1
 62
     3
 10
473.79999999999978
 20
-65.099999999999994
 30
0.0
 11
469.29999999999978
 21
-65.099999999999994
 31
0.0
  0
LINE
  5
221
  8
1
 62
     7
 10
472.39999999999981
 20
-66.5
 30
0.0
 11
472.39999999999981
 21
-52.5
 31
0.0
  0
LINE
  5
222
  8
1
 62
     7
 10
472.39999999999981
 20
-52.5
 30
0.0
 11
469.29999999999978
 21
-52.5
 31
0.0
  0
LINE
  5
223
  8
1
 62
     7
 10
473.79999999999978
 20
-53.900000000000013
 30
0.0
 11
472.39999999999981
 21
-52.5
 31
0.0
  0
LINE
  5
224
  8
1
 62
     7
 10
473.79999999999978
 20
-65.099999999999994
 30
0.0
 11
473.79999999999978
 21
-53.900000000000013
 31
0.0
  0
LINE
  5
225
  8
1
 62
     7
 10
472.39999999999981
 20
-66.5
 30
0.0
 11
473.79999999999978
 21
-65.099999999999994
 31
0.0
  0
LINE
  5
226
  8
1
 62
     7
 10
472.39999999999981
 20
-126.0
 30
0.0
 11
469.29999999999978
 21
-126.0
 31
0.0
  0
LINE
  5
227
  8
1
 62
     3
 10
473.79999999999978
 20
-113.40000000000001
 30
0.0
 11
469.29999999999978
 21
-113.40000000000001
 31
0.0
  0
LINE
  5
228
  8
1
 62
     3
 10
473.79999999999978
 20
-124.59999999999999
 30
0.0
 11
469.29999999999978
 21
-124.59999999999999
 31
0.0
  0
LINE
  5
229
  8
1
 62
     7
 10
472.39999999999981
 20
-126.0
 30
0.0
 11
472.39999999999981
 21
-112.0
 31
0.0
  0
LINE
  5
22A
  8
1
 62
     7
 10
472.39999999999981
 20
-112.0
 30
0.0
 11
469.29999999999978
 21
-112.0
 31
0.0
  0
LINE
  5
22B
  8
1
 62
     7
 10
473.79999999999978
 20
-113.40000000000001
 30
0.0
 11
472.39999999999981
 21
-112.0
 31
0.0
  0
LINE
  5
22C
  8
1
 62
     7
 10
473.79999999999978
 20
-124.59999999999999
 30
0.0
 11
473.79999999999978
 21
-113.40000000000001
 31
0.0
  0
LINE
  5
22D
  8
1
 62
     7
 10
472.39999999999981
 20
-126.0
 30
0.0
 11
473.79999999999978
 21
-124.59999999999999
 31
0.0
  0
LINE
  5
22E
  8
1
 62
     7
 10
762.60000000000002
 20
102.0
 30
0.0
 11
762.60000000000002
 21
84.299999999999969
 31
0.0
  0
LINE
  5
22F
  8
1
 62
     7
 10
758.47157287525374
 20
106.1284271247463
 30
0.0
 11
762.60000000000002
 21
102.0
 31
0.0
  0
LINE
  5
230
  8
1
 62
     7
 10
762.60000000000002
 20
-102.0
 30
0.0
 11
762.60000000000002
 21
-84.300000000000026
 31
0.0
  0
LINE
  5
231
  8
1
 62
     7
 10
762.60000000000002
 20
-102.0
 30
0.0
 11
758.47157287525374
 21
-106.1284271247463
 31
0.0
  0
LINE
  5
232
  8
1
 62
     7
 10
474.59999999999962
 20
102.0
 30
0.0
 11
474.59999999999962
 21
0.0
 31
0.0
  0
LINE
  5
233
  8
1
 62
     7
 10
470.47157287525363
 20
106.1284271247461
 30
0.0
 11
474.59999999999962
 21
102.0
 31
0.0
  0
LINE
  5
234
  8
1
 62
     7
 10
469.29999999999978
 20
-128.49999999999989
 30
0.0
 11
469.29999999999978
 21
128.49999999999989
 31
0.0
  0
LINE
  5
235
  8
1
 62
     7
 10
474.59999999999962
 20
0.0
 30
0.0
 11
474.59999999999962
 21
-102.0
 31
0.0
  0
LINE
  5
236
  8
1
 62
     7
 10
474.59999999999962
 20
-102.0
 30
0.0
 11
470.47157287525363
 21
-106.1284271247461
 31
0.0
  0
ARC
  5
237
  8
1
  6
DASHDOT
 62
     3
 10
1106.4174157926479
 20
0.0
 30
0.0
 40
75.000000000000369
 50
349.78342285002708
 51
9.6732176707307964
  0
ARC
  5
238
  8
1
  6
DASHDOT
 62
     3
 10
1106.4174157926479
 20
0.0
 30
0.0
 40
75.000000000000199
 50
304.78342285002731
 51
324.67321767073082
  0
ARC
  5
239
  8
1
  6
DASHDOT
 62
     3
 10
1106.4174157926479
 20
0.0
 30
0.0
 40
74.999999999999915
 50
259.78342285002702
 51
279.67321767073122
  0
ARC
  5
23A
  8
1
  6
DASHDOT
 62
     3
 10
1106.4174157926479
 20
0.0
 30
0.0
 40
74.999999999999758
 50
214.78342285002699
 51
234.67321767073079
  0
ARC
  5
23B
  8
1
  6
DASHDOT
 62
     3
 10
1106.4174157926479
 20
0.0
 30
0.0
 40
75.000000000000369
 50
169.78342285002691
 51
189.67321767073091
  0
ARC
  5
23C
  8
1
  6
DASHDOT
 62
     3
 10
1106.4174157926479
 20
0.0
 30
0.0
 40
75.000000000000242
 50
124.78342285002731
 51
144.67321767073111
  0
ARC
  5
23D
  8
1
  6
DASHDOT
 62
     3
 10
1106.4174157926479
 20
0.0
 30
0.0
 40
74.999999999999844
 50
79.783422850027122
 51
99.673217670731077
  0
ARC
  5
23E
  8
1
  6
DASHDOT
 62
     3
 10
1106.4174157926479
 20
0.0
 30
0.0
 40
74.99999999999973
 50
34.783422850027051
 51
54.673217670730793
  0
ARC
  5
23F
  8
1
 62
     7
 10
1106.4174157908569
 20
-0.0000000021654216
 30
0.0
 40
145.00000000282091
 50
47.176706568596529
 51
72.826621823821441
  0
ARC
  5
240
  8
1
 62
     7
 10
1208.9467423624719
 20
102.5352828162614
 30
0.0
 40
5.5041583442001061
 50
136.11599490859541
 51
313.88733348442457
  0
ARC
  5
241
  8
1
 62
     7
 10
1106.4174157900379
 20
-0.0000000009861196
 30
0.0
 40
145.00000000282111
 50
17.176706568596511
 51
42.826621823821313
  0
ARC
  5
242
  8
1
 62
     7
 10
1246.47805864318
 20
37.533496418186282
 30
0.0
 40
5.5041583442004507
 50
106.115994908594
 51
283.8873334844161
  0
ARC
  5
243
  8
1
 62
     7
 10
1106.417415789917
 20
0.0000000004452829
 30
0.0
 40
145.0000000028206
 50
347.17670656859673
 51
12.82662182382127
  0
ARC
  5
244
  8
1
 62
     7
 10
1246.480238780704
 20
-37.525360034270307
 30
0.0
 40
5.5041583442007473
 50
76.115994908603369
 51
253.8873334844161
  0
ARC
  5
245
  8
1
 62
     7
 10
1106.417415790527
 20
0.000000001745093
 30
0.0
 40
145.00000000282131
 50
317.17670656859661
 51
342.82662182382131
  0
ARC
  5
246
  8
1
 62
     7
 10
1208.952698608955
 20
-102.5293265698692
 30
0.0
 40
5.5041583442007651
 50
46.115994908597749
 51
223.88733348441619
  0
ARC
  5
247
  8
1
 62
     7
 10
1106.4174157917071
 20
0.0000000025652866
 30
0.0
 40
145.00000000282091
 50
287.17670656859639
 51
312.82662182382091
  0
ARC
  5
248
  8
1
 62
     7
 10
1143.95091221088
 20
-140.06064285057701
 30
0.0
 40
5.5041583442007926
 50
16.115994908599419
 51
193.88733348441619
  0
ARC
  5
249
  8
1
 62
     7
 10
1106.4174157931391
 20
0.0000000026859936
 30
0.0
 40
145.0000000028208
 50
257.17670656859661
 51
282.82662182382097
  0
ARC
  5
24A
  8
1
 62
     7
 10
1068.8920557584231
 20
-140.06282298810089
 30
0.0
 40
5.5041583442011532
 50
346.11599490860181
 51
163.88733348441781
  0
ARC
  5
24B
  8
1
 62
     7
 10
1106.417415794439
 20
0.0000000020748985
 30
0.0
 40
145.000000002821
 50
227.17670656859659
 51
252.826621823821
  0
ARC
  5
24C
  8
1
 62
     7
 10
1003.888089222824
 20
-102.5352828163519
 30
0.0
 40
5.504158344200996
 50
316.11599490860289
 51
133.8873334844175
  0
ARC
  5
24D
  8
1
 62
     7
 10
1106.417415795258
 20
0.0000000008956818
 30
0.0
 40
145.00000000282111
 50
197.1767065685965
 51
222.82662182382131
  0
ARC
  5
24E
  8
1
 62
     7
 10
966.35677294211632
 20
-37.533496418276833
 30
0.0
 40
5.5041583442004631
 50
286.11599490860129
 51
103.88733348441571
  0
ARC
  5
24F
  8
1
 62
     7
 10
1106.4174157953801
 20
-0.0000000005357208
 30
0.0
 40
145.00000000282139
 50
167.17670656859659
 51
192.8266218238212
  0
ARC
  5
250
  8
1
 62
     7
 10
966.35459280459247
 20
37.525360034179783
 30
0.0
 40
5.5041583442004862
 50
256.11599490860021
 51
73.88733348441869
  0
ARC
  5
251
  8
1
 62
     7
 10
1106.4174157947671
 20
-0.0000000018356161
 30
0.0
 40
145.0000000028204
 50
137.1767065685963
 51
162.82662182382131
  0
ARC
  5
252
  8
1
 62
     7
 10
1003.88213297634
 20
102.5293265697788
 30
0.0
 40
5.5041583442000572
 50
226.11599490860539
 51
43.887333484412324
  0
ARC
  5
253
  8
1
 62
     7
 10
1106.417415793589
 20
-0.0000000026558098
 30
0.0
 40
145.0000000028208
 50
107.1767065685965
 51
132.8266218238214
  0
ARC
  5
254
  8
1
 62
     7
 10
1068.883919374417
 20
140.06064285048649
 30
0.0
 40
5.5041583442007926
 50
196.1159949085995
 51
13.887333484419401
  0
ARC
  5
255
  8
1
 62
     7
 10
1106.417415792158
 20
-0.0000000027765168
 30
0.0
 40
145.00000000282091
 50
77.176706568596671
 51
102.8266218238216
  0
ARC
  5
256
  8
1
 62
     7
 10
1143.9427758268721
 20
140.0628229880104
 30
0.0
 40
5.5041583442002908
 50
166.11599490859879
 51
343.88733348441912
  0
ARC
  5
257
  8
1
 62
     7
 10
446.49999999999977
 20
-101.0
 30
0.0
 40
6.0
 50
270.0
 51
322.645124285706
  0
ARC
  5
258
  8
1
 62
     7
 10
456.49999999999977
 20
-97.350000000000023
 30
0.0
 40
4.0
 50
90.0
 51
119.9999999999997
  0
ARC
  5
259
  8
1
 62
     7
 10
744.5
 20
97.349999999999966
 30
0.0
 40
5.9999999999998863
 50
180.0
 51
270.0
  0
ARC
  5
25A
  8
1
 62
     7
 10
744.5
 20
97.349999999999966
 30
0.0
 40
3.9999999999998859
 50
180.0
 51
270.0
  0
ARC
  5
25B
  8
1
 62
     7
 10
744.5
 20
-97.350000000000023
 30
0.0
 40
6.0
 50
90.0
 51
180.0
  0
ARC
  5
25C
  8
1
 62
     7
 10
744.5
 20
-97.350000000000023
 30
0.0
 40
4.0
 50
90.0
 51
180.0
  0
ARC
  5
25D
  8
1
 62
     7
 10
734.50000000000011
 20
-101.0
 30
0.0
 40
4.0
 50
270.0
 51
0.0
  0
ARC
  5
25E
  8
1
 62
     7
 10
734.50000000000011
 20
-101.0
 30
0.0
 40
6.0
 50
270.0
 51
0.0
  0
ARC
  5
25F
  8
1
 62
     7
 10
734.50000000000011
 20
101.0
 30
0.0
 40
6.0
 50
0.0
 51
90.0
  0
ARC
  5
260
  8
1
 62
     7
 10
734.50000000000011
 20
101.0
 30
0.0
 40
4.0
 50
0.0
 51
90.0
  0
ARC
  5
261
  8
1
 62
     7
 10
725.79999999999995
 20
129.0
 30
0.0
 40
1.0
 50
0.0
 51
90.0
  0
ARC
  5
262
  8
1
 62
     7
 10
725.79999999999995
 20
185.99999999999989
 30
0.0
 40
1.0
 50
270.0
 51
0.0
  0
ARC
  5
263
  8
1
 62
     7
 10
725.79999999999995
 20
-129.0
 30
0.0
 40
1.0
 50
270.0
 51
0.0
  0
ARC
  5
264
  8
1
 62
     7
 10
725.79999999999995
 20
-186.0
 30
0.0
 40
1.0
 50
0.0
 51
90.0
  0
ARC
  5
265
  8
1
 62
     7
 10
657.00000000000011
 20
-102.5000000000001
 30
0.0
 40
17.999999999999819
 50
163.3984504009791
 51
196.60154959901951
  0
ARC
  5
266
  8
1
 62
     7
 10
657.00000000000011
 20
102.4999999999999
 30
0.0
 40
17.999999999999758
 50
163.3984504009797
 51
196.6015495990203
  0
ARC
  5
267
  8
1
 62
     7
 10
724.82380952380993
 20
-175.0
 30
0.0
 40
5.0761904761903933
 50
279.93948145621528
 51
80.060518543784653
  0
ARC
  5
268
  8
1
 62
     7
 10
724.82380952380993
 20
-145.0
 30
0.0
 40
5.0761904761903933
 50
279.93948145621528
 51
80.060518543784653
  0
ARC
  5
269
  8
1
 62
     7
 10
0.0
 20
0.0
 30
0.0
 40
190.1999999999999
 50
75.820283543358343
 51
85.476708278105534
  0
ARC
  5
26A
  8
1
 62
     7
 10
0.0
 20
0.0
 30
0.0
 40
179.99999999999989
 50
94.780191847199148
 51
85.219808152800866
  0
ARC
  5
26B
  8
1
 62
     7
 10
0.0
 20
0.0
 30
0.0
 40
34.99999999999995
 50
104.9005966878299
 51
75.099403312170111
  0
ARC
  5
26C
  8
1
 62
     7
 10
3.849999999999993
 20
98.650000000000006
 30
0.0
 40
3.2724999999999929
 50
90.0
 51
180.0
  0
ARC
  5
26D
  8
1
 62
     7
 10
3.849999999999993
 20
106.34999999999989
 30
0.0
 40
3.2724999999999782
 50
180.0
 51
270.0
  0
ARC
  5
26E
  8
1
 62
     7
 10
-3.849999999999993
 20
106.34999999999989
 30
0.0
 40
3.2724999999999929
 50
270.0
 51
0.0
  0
ARC
  5
26F
  8
1
 62
     7
 10
-3.849999999999993
 20
98.650000000000006
 30
0.0
 40
3.272500000000008
 50
0.0
 51
90.0
  0
ARC
  5
270
  8
1
 62
     7
 10
-98.649999999999977
 20
3.849999999999993
 30
0.0
 40
3.2725000000000222
 50
180.0
 51
270.0
  0
ARC
  5
271
  8
1
 62
     7
 10
-106.34999999999989
 20
3.849999999999993
 30
0.0
 40
3.272500000000008
 50
270.0
 51
0.0
  0
ARC
  5
272
  8
1
 62
     7
 10
-106.34999999999989
 20
-3.8500000000000232
 30
0.0
 40
3.2725000000000919
 50
0.0
 51
90.0
  0
ARC
  5
273
  8
1
 62
     7
 10
-98.649999999999977
 20
-3.8500000000000232
 30
0.0
 40
3.2725000000001221
 50
90.0
 51
180.0
  0
ARC
  5
274
  8
1
 62
     7
 10
-3.849999999999993
 20
-98.650000000000006
 30
0.0
 40
3.2724999999999929
 50
270.0
 51
0.0
  0
ARC
  5
275
  8
1
 62
     7
 10
-3.849999999999993
 20
-106.34999999999989
 30
0.0
 40
3.272500000000008
 50
0.0
 51
90.0
  0
ARC
  5
276
  8
1
 62
     7
 10
3.849999999999993
 20
-106.34999999999989
 30
0.0
 40
3.2724999999999929
 50
90.0
 51
180.0
  0
ARC
  5
277
  8
1
 62
     7
 10
3.849999999999993
 20
-98.650000000000006
 30
0.0
 40
3.2725000000000919
 50
180.0
 51
270.0
  0
ARC
  5
278
  8
1
 62
     7
 10
98.650000000000006
 20
-3.8500000000000232
 30
0.0
 40
3.2724999999999929
 50
0.0
 51
90.0
  0
ARC
  5
279
  8
1
 62
     7
 10
106.34999999999989
 20
-3.8500000000000232
 30
0.0
 40
3.272500000000008
 50
90.0
 51
180.0
  0
ARC
  5
27A
  8
1
 62
     7
 10
106.34999999999989
 20
3.849999999999993
 30
0.0
 40
3.2724999999999929
 50
180.0
 51
270.0
  0
ARC
  5
27B
  8
1
 62
     7
 10
98.650000000000006
 20
3.849999999999993
 30
0.0
 40
3.272500000000008
 50
270.0
 51
0.0
  0
ARC
  5
27C
  8
1
 62
     7
 10
0.0
 20
2.474999999999993
 30
0.0
 40
54.774999999999991
 50
293.35688637122331
 51
246.6431136287766
  0
ARC
  5
27D
  8
1
 62
     7
 10
0.0
 20
0.0
 30
0.0
 40
190.1999999999999
 50
94.523291721894424
 51
74.253788298976005
  0
ARC
  5
27E
  8
1
 62
     7
 10
456.49999999999977
 20
97.349999999999966
 30
0.0
 40
4.000000000000008
 50
240.0
 51
270.0
  0
ARC
  5
27F
  8
1
 62
     7
 10
446.49999999999977
 20
101.0
 30
0.0
 40
5.9999999999999591
 50
25.975814822508749
 51
90.0
  0
ARC
  5
280
  8
1
 62
     7
 10
437.79999999999978
 20
185.99999999999989
 30
0.0
 40
1.0
 50
270.0
 51
0.0
  0
ARC
  5
281
  8
1
 62
     7
 10
437.79999999999978
 20
-186.0
 30
0.0
 40
1.0
 50
0.0
 51
90.0
  0
ARC
  5
282
  8
1
 62
     7
 10
368.99999999999977
 20
-102.5000000000001
 30
0.0
 40
18.000000000000039
 50
163.3984504009793
 51
196.60154959901931
  0
ARC
  5
283
  8
1
 62
     7
 10
368.99999999999977
 20
102.4999999999999
 30
0.0
 40
17.999999999999979
 50
163.3984504009799
 51
196.60154959902019
  0
ARC
  5
284
  8
1
 62
     7
 10
455.29999999999978
 20
-104.4999999999999
 30
0.0
 40
3.0
 50
270.0
 51
0.0
  0
ARC
  5
285
  8
1
 62
     7
 10
455.29999999999978
 20
-44.999999999999908
 30
0.0
 40
3.0
 50
270.0
 51
0.0
  0
ARC
  5
286
  8
1
 62
     7
 10
455.29999999999978
 20
44.999999999999858
 30
0.0
 40
3.0
 50
0.0
 51
90.0
  0
ARC
  5
287
  8
1
 62
     7
 10
455.29999999999978
 20
-74.000000000000099
 30
0.0
 40
3.0
 50
0.0
 51
90.0
  0
ARC
  5
288
  8
1
 62
     7
 10
455.29999999999978
 20
74.000000000000043
 30
0.0
 40
3.0
 50
270.0
 51
0.0
  0
ARC
  5
289
  8
1
 62
     7
 10
455.29999999999978
 20
104.4999999999999
 30
0.0
 40
3.0
 50
0.0
 51
90.0
  0
ARC
  5
28A
  8
1
 62
     7
 10
743.29999999999995
 20
104.4999999999999
 30
0.0
 40
3.0
 50
0.0
 51
90.0
  0
ARC
  5
28B
  8
1
 62
     7
 10
748.29999999999995
 20
-96.0
 30
0.0
 40
2.0
 50
270.0
 51
0.0
  0
ARC
  5
28C
  8
1
 62
     7
 10
748.29999999999995
 20
95.999999999999957
 30
0.0
 40
2.0
 50
0.0
 51
90.0
  0
ARC
  5
28D
  8
1
 62
     7
 10
731.70000000000005
 20
104.89999999999969
 30
0.0
 40
2.0
 50
180.0
 51
270.0
  0
ARC
  5
28E
  8
1
 62
     7
 10
729.79999999999995
 20
102.9999999999997
 30
0.0
 40
3.0
 50
180.0
 51
270.0
  0
ARC
  5
28F
  8
1
 62
     7
 10
725.29999999999995
 20
132.49999999999989
 30
0.0
 40
2.5
 50
180.0
 51
270.0
  0
ARC
  5
290
  8
1
 62
     7
 10
731.70000000000005
 20
185.09999999999991
 30
0.0
 40
2.0
 50
90.0
 51
180.0
  0
ARC
  5
291
  8
1
 62
     7
 10
729.79999999999995
 20
186.99999999999989
 30
0.0
 40
3.0
 50
90.0
 51
180.0
  0
ARC
  5
292
  8
1
 62
     7
 10
725.29999999999995
 20
182.49999999999989
 30
0.0
 40
2.5
 50
90.0
 51
180.0
  0
ARC
  5
293
  8
1
 62
     7
 10
727.20000000000016
 20
-130.40000000000001
 30
0.0
 40
2.5
 50
270.0
 51
0.0
  0
ARC
  5
294
  8
1
 62
     7
 10
726.70000000000016
 20
-133.90000000000001
 30
0.0
 40
1.0
 50
90.0
 51
180.0
  0
ARC
  5
295
  8
1
 62
     7
 10
731.70000000000005
 20
-104.89999999999991
 30
0.0
 40
2.0
 50
90.0
 51
180.0
  0
ARC
  5
296
  8
1
 62
     7
 10
729.79999999999995
 20
-102.9999999999998
 30
0.0
 40
2.9999999999999858
 50
90.0
 51
180.0
  0
ARC
  5
297
  8
1
 62
     7
 10
725.29999999999995
 20
-132.5
 30
0.0
 40
2.5
 50
90.0
 51
180.0
  0
ARC
  5
298
  8
1
 62
     7
 10
727.20000000000016
 20
-184.59999999999999
 30
0.0
 40
2.5
 50
0.0
 51
90.0
  0
ARC
  5
299
  8
1
 62
     7
 10
726.70000000000016
 20
-181.09999999999991
 30
0.0
 40
1.0
 50
180.0
 51
270.0
  0
ARC
  5
29A
  8
1
 62
     7
 10
731.70000000000005
 20
-185.09999999999991
 30
0.0
 40
2.0
 50
180.0
 51
270.0
  0
ARC
  5
29B
  8
1
 62
     7
 10
729.79999999999995
 20
-187.0
 30
0.0
 40
3.0
 50
180.0
 51
270.0
  0
ARC
  5
29C
  8
1
 62
     7
 10
725.29999999999995
 20
-182.5
 30
0.0
 40
2.5
 50
180.0
 51
270.0
  0
ARC
  5
29D
  8
1
 62
     7
 10
643.89999999999986
 20
-95.799999999999926
 30
0.0
 40
0.3000000000001819
 50
0.0
 51
90.0
  0
ARC
  5
29E
  8
1
 62
     7
 10
643.89999999999986
 20
-109.1999999999998
 30
0.0
 40
0.3000000000001961
 50
270.0
 51
0.0
  0
ARC
  5
29F
  8
1
 62
     7
 10
642.24195134850106
 20
-98.100000000000023
 30
0.0
 40
2.5999999999999091
 50
90.0
 51
163.39845040097379
  0
ARC
  5
2A0
  8
1
 62
     7
 10
642.24195134850106
 20
-106.90000000000001
 30
0.0
 40
2.5999999999994201
 50
196.6015495990205
 51
270.0
  0
ARC
  5
2A1
  8
1
 62
     7
 10
643.89999999999986
 20
95.799999999999926
 30
0.0
 40
0.2999999999999545
 50
270.0
 51
0.0
  0
ARC
  5
2A2
  8
1
 62
     7
 10
643.89999999999986
 20
109.2
 30
0.0
 40
0.3000000000001819
 50
0.0
 51
90.0
  0
ARC
  5
2A3
  8
1
 62
     7
 10
642.24195134850106
 20
98.099999999999994
 30
0.0
 40
2.5999999999993428
 50
196.6015495990236
 51
270.0
  0
ARC
  5
2A4
  8
1
 62
     7
 10
642.24195134850106
 20
106.89999999999991
 30
0.0
 40
2.6000000000000938
 50
90.0
 51
163.39845040097441
  0
ARC
  5
2A5
  8
1
 62
     7
 10
1118.4174157926479
 20
220.0
 30
0.0
 40
3.0
 50
0.0
 51
90.0
  0
ARC
  5
2A6
  8
1
 62
     7
 10
1094.4174157926479
 20
220.0
 30
0.0
 40
3.0
 50
90.0
 51
180.0
  0
ARC
  5
2A7
  8
1
 62
     7
 10
-20.0
 20
173.0
 30
0.0
 40
5.0
 50
270.0
 51
0.0
  0
ARC
  5
2A8
  8
1
 62
     7
 10
-20.0
 20
163.0
 30
0.0
 40
5.0
 50
90.0
 51
180.0
  0
ARC
  5
2A9
  8
1
 62
     7
 10
20.0
 20
163.0
 30
0.0
 40
5.0
 50
0.0
 51
90.0
  0
ARC
  5
2AA
  8
1
 62
     7
 10
20.0
 20
173.0
 30
0.0
 40
5.0
 50
180.0
 51
270.0
  0
ARC
  5
2AB
  8
1
 62
     7
 10
12.0
 20
220.0
 30
0.0
 40
3.0
 50
0.0
 51
90.0
  0
ARC
  5
2AC
  8
1
 62
     7
 10
-12.0
 20
220.0
 30
0.0
 40
3.0
 50
90.0
 51
180.0
  0
ARC
  5
2AD
  8
1
 62
     7
 10
16.0
 20
-53.739794855663597
 30
0.0
 40
3.0
 50
270.0
 51
0.0
  0
ARC
  5
2AE
  8
1
 62
     7
 10
-16.0
 20
-53.739794855663597
 30
0.0
 40
3.0
 50
180.0
 51
270.0
  0
ARC
  5
2AF
  8
1
 62
     7
 10
23.5
 20
-51.942603999073718
 30
0.0
 40
4.5000000000000533
 50
113.3568863712231
 51
180.0
  0
ARC
  5
2B0
  8
1
 62
     7
 10
-23.5
 20
-51.942603999073718
 30
0.0
 40
4.5
 50
0.0
 51
66.64311362877703
  0
ARC
  5
2B1
  8
1
 62
     7
 10
441.79999999999978
 20
186.99999999999989
 30
0.0
 40
3.0
 50
90.0
 51
180.0
  0
ARC
  5
2B2
  8
1
 62
     7
 10
437.29999999999978
 20
182.49999999999989
 30
0.0
 40
2.5
 50
90.0
 51
180.0
  0
ARC
  5
2B3
  8
1
 62
     7
 10
441.79999999999978
 20
-187.0
 30
0.0
 40
3.0
 50
180.0
 51
270.0
  0
ARC
  5
2B4
  8
1
 62
     7
 10
437.29999999999978
 20
-182.5
 30
0.0
 40
2.5
 50
180.0
 51
270.0
  0
ARC
  5
2B5
  8
1
 62
     7
 10
355.89999999999981
 20
-95.799999999999926
 30
0.0
 40
0.2999999999999545
 50
0.0
 51
90.0
  0
ARC
  5
2B6
  8
1
 62
     7
 10
355.89999999999981
 20
-109.1999999999998
 30
0.0
 40
0.3000000000001961
 50
270.0
 51
0.0
  0
ARC
  5
2B7
  8
1
 62
     7
 10
354.24195134850117
 20
-98.100000000000023
 30
0.0
 40
2.5999999999999091
 50
90.0
 51
163.39845040097819
  0
ARC
  5
2B8
  8
1
 62
     7
 10
354.24195134850117
 20
-106.90000000000001
 30
0.0
 40
2.6000000000000729
 50
196.6015495990161
 51
270.0
  0
ARC
  5
2B9
  8
1
 62
     7
 10
355.89999999999981
 20
95.799999999999926
 30
0.0
 40
0.2999999999999545
 50
270.0
 51
0.0
  0
ARC
  5
2BA
  8
1
 62
     7
 10
355.89999999999981
 20
109.2
 30
0.0
 40
0.2999999999999545
 50
0.0
 51
90.0
  0
ARC
  5
2BB
  8
1
 62
     7
 10
354.24195134850117
 20
98.099999999999994
 30
0.0
 40
2.6000000000000001
 50
196.60154959901971
 51
270.0
  0
ARC
  5
2BC
  8
1
 62
     7
 10
354.24195134850117
 20
106.89999999999991
 30
0.0
 40
2.6000000000000938
 50
90.0
 51
163.3984504009789
  0
CIRCLE
  5
2BD
  8
1
 62
     7
 10
1106.4174157926479
 20
0.0
 30
0.0
 40
55.0
  0
CIRCLE
  5
2BE
  8
1
  6
DASHDOT
 62
     3
 10
1106.4174157926479
 20
0.0
 30
0.0
 40
87.403937709240154
  0
CIRCLE
  5
2BF
  8
1
 62
     7
 10
1106.4174157926479
 20
0.0
 30
0.0
 40
190.0
  0
CIRCLE
  5
2C0
  8
1
 62
     7
 10
1106.4174157926479
 20
0.0
 30
0.0
 40
187.09999999999999
  0
CIRCLE
  5
2C1
  8
1
 62
     7
 10
1106.4174157926479
 20
0.0
 30
0.0
 40
130.49999999999989
  0
CIRCLE
  5
2C2
  8
1
 62
     7
 10
1106.4174157926479
 20
0.0
 30
0.0
 40
105.0
  0
CIRCLE
  5
2C3
  8
1
 62
     7
 10
1106.4174157926479
 20
0.0
 30
0.0
 40
91.350000000000136
  0
CIRCLE
  5
2C4
  8
1
 62
     7
 10
1106.4174157926479
 20
0.0
 30
0.0
 40
84.299999999999955
  0
CIRCLE
  5
2C5
  8
1
 62
     7
 10
1106.4174157926479
 20
0.0
 30
0.0
 40
62.5
  0
CIRCLE
  5
2C6
  8
1
 62
     7
 10
1106.4174157926479
 20
0.0
 30
0.0
 40
42.5
  0
CIRCLE
  5
2C7
  8
1
 62
     7
 10
1106.4174157926479
 20
0.0
 30
0.0
 40
35.25
  0
CIRCLE
  5
2C8
  8
1
 62
     7
 10
665.20000000000005
 20
-70.000000000000099
 30
0.0
 40
12.0
  0
CIRCLE
  5
2C9
  8
1
 62
     7
 10
665.20000000000005
 20
69.999999999999972
 30
0.0
 40
12.0
  0
CIRCLE
  5
2CA
  8
1
 62
     7
 10
1106.4174157926479
 20
210.0
 30
0.0
 40
6.500000000001136
  0
CIRCLE
  5
2CB
  8
1
 62
     7
 10
1159.45042438164
 20
53.033008588991059
 30
0.0
 40
4.7999999999999554
  0
CIRCLE
  5
2CC
  8
1
 62
     3
 10
1159.45042438164
 20
53.033008588991059
 30
0.0
 40
6.0
  0
CIRCLE
  5
2CD
  8
1
 62
     7
 10
1053.384407203657
 20
53.033008588991059
 30
0.0
 40
4.7999999999999554
  0
CIRCLE
  5
2CE
  8
1
 62
     3
 10
1053.384407203657
 20
53.033008588991059
 30
0.0
 40
6.0
  0
CIRCLE
  5
2CF
  8
1
 62
     7
 10
1053.384407203657
 20
-53.033008588991109
 30
0.0
 40
4.7999999999999554
  0
CIRCLE
  5
2D0
  8
1
 62
     3
 10
1053.384407203657
 20
-53.033008588991109
 30
0.0
 40
6.0
  0
CIRCLE
  5
2D1
  8
1
 62
     7
 10
1159.45042438164
 20
-53.033008588991109
 30
0.0
 40
4.7999999999999554
  0
CIRCLE
  5
2D2
  8
1
 62
     3
 10
1159.45042438164
 20
-53.033008588991109
 30
0.0
 40
6.0
  0
CIRCLE
  5
2D3
  8
1
 62
     7
 10
1106.4174157926479
 20
75.0
 30
0.0
 40
6.5
  0
CIRCLE
  5
2D4
  8
1
 62
     7
 10
1031.4174157926479
 20
0.0
 30
0.0
 40
6.5
  0
CIRCLE
  5
2D5
  8
1
 62
     7
 10
1106.4174157926479
 20
-74.999999999999915
 30
0.0
 40
6.500000000001136
  0
CIRCLE
  5
2D6
  8
1
 62
     7
 10
1181.4174157926479
 20
0.0
 30
0.0
 40
6.5
  0
CIRCLE
  5
2D7
  8
1
 62
     7
 10
1106.4174157926479
 20
119.0
 30
0.0
 40
5.600000000001045
  0
CIRCLE
  5
2D8
  8
1
 62
     3
 10
1106.4174157926479
 20
119.0
 30
0.0
 40
7.0
  0
CIRCLE
  5
2D9
  8
1
 62
     7
 10
1003.3603927423
 20
59.5
 30
0.0
 40
5.6000000000000227
  0
CIRCLE
  5
2DA
  8
1
 62
     3
 10
1003.3603927423
 20
59.5
 30
0.0
 40
7.0
  0
CIRCLE
  5
2DB
  8
1
 62
     7
 10
1003.3603927423
 20
-59.5
 30
0.0
 40
5.6000000000000227
  0
CIRCLE
  5
2DC
  8
1
 62
     3
 10
1003.3603927423
 20
-59.5
 30
0.0
 40
7.0
  0
CIRCLE
  5
2DD
  8
1
 62
     7
 10
1106.4174157926479
 20
-119.0
 30
0.0
 40
5.600000000001045
  0
CIRCLE
  5
2DE
  8
1
 62
     3
 10
1106.4174157926479
 20
-119.0
 30
0.0
 40
7.0
  0
CIRCLE
  5
2DF
  8
1
 62
     7
 10
1209.4744388429961
 20
-59.5
 30
0.0
 40
5.6000000000001373
  0
CIRCLE
  5
2E0
  8
1
 62
     3
 10
1209.4744388429961
 20
-59.5
 30
0.0
 40
7.0
  0
CIRCLE
  5
2E1
  8
1
 62
     7
 10
1209.4744388429961
 20
59.5
 30
0.0
 40
5.6000000000001373
  0
CIRCLE
  5
2E2
  8
1
 62
     3
 10
1209.4744388429961
 20
59.5
 30
0.0
 40
7.0
  0
CIRCLE
  5
2E3
  8
1
 62
     7
 10
0.0
 20
0.0
 30
0.0
 40
111.0
  0
CIRCLE
  5
2E4
  8
1
 62
     7
 10
0.0
 20
0.0
 30
0.0
 40
115.0
  0
CIRCLE
  5
2E5
  8
1
 62
     7
 10
0.0
 20
210.0
 30
0.0
 40
6.5
  0
CIRCLE
  5
2E6
  8
1
 62
     7
 10
17.5
 20
161.0
 30
0.0
 40
6.5
  0
CIRCLE
  5
2E7
  8
1
 62
     7
 10
-17.5
 20
161.0
 30
0.0
 40
6.5
  0
CIRCLE
  5
2E8
  8
1
 62
     7
 10
0.0
 20
102.4999999999999
 30
0.0
 40
7.0
  0
CIRCLE
  5
2E9
  8
1
 62
     7
 10
-102.4999999999999
 20
0.0
 30
0.0
 40
7.0
  0
CIRCLE
  5
2EA
  8
1
 62
     7
 10
0.0
 20
-102.4999999999999
 30
0.0
 40
7.0
  0
CIRCLE
  5
2EB
  8
1
 62
     7
 10
102.4999999999999
 20
0.0
 30
0.0
 40
7.0
  0
CIRCLE
  5
2EC
  8
1
 62
     7
 10
0.0
 20
0.0
 30
0.0
 40
79.999999999999972
  0
CIRCLE
  5
2ED
  8
1
 62
     7
 10
0.0
 20
0.0
 30
0.0
 40
50.0
  0
CIRCLE
  5
2EE
  8
1
 62
     7
 10
14.5
 20
-52.864794855663597
 30
0.0
 40
1.5
  0
CIRCLE
  5
2EF
  8
1
 62
     7
 10
-14.5
 20
-52.864794855663597
 30
0.0
 40
1.5
  0
ARC
  5
2F0
  8
1
 62
     7
 10
761.29999999999995
 20
108.95685424949249
 30
0.0
 40
4.0
 50
180.0
 51
224.99999999999989
  0
ARC
  5
2F1
  8
1
 62
     7
 10
761.29999999999995
 20
-108.95685424949249
 30
0.0
 40
4.0000000000000222
 50
135.0000000000002
 51
180.0
  0
ARC
  5
2F2
  8
1
 62
     7
 10
473.29999999999978
 20
108.9568542494923
 30
0.0
 40
4.0
 50
180.0
 51
225.0000000000004
  0
ARC
  5
2F3
  8
1
 62
     7
 10
473.29999999999978
 20
-108.9568542494923
 30
0.0
 40
3.9999999999999818
 50
134.9999999999996
 51
180.0
  0
TEXT
  5
2F5
  8
1
 62
     7
 10
-178.71940171927139
 20
311.45497114668001
 30
0.0
 40
18.0
  1
MSC 100T
 41
0.9
  7
SIMPLEX
 72
     1
 11
-119.3194017192714
 21
311.45497114668001
 31
0.0
  0
ENDSEC
  0
EOF
