  0
SECTION
  2
HEADER
  9
$ACADVER
  1
AC1009
  9
$INSBASE
 10
0.0
 20
0.0
 30
0.0
  9
$EXTMIN
 10
-1727.5445185503311
 20
-878.14118204001636
 30
0.0
  9
$EXTMAX
 10
-1034.75765473865
 20
-633.20359836192119
 30
0.0
  9
$LIMMIN
 10
-1715.77844502887
 20
-877.63052846651078
  9
$LIMMAX
 10
-1034.75765473865
 20
-633.20359836192119
  9
$ORTHOMODE
 70
     0
  9
$REGENMODE
 70
     1
  9
$FILLMODE
 70
     1
  9
$QTEXTMODE
 70
     0
  9
$MIRRTEXT
 70
     1
  9
$DRAGMODE
 70
     2
  9
$LTSCALE
 40
1.0
  9
$OSMODE
 70
    37
  9
$ATTMODE
 70
     1
  9
$TEXTSIZE
 40
3.5
  9
$TRACEWID
 40
0.5
  9
$TEXTSTYLE
  7
STANDARD
  9
$CLAYER
  8
0
  9
$CELTYPE
  6
BYLAYER
  9
$CECOLOR
 62
   256
  9
$DIMSCALE
 40
1.0
  9
$DIMASZ
 40
0.18
  9
$DIMEXO
 40
0.0625
  9
$DIMDLI
 40
0.38
  9
$DIMRND
 40
0.0
  9
$DIMDLE
 40
0.0
  9
$DIMEXE
 40
0.18
  9
$DIMTP
 40
0.0
  9
$DIMTM
 40
0.0
  9
$DIMTXT
 40
0.18
  9
$DIMCEN
 40
0.09
  9
$DIMTSZ
 40
0.0
  9
$DIMTOL
 70
     0
  9
$DIMLIM
 70
     0
  9
$DIMTIH
 70
     1
  9
$DIMTOH
 70
     1
  9
$DIMSE1
 70
     0
  9
$DIMSE2
 70
     0
  9
$DIMTAD
 70
     0
  9
$DIMZIN
 70
     0
  9
$DIMBLK
  1

  9
$DIMASO
 70
     1
  9
$DIMSHO
 70
     1
  9
$DIMPOST
  1

  9
$DIMAPOST
  1

  9
$DIMALT
 70
     0
  9
$DIMALTD
 70
     2
  9
$DIMALTF
 40
25.399999999999999
  9
$DIMLFAC
 40
1.0
  9
$DIMTOFL
 70
     0
  9
$DIMTVP
 40
0.0
  9
$DIMTIX
 70
     0
  9
$DIMSOXD
 70
     0
  9
$DIMSAH
 70
     0
  9
$DIMBLK1
  1

  9
$DIMBLK2
  1

  9
$DIMSTYLE
  2
STANDARD
  9
$DIMCLRD
 70
     0
  9
$DIMCLRE
 70
     0
  9
$DIMCLRT
 70
     0
  9
$DIMTFAC
 40
1.0
  9
$DIMGAP
 40
0.09
  9
$LUNITS
 70
     2
  9
$LUPREC
 70
     4
  9
$SKETCHINC
 40
0.1
  9
$FILLETRAD
 40
2.0
  9
$AUNITS
 70
     0
  9
$AUPREC
 70
     0
  9
$MENU
  1
ACAD
  9
$ELEVATION
 40
0.0
  9
$PELEVATION
 40
0.0
  9
$THICKNESS
 40
0.0
  9
$LIMCHECK
 70
     0
  9
$BLIPMODE
 70
     0
  9
$CHAMFERA
 40
0.0
  9
$CHAMFERB
 40
0.0
  9
$SKPOLY
 70
     0
  9
$TDCREATE
 40
2452094.5444005788
  9
$TDUPDATE
 40
2452094.5460871528
  9
$TDINDWG
 40
0.0016902778
  9
$TDUSRTIMER
 40
0.0016902778
  9
$USRTIMER
 70
     1
  9
$ANGBASE
 50
0.0
  9
$ANGDIR
 70
     0
  9
$PDMODE
 70
     0
  9
$PDSIZE
 40
0.0
  9
$PLINEWID
 40
0.0
  9
$COORDS
 70
     1
  9
$SPLFRAME
 70
     0
  9
$SPLINETYPE
 70
     6
  9
$SPLINESEGS
 70
     8
  9
$ATTDIA
 70
     0
  9
$ATTREQ
 70
     1
  9
$HANDLING
 70
 10241
  9
$HANDSEED
  5
269
  9
$SURFTAB1
 70
     6
  9
$SURFTAB2
 70
     6
  9
$SURFTYPE
 70
     6
  9
$SURFU
 70
     6
  9
$SURFV
 70
     6
  9
$UCSNAME
  2

  9
$UCSORG
 10
0.0
 20
0.0
 30
0.0
  9
$UCSXDIR
 10
1.0
 20
0.0
 30
0.0
  9
$UCSYDIR
 10
0.0
 20
1.0
 30
0.0
  9
$PUCSNAME
  2

  9
$PUCSORG
 10
0.0
 20
0.0
 30
0.0
  9
$PUCSXDIR
 10
1.0
 20
0.0
 30
0.0
  9
$PUCSYDIR
 10
0.0
 20
1.0
 30
0.0
  9
$USERI1
 70
     0
  9
$USERI2
 70
     0
  9
$USERI3
 70
     0
  9
$USERI4
 70
     0
  9
$USERI5
 70
     0
  9
$USERR1
 40
0.0
  9
$USERR2
 40
0.0
  9
$USERR3
 40
0.0
  9
$USERR4
 40
0.0
  9
$USERR5
 40
0.0
  9
$WORLDVIEW
 70
     1
  9
$SHADEDGE
 70
     3
  9
$SHADEDIF
 70
    70
  9
$TILEMODE
 70
     1
  9
$MAXACTVP
 70
    64
  9
$PLIMCHECK
 70
     0
  9
$PEXTMIN
 10
1.0000000000000000E+020
 20
1.0000000000000000E+020
 30
1.0000000000000000E+020
  9
$PEXTMAX
 10
-1.0000000000000000E+020
 20
-1.0000000000000000E+020
 30
-1.0000000000000000E+020
  9
$PLIMMIN
 10
0.0
 20
0.0
  9
$PLIMMAX
 10
12.0
 20
9.0
  9
$UNITMODE
 70
     0
  9
$VISRETAIN
 70
     1
  9
$PLINEGEN
 70
     0
  9
$PSLTSCALE
 70
     1
  0
ENDSEC
  0
SECTION
  2
TABLES
  0
TABLE
  2
VPORT
 70
     2
  0
VPORT
  2
*ACTIVE
 70
     0
 10
0.0
 20
0.0
 11
1.0
 21
1.0
 12
-1706.2967838799909
 22
-656.09471700927224
 13
0.0
 23
0.0
 14
1.0
 24
1.0
 15
0.0
 25
0.0
 16
0.0
 26
0.0
 36
1.0
 17
0.0
 27
0.0
 37
0.0
 40
9.0000000877814728
 41
2.5693779904306222
 42
50.0
 43
0.0
 44
0.0
 50
0.0
 51
0.0
 71
     0
 72
   100
 73
     1
 74
     1
 75
     0
 76
     0
 77
     0
 78
     0
  0
ENDTAB
  0
TABLE
  2
LTYPE
 70
     9
  0
LTYPE
  2
CONTINUOUS
 70
     0
  3
Solid line
 72
    65
 73
     0
 40
0.0
  0
LTYPE
  2
BORDER
 70
     0
  3
__ __ . __ __ .
 72
    65
 73
     6
 40
31.362799552839078
 49
8.9607998722397362
 49
-4.4803999361198681
 49
8.9607998722397362
 49
-4.4803999361198681
 49
0.0
 49
-4.4803999361198681
  0
LTYPE
  2
CENTER
 70
     0
  3
____ _ ____ _
 72
    65
 73
     4
 40
35.843199488958952
 49
22.401999680599339
 49
-4.4803999361198681
 49
4.4803999361198681
 49
-4.4803999361198681
  0
LTYPE
  2
DASHDOT
 70
     0
  3
__ . __ . __ .
 72
    65
 73
     4
 40
17.921599744479469
 49
8.9607998722397362
 49
-4.4803999361198681
 49
0.0
 49
-4.4803999361198681
  0
LTYPE
  2
DASHED
 70
     0
  3
__ __ __ __ __
 72
    65
 73
     2
 40
13.441199808359601
 49
8.9607998722397362
 49
-4.4803999361198681
  0
LTYPE
  2
DIVIDE
 70
     0
  3
__ . . __ . . 
 72
    65
 73
     6
 40
22.401999680599339
 49
8.9607998722397362
 49
-4.4803999361198681
 49
0.0
 49
-4.4803999361198681
 49
0.0
 49
-4.4803999361198681
  0
LTYPE
  2
DOT
 70
     0
  3
..............
 72
    65
 73
     4
 40
8.9607998722397362
 49
0.0
 49
-4.4803999361198681
 49
0.0
 49
-4.4803999361198681
  0
LTYPE
  2
HIDDEN
 70
     0
  3
_ _ _ _ _ _ _
 72
    65
 73
     2
 40
6.720599904179803
 49
4.4803999361198681
 49
-2.240199968059934
  0
LTYPE
  2
PHANTOM
 70
     0
  3
_____ _ _ _____ _ _ 
 72
    65
 73
     6
 40
44.803999361198677
 49
22.401999680599339
 49
-4.4803999361198681
 49
4.4803999361198681
 49
-4.4803999361198681
 49
4.4803999361198681
 49
-4.4803999361198681
  0
ENDTAB
  0
TABLE
  2
LAYER
 70
     2
  0
LAYER
  2
0
 70
     0
 62
     7
  6
CONTINUOUS
  0
LAYER
  2
1
 70
     0
 62
     7
  6
CONTINUOUS
  0
ENDTAB
  0
TABLE
  2
STYLE
 70
     4
  0
STYLE
  2
STANDARD
 70
     0
 40
0.0
 41
1.0
 50
0.0
 71
     0
 42
3.5
  3
txt
  4

  0
STYLE
  2
SIMPLEX
 70
     0
 40
0.0
 41
1.0
 50
0.0
 71
     0
 42
3.5
  3
simplex
  4

  0
STYLE
  2
COMPLEX
 70
     0
 40
0.0
 41
1.0
 50
0.0
 71
     0
 42
3.5
  3
complex
  4

  0
STYLE
  2
ITALIC
 70
     0
 40
0.0
 41
1.0
 50
0.0
 71
     0
 42
3.5
  3
italic
  4

  0
ENDTAB
  0
TABLE
  2
VIEW
 70
     0
  0
ENDTAB
  0
TABLE
  2
UCS
 70
     0
  0
ENDTAB
  0
TABLE
  2
APPID
 70
     1
  0
APPID
  2
ACAD
 70
     0
  0
ENDTAB
  0
TABLE
  2
DIMSTYLE
 70
     1
  0
DIMSTYLE
  2
STANDARD
 70
     0
  3

  4

  5

  6

  7

 40
1.0
 41
0.18
 42
0.0625
 43
0.38
 44
0.18
 45
0.0
 46
0.0
 47
0.0
 48
0.0
140
0.18
141
0.09
142
0.0
143
25.399999999999999
144
1.0
145
0.0
146
1.0
147
0.09
 71
     0
 72
     0
 73
     1
 74
     1
 75
     0
 76
     0
 77
     0
 78
     0
170
     0
171
     2
172
     0
173
     0
174
     0
175
     0
176
     0
177
     0
178
     0
  0
ENDTAB
  0
ENDSEC
  0
SECTION
  2
BLOCKS
  0
BLOCK
  8
0
  2
$MODEL_SPACE
 70
     0
 10
0.0
 20
0.0
 30
0.0
  3
$MODEL_SPACE
  1

  0
ENDBLK
  5
20
  8
0
  0
BLOCK
 67
     1
  8
0
  2
$PAPER_SPACE
 70
     0
 10
0.0
 20
0.0
 30
0.0
  3
$PAPER_SPACE
  1

  0
ENDBLK
  5
1C
 67
     1
  8
0
  0
ENDSEC
  0
SECTION
  2
ENTITIES
  0
LINE
  5
33
  8
1
 62
     7
 10
-1635.8163024483481
 20
-710.13052846651055
 30
0.0
 11
-1635.8163024483481
 21
-688.13052846651055
 31
0.0
  0
LINE
  5
34
  8
1
 62
     7
 10
-1469.4814736164401
 20
-682.63052846651067
 30
0.0
 11
-1467.1814736164399
 21
-682.63052846651067
 31
0.0
  0
LINE
  5
35
  8
1
 62
     7
 10
-1467.1814736164399
 20
-682.63052846651067
 30
0.0
 11
-1467.1814736164399
 21
-707.63052846651067
 31
0.0
  0
LINE
  5
36
  8
1
 62
     7
 10
-1469.4814736164401
 20
-682.63052846651067
 30
0.0
 11
-1469.4814736164401
 21
-707.63052846651067
 31
0.0
  0
LINE
  5
37
  8
1
 62
     7
 10
-1467.5314736164401
 20
-678.63052846651067
 30
0.0
 11
-1467.5314736164401
 21
-682.63052846651067
 31
0.0
  0
LINE
  5
38
  8
1
 62
     7
 10
-1467.9314736164399
 20
-678.63052846651067
 30
0.0
 11
-1467.9314736164399
 21
-682.63052846651067
 31
0.0
  0
LINE
  5
39
  8
1
 62
     7
 10
-1468.33147361644
 20
-678.63052846651067
 30
0.0
 11
-1468.33147361644
 21
-682.63052846651067
 31
0.0
  0
LINE
  5
3A
  8
1
 62
     7
 10
-1468.7314736164401
 20
-678.63052846651067
 30
0.0
 11
-1468.7314736164401
 21
-682.63052846651067
 31
0.0
  0
LINE
  5
3B
  8
1
 62
     7
 10
-1469.13147361644
 20
-678.63052846651067
 30
0.0
 11
-1469.13147361644
 21
-682.63052846651067
 31
0.0
  0
LINE
  5
3C
  8
1
 62
     7
 10
-1418.83147361644
 20
-877.63052846651078
 30
0.0
 11
-1419.9314736164399
 21
-877.63052846651078
 31
0.0
  0
LINE
  5
3D
  8
1
 62
     7
 10
-1400.83147361644
 20
-741.90552846651042
 30
0.0
 11
-1400.33147361644
 21
-742.40552846651042
 31
0.0
  0
LINE
  5
3E
  8
1
 62
     7
 10
-1400.83147361644
 20
-838.35552846651046
 30
0.0
 11
-1400.33147361644
 21
-837.85552846651058
 31
0.0
  0
LINE
  5
3F
  8
1
 62
     7
 10
-1406.9314736164399
 20
-802.8162839088393
 30
0.0
 11
-1403.5314736164401
 21
-802.8162839088393
 31
0.0
  0
LINE
  5
40
  8
1
 62
     7
 10
-1406.9314736164399
 20
-777.44477302418181
 30
0.0
 11
-1403.5314736164401
 21
-777.44477302418181
 31
0.0
  0
LINE
  5
41
  8
1
 62
     7
 10
-1405.5314736164401
 20
-850.13052846651067
 30
0.0
 11
-1406.9314736164399
 21
-850.13052846651067
 31
0.0
  0
LINE
  5
42
  8
1
 62
     7
 10
-1403.5314736164401
 20
-732.13052846651067
 30
0.0
 11
-1406.5314736164401
 21
-729.13052846651055
 31
0.0
  0
LINE
  5
43
  8
1
 62
     7
 10
-1300.530603595319
 20
-839.73052846651046
 30
0.0
 11
-1300.530603595319
 21
-854.13052846651078
 31
0.0
  0
LINE
  5
44
  8
1
 62
     7
 10
-1298.030603595319
 20
-707.23052846651046
 30
0.0
 11
-1298.030603595319
 21
-726.13052846651055
 31
0.0
  0
LINE
  5
45
  8
1
  6
DASHDOT
 62
     3
 10
-1257.530603595319
 20
-790.13052846651067
 30
0.0
 11
-1252.00682831978
 21
-790.13052846651067
 31
0.0
  0
LINE
  5
46
  8
1
  6
DASHDOT
 62
     3
 10
-1400.33147361644
 20
-790.13052846651067
 30
0.0
 11
-1395.824366676889
 21
-790.13052846651067
 31
0.0
  0
LINE
  5
47
  8
1
 62
     7
 10
-1594.884912091019
 20
-675.20244377007168
 30
0.0
 11
-1595.920188271429
 21
-679.06614707522795
 31
0.0
  0
LINE
  5
48
  8
1
 62
     7
 10
-1594.305356595245
 20
-675.35773519713325
 30
0.0
 11
-1595.340632775655
 21
-679.2214385022894
 31
0.0
  0
LINE
  5
49
  8
1
 62
     7
 10
-1593.725801099471
 20
-675.51302662419471
 30
0.0
 11
-1594.761077279881
 21
-679.37672992935097
 31
0.0
  0
LINE
  5
4A
  8
1
 62
     7
 10
-1592.5666901079239
 20
-675.82360947831785
 30
0.0
 11
-1593.6019662883341
 21
-679.68731278347423
 31
0.0
  0
LINE
  5
4B
  8
1
 62
     7
 10
-1591.9871346121511
 20
-675.97890090537942
 30
0.0
 11
-1593.022410792561
 21
-679.84260421053557
 31
0.0
  0
LINE
  5
4C
  8
1
 62
     7
 10
-1591.4075791163771
 20
-676.13419233244088
 30
0.0
 11
-1592.442855296787
 21
-679.99789563759725
 31
0.0
  0
LINE
  5
4D
  8
1
 62
     7
 10
-1596.4031511845731
 20
-678.93673755267685
 30
0.0
 11
-1604.6936601362629
 21
-709.87733818098957
 31
0.0
  0
LINE
  5
4E
  8
1
 62
     7
 10
-1594.1815217841081
 20
-679.53202135641266
 30
0.0
 11
-1602.463731227389
 21
-710.44164779766265
 31
0.0
  0
LINE
  5
4F
  8
1
 62
     7
 10
-1591.9598923836429
 20
-680.12730516014835
 30
0.0
 11
-1600.242101826924
 21
-711.03693160139858
 31
0.0
  0
LINE
  5
50
  8
1
 62
     7
 10
-1596.4031511845731
 20
-678.93673755267685
 30
0.0
 11
-1591.9598923836429
 21
-680.12730516014835
 31
0.0
  0
LINE
  5
51
  8
1
 62
     7
 10
-1154.9251971157221
 20
-675.16826650615133
 30
0.0
 11
-1153.8899209353119
 21
-679.03196981130759
 31
0.0
  0
LINE
  5
52
  8
1
 62
     7
 10
-1154.3456416199481
 20
-675.01297507908976
 30
0.0
 11
-1153.3103654395379
 21
-678.87667838424613
 31
0.0
  0
LINE
  5
53
  8
1
 62
     7
 10
-1153.766086124175
 20
-674.8576836520283
 30
0.0
 11
-1152.7308099437651
 21
-678.72138695718456
 31
0.0
  0
LINE
  5
54
  8
1
 62
     7
 10
-1152.6069751326279
 20
-674.54710079790527
 30
0.0
 11
-1151.571698952218
 21
-678.41080410306154
 31
0.0
  0
LINE
  5
55
  8
1
 62
     7
 10
-1152.0274196368539
 20
-674.3918093708437
 30
0.0
 11
-1150.992143456444
 21
-678.25551267600008
 31
0.0
  0
LINE
  5
56
  8
1
 62
     7
 10
-1151.447864141081
 20
-674.23651794378213
 30
0.0
 11
-1150.4125879606711
 21
-678.10022124893851
 31
0.0
  0
LINE
  5
57
  8
1
 62
     7
 10
-1154.3728838484551
 20
-679.16137933385892
 30
0.0
 11
-1147.118125503697
 21
-706.23650607313482
 31
0.0
  0
LINE
  5
58
  8
1
 62
     7
 10
-1152.1512544479911
 20
-678.56609553012311
 30
0.0
 11
-1144.904321185121
 21
-705.61201866621707
 31
0.0
  0
LINE
  5
59
  8
1
 62
     7
 10
-1149.929625047525
 20
-677.97081172638718
 30
0.0
 11
-1142.6748667027671
 21
-705.04593846566308
 31
0.0
  0
LINE
  5
5A
  8
1
 62
     7
 10
-1154.3728838484551
 20
-679.16137933385892
 30
0.0
 11
-1149.929625047525
 21
-677.97081172638718
 31
0.0
  0
LINE
  5
5B
  8
1
 62
     7
 10
-1629.3163024483481
 20
-822.57491563712551
 30
0.0
 11
-1632.7329691150151
 21
-822.57491563712551
 31
0.0
  0
LINE
  5
5C
  8
1
 62
     7
 10
-1629.3163024483481
 20
-817.0749156371254
 30
0.0
 11
-1629.3163024483481
 21
-822.57491563712551
 31
0.0
  0
LINE
  5
5D
  8
1
 62
     7
 10
-1618.3163024483481
 20
-822.57491563712551
 30
0.0
 11
-1614.89963578168
 21
-822.57491563712551
 31
0.0
  0
LINE
  5
5E
  8
1
 62
     7
 10
-1618.3163024483481
 20
-817.0749156371254
 30
0.0
 11
-1618.3163024483481
 21
-822.57491563712551
 31
0.0
  0
LINE
  5
5F
  8
1
 62
     7
 10
-1635.2329691150151
 20
-820.07491563712551
 30
0.0
 11
-1635.2329691150151
 21
-818.48535939812211
 31
0.0
  0
LINE
  5
60
  8
1
 62
     7
 10
-1612.3996357816809
 20
-820.07491563712551
 30
0.0
 11
-1612.3996357816809
 21
-818.48535939812211
 31
0.0
  0
LINE
  5
61
  8
1
  6
DASHDOT
 62
     3
 10
-1623.8163024483481
 20
-778.13052846651067
 30
0.0
 11
-1623.8163024483481
 21
-802.13052846651067
 31
0.0
  0
LINE
  5
62
  8
1
  6
DASHDOT
 62
     3
 10
-1635.8163024483481
 20
-790.13052846651067
 30
0.0
 11
-1611.8163024483481
 21
-790.13052846651067
 31
0.0
  0
LINE
  5
63
  8
1
  6
DASHDOT
 62
     3
 10
-1489.8243666768899
 20
-790.13052846651067
 30
0.0
 11
-1485.33147361644
 21
-790.13052846651067
 31
0.0
  0
LINE
  5
64
  8
1
  6
DASHDOT
 62
     3
 10
-1122.25765473865
 20
-778.13052846651067
 30
0.0
 11
-1122.25765473865
 21
-802.13052846651067
 31
0.0
  0
LINE
  5
65
  8
1
  6
DASHDOT
 62
     3
 10
-1134.25765473865
 20
-790.13052846651067
 30
0.0
 11
-1110.25765473865
 21
-790.13052846651067
 31
0.0
  0
LINE
  5
66
  8
1
  6
DASHDOT
 62
     3
 10
-1348.00682831978
 20
-790.13052846651067
 30
0.0
 11
-1342.530603595319
 21
-790.13052846651067
 31
0.0
  0
LINE
  5
67
  8
1
 62
     7
 10
-1406.83147361644
 20
-794.13052846651055
 30
0.0
 11
-1405.7314736164401
 21
-794.13052846651055
 31
0.0
  0
LINE
  5
68
  8
1
 62
     3
 10
-1404.9314736164399
 20
-786.93052846651051
 30
0.0
 11
-1406.83147361644
 21
-786.93052846651051
 31
0.0
  0
LINE
  5
69
  8
1
 62
     3
 10
-1404.9314736164399
 20
-793.3305284665106
 30
0.0
 11
-1406.83147361644
 21
-793.3305284665106
 31
0.0
  0
LINE
  5
6A
  8
1
 62
     7
 10
-1405.7314736164401
 20
-794.13052846651055
 30
0.0
 11
-1405.7314736164401
 21
-786.13052846651067
 31
0.0
  0
LINE
  5
6B
  8
1
 62
     7
 10
-1405.7314736164401
 20
-786.13052846651067
 30
0.0
 11
-1406.83147361644
 21
-786.13052846651067
 31
0.0
  0
LINE
  5
6C
  8
1
 62
     7
 10
-1404.9314736164399
 20
-786.93052846651051
 30
0.0
 11
-1405.7314736164401
 21
-786.13052846651067
 31
0.0
  0
LINE
  5
6D
  8
1
 62
     7
 10
-1404.9314736164399
 20
-793.3305284665106
 30
0.0
 11
-1404.9314736164399
 21
-786.93052846651051
 31
0.0
  0
LINE
  5
6E
  8
1
 62
     7
 10
-1405.7314736164401
 20
-794.13052846651055
 30
0.0
 11
-1404.9314736164399
 21
-793.3305284665106
 31
0.0
  0
LINE
  5
6F
  8
1
 62
     7
 10
-1278.131130612501
 20
-861.13052846651067
 30
0.0
 11
-1276.030603595319
 21
-861.13052846651067
 31
0.0
  0
LINE
  5
70
  8
1
 62
     7
 10
-1278.1306035953189
 20
-853.13052846651067
 30
0.0
 11
-1276.030603595319
 21
-853.13052846651067
 31
0.0
  0
LINE
  5
71
  8
1
 62
     7
 10
-1290.530603595319
 20
-702.63052846651055
 30
0.0
 11
-1309.530603595319
 21
-702.63052846651055
 31
0.0
  0
LINE
  5
72
  8
1
 62
     7
 10
-1311.530603595319
 20
-707.23052846651046
 30
0.0
 11
-1311.530603595319
 21
-704.63052846651055
 31
0.0
  0
LINE
  5
73
  8
1
 62
     7
 10
-1311.530603595319
 20
-707.23052846651046
 30
0.0
 11
-1298.030603595319
 21
-707.23052846651046
 31
0.0
  0
LINE
  5
74
  8
1
 62
     7
 10
-1298.030603595319
 20
-726.13052846651055
 30
0.0
 11
-1300.530603595319
 21
-726.13052846651055
 31
0.0
  0
LINE
  5
75
  8
1
 62
     7
 10
-1300.530603595319
 20
-726.13052846651055
 30
0.0
 11
-1300.530603595319
 21
-740.53052846651042
 31
0.0
  0
LINE
  5
76
  8
1
 62
     7
 10
-1300.530603595319
 20
-740.53052846651042
 30
0.0
 11
-1311.530603595319
 21
-740.53052846651042
 31
0.0
  0
LINE
  5
77
  8
1
 62
     7
 10
-1311.530603595319
 20
-740.53052846651042
 30
0.0
 11
-1311.530603595319
 21
-754.13052846651055
 31
0.0
  0
LINE
  5
78
  8
1
 62
     7
 10
-1311.530603595319
 20
-754.13052846651055
 30
0.0
 11
-1312.530603595319
 21
-754.13052846651055
 31
0.0
  0
LINE
  5
79
  8
1
 62
     7
 10
-1342.530603595319
 20
-763.63052846651055
 30
0.0
 11
-1342.530603595319
 21
-816.63052846651078
 31
0.0
  0
LINE
  5
7A
  8
1
 62
     7
 10
-1290.530603595319
 20
-732.13052846651067
 30
0.0
 11
-1292.530603595319
 21
-732.13052846651067
 31
0.0
  0
LINE
  5
7B
  8
1
 62
     7
 10
-1292.530603595319
 20
-765.13052846651055
 30
0.0
 11
-1294.530603595319
 21
-765.13052846651055
 31
0.0
  0
LINE
  5
7C
  8
1
 62
     7
 10
-1342.530603595319
 20
-772.13052846651055
 30
0.0
 11
-1294.530603595319
 21
-772.13052846651055
 31
0.0
  0
LINE
  5
7D
  8
1
 62
     7
 10
-1342.530603595319
 20
-775.13052846651055
 30
0.0
 11
-1294.530603595319
 21
-775.13052846651055
 31
0.0
  0
LINE
  5
7E
  8
1
 62
     7
 10
-1311.530603595319
 20
-704.63052846651055
 30
0.0
 11
-1309.530603595319
 21
-702.63052846651055
 31
0.0
  0
LINE
  5
7F
  8
1
 62
     7
 10
-1342.530603595319
 20
-763.63052846651055
 30
0.0
 11
-1341.530603595319
 21
-762.63052846651055
 31
0.0
  0
LINE
  5
80
  8
1
 62
     7
 10
-1316.530603595319
 20
-758.13052846651067
 30
0.0
 11
-1312.530603595319
 21
-754.13052846651055
 31
0.0
  0
LINE
  5
81
  8
1
 62
     7
 10
-1323.655603595319
 20
-745.53485699096552
 30
0.0
 11
-1313.530603595319
 21
-745.53485699096552
 31
0.0
  0
LINE
  5
82
  8
1
 62
     7
 10
-1330.405603595319
 20
-745.53485699096552
 30
0.0
 11
-1337.530603595319
 21
-745.53485699096552
 31
0.0
  0
LINE
  5
83
  8
1
 62
     7
 10
-1330.405603595319
 20
-757.22619994205536
 30
0.0
 11
-1339.530603595319
 21
-757.22619994205536
 31
0.0
  0
LINE
  5
84
  8
1
 62
     7
 10
-1323.655603595319
 20
-757.22619994205536
 30
0.0
 11
-1316.530603595319
 21
-757.22619994205536
 31
0.0
  0
LINE
  5
85
  8
1
 62
     7
 10
-1337.530603595319
 20
-744.13052846651055
 30
0.0
 11
-1339.530603595319
 21
-744.13052846651055
 31
0.0
  0
LINE
  5
86
  8
1
 62
     7
 10
-1336.530603595319
 20
-726.13052846651055
 30
0.0
 11
-1339.030603595319
 21
-726.13052846651055
 31
0.0
  0
LINE
  5
87
  8
1
 62
     7
 10
-1302.530603595319
 20
-740.13052846651055
 30
0.0
 11
-1313.530603595319
 21
-740.13052846651055
 31
0.0
  0
LINE
  5
88
  8
1
 62
     7
 10
-1339.530603595319
 20
-757.22619994205536
 30
0.0
 11
-1339.530603595319
 21
-763.63052846651055
 31
0.0
  0
LINE
  5
89
  8
1
 62
     7
 10
-1316.530603595319
 20
-739.13052846651055
 30
0.0
 11
-1313.530603595319
 21
-739.13052846651055
 31
0.0
  0
LINE
  5
8A
  8
1
 62
     7
 10
-1339.530603595319
 20
-762.63052846651055
 30
0.0
 11
-1341.530603595319
 21
-762.63052846651055
 31
0.0
  0
LINE
  5
8B
  8
1
 62
     7
 10
-1302.530603595319
 20
-740.13052846651055
 30
0.0
 11
-1302.530603595319
 21
-707.63052846651067
 31
0.0
  0
LINE
  5
8C
  8
1
 62
     7
 10
-1318.259284995519
 20
-744.13052846651055
 30
0.0
 11
-1318.259284995519
 21
-758.79203074839961
 31
0.0
  0
LINE
  5
8D
  8
1
 62
     7
 10
-1335.5427812992209
 20
-744.13052846651055
 30
0.0
 11
-1335.5427812992209
 21
-759.93052846651051
 31
0.0
  0
LINE
  5
8E
  8
1
 62
     7
 10
-1339.030603595319
 20
-726.13052846651055
 30
0.0
 11
-1339.530603595319
 21
-726.63052846651055
 31
0.0
  0
LINE
  5
8F
  8
1
 62
     7
 10
-1334.530603595319
 20
-707.63052846651067
 30
0.0
 11
-1336.530603595319
 21
-709.63052846651055
 31
0.0
  0
LINE
  5
90
  8
1
 62
     7
 10
-1339.530603595319
 20
-752.44745615590091
 30
0.0
 11
-1339.530603595319
 21
-726.63052846651055
 31
0.0
  0
LINE
  5
91
  8
1
 62
     7
 10
-1339.530603595319
 20
-853.63052846651067
 30
0.0
 11
-1339.530603595319
 21
-827.81360077712043
 31
0.0
  0
LINE
  5
92
  8
1
 62
     7
 10
-1336.530603595319
 20
-870.63052846651067
 30
0.0
 11
-1334.530603595319
 21
-872.63052846651067
 31
0.0
  0
LINE
  5
93
  8
1
 62
     7
 10
-1339.530603595319
 20
-853.63052846651067
 30
0.0
 11
-1339.030603595319
 21
-854.13052846651078
 31
0.0
  0
LINE
  5
94
  8
1
 62
     7
 10
-1335.5427812992209
 20
-820.33052846651071
 30
0.0
 11
-1335.5427812992209
 21
-836.13052846651067
 31
0.0
  0
LINE
  5
95
  8
1
 62
     7
 10
-1318.259284995519
 20
-821.46902618462161
 30
0.0
 11
-1318.259284995519
 21
-836.13052846651067
 31
0.0
  0
LINE
  5
96
  8
1
 62
     7
 10
-1341.530603595319
 20
-817.63052846651078
 30
0.0
 11
-1339.530603595319
 21
-817.63052846651078
 31
0.0
  0
LINE
  5
97
  8
1
 62
     7
 10
-1339.530603595319
 20
-816.63052846651078
 30
0.0
 11
-1339.530603595319
 21
-823.03485699096575
 31
0.0
  0
LINE
  5
98
  8
1
 62
     7
 10
-1313.530603595319
 20
-834.72619994205581
 30
0.0
 11
-1323.655603595319
 21
-834.72619994205581
 31
0.0
  0
LINE
  5
99
  8
1
 62
     7
 10
-1313.530603595319
 20
-840.13052846651078
 30
0.0
 11
-1302.530603595319
 21
-840.13052846651078
 31
0.0
  0
LINE
  5
9A
  8
1
 62
     7
 10
-1302.530603595319
 20
-872.63052846651067
 30
0.0
 11
-1302.530603595319
 21
-840.13052846651078
 31
0.0
  0
LINE
  5
9B
  8
1
 62
     7
 10
-1334.530603595319
 20
-872.63052846651067
 30
0.0
 11
-1302.530603595319
 21
-872.63052846651067
 31
0.0
  0
LINE
  5
9C
  8
1
 62
     7
 10
-1336.530603595319
 20
-870.63052846651067
 30
0.0
 11
-1336.530603595319
 21
-854.13052846651078
 31
0.0
  0
LINE
  5
9D
  8
1
 62
     7
 10
-1339.030603595319
 20
-854.13052846651078
 30
0.0
 11
-1336.530603595319
 21
-854.13052846651078
 31
0.0
  0
LINE
  5
9E
  8
1
 62
     7
 10
-1339.530603595319
 20
-836.13052846651067
 30
0.0
 11
-1337.530603595319
 21
-836.13052846651067
 31
0.0
  0
LINE
  5
9F
  8
1
 62
     7
 10
-1316.530603595319
 20
-823.03485699096575
 30
0.0
 11
-1323.655603595319
 21
-823.03485699096575
 31
0.0
  0
LINE
  5
A0
  8
1
 62
     7
 10
-1330.405603595319
 20
-823.03485699096575
 30
0.0
 11
-1339.530603595319
 21
-823.03485699096575
 31
0.0
  0
LINE
  5
A1
  8
1
 62
     7
 10
-1337.530603595319
 20
-834.72619994205581
 30
0.0
 11
-1330.405603595319
 21
-834.72619994205581
 31
0.0
  0
LINE
  5
A2
  8
1
 62
     7
 10
-1312.530603595319
 20
-826.13052846651067
 30
0.0
 11
-1316.530603595319
 21
-822.13052846651078
 31
0.0
  0
LINE
  5
A3
  8
1
 62
     7
 10
-1341.530603595319
 20
-817.63052846651078
 30
0.0
 11
-1342.530603595319
 21
-816.63052846651078
 31
0.0
  0
LINE
  5
A4
  8
1
 62
     7
 10
-1309.530603595319
 20
-877.63052846651078
 30
0.0
 11
-1311.530603595319
 21
-875.63052846651078
 31
0.0
  0
LINE
  5
A5
  8
1
 62
     7
 10
-1294.530603595319
 20
-805.13052846651078
 30
0.0
 11
-1342.530603595319
 21
-805.13052846651078
 31
0.0
  0
LINE
  5
A6
  8
1
 62
     7
 10
-1294.530603595319
 20
-815.13052846651078
 30
0.0
 11
-1294.530603595319
 21
-765.13052846651055
 31
0.0
  0
LINE
  5
A7
  8
1
 62
     7
 10
-1294.530603595319
 20
-815.13052846651078
 30
0.0
 11
-1292.530603595319
 21
-815.13052846651078
 31
0.0
  0
LINE
  5
A8
  8
1
 62
     7
 10
-1292.530603595319
 20
-848.13052846651078
 30
0.0
 11
-1290.530603595319
 21
-848.13052846651078
 31
0.0
  0
LINE
  5
A9
  8
1
 62
     7
 10
-1312.530603595319
 20
-826.13052846651067
 30
0.0
 11
-1311.530603595319
 21
-826.13052846651067
 31
0.0
  0
LINE
  5
AA
  8
1
 62
     7
 10
-1311.530603595319
 20
-826.13052846651067
 30
0.0
 11
-1311.530603595319
 21
-839.73052846651046
 31
0.0
  0
LINE
  5
AB
  8
1
 62
     7
 10
-1311.530603595319
 20
-839.73052846651046
 30
0.0
 11
-1300.530603595319
 21
-839.73052846651046
 31
0.0
  0
LINE
  5
AC
  8
1
 62
     7
 10
-1300.530603595319
 20
-854.13052846651078
 30
0.0
 11
-1298.030603595319
 21
-854.13052846651078
 31
0.0
  0
LINE
  5
AD
  8
1
 62
     7
 10
-1298.030603595319
 20
-854.13052846651078
 30
0.0
 11
-1298.030603595319
 21
-873.03052846651053
 31
0.0
  0
LINE
  5
AE
  8
1
 62
     7
 10
-1298.030603595319
 20
-873.03052846651053
 30
0.0
 11
-1311.530603595319
 21
-873.03052846651053
 31
0.0
  0
LINE
  5
AF
  8
1
 62
     7
 10
-1311.530603595319
 20
-875.63052846651078
 30
0.0
 11
-1311.530603595319
 21
-873.03052846651053
 31
0.0
  0
LINE
  5
B0
  8
1
 62
     7
 10
-1309.530603595319
 20
-877.63052846651078
 30
0.0
 11
-1290.530603595319
 21
-877.63052846651078
 31
0.0
  0
LINE
  5
B1
  8
1
 62
     7
 10
-1627.3163024483481
 20
-775.54457632069568
 30
0.0
 11
-1627.3163024483481
 21
-772.13052846651055
 31
0.0
  0
LINE
  5
B2
  8
1
 62
     7
 10
-1627.3163024483481
 20
-772.13052846651055
 30
0.0
 11
-1620.3163024483481
 21
-772.13052846651055
 31
0.0
  0
LINE
  5
B3
  8
1
 62
     7
 10
-1620.3163024483481
 20
-772.13052846651055
 30
0.0
 11
-1620.3163024483481
 21
-775.54457632069568
 31
0.0
  0
LINE
  5
B4
  8
1
 62
     7
 10
-1611.8163024483481
 20
-688.13052846651055
 30
0.0
 11
-1611.8163024483481
 21
-710.13052846651055
 31
0.0
  0
LINE
  5
B5
  8
1
 62
     7
 10
-1608.8163024483481
 20
-713.13052846651055
 30
0.0
 11
-1606.8163024483481
 21
-713.13052846651055
 31
0.0
  0
LINE
  5
B6
  8
1
 62
     7
 10
-1603.8163024483481
 20
-716.13052846651067
 30
0.0
 11
-1603.8163024483481
 21
-725.13052846651055
 31
0.0
  0
LINE
  5
B7
  8
1
 62
     7
 10
-1643.8163024483481
 20
-725.13052846651055
 30
0.0
 11
-1603.8163024483481
 21
-725.13052846651055
 31
0.0
  0
LINE
  5
B8
  8
1
 62
     7
 10
-1643.8163024483481
 20
-725.13052846651055
 30
0.0
 11
-1643.8163024483481
 21
-716.13052846651067
 31
0.0
  0
LINE
  5
B9
  8
1
 62
     7
 10
-1640.8163024483481
 20
-713.13052846651055
 30
0.0
 11
-1638.8163024483481
 21
-713.13052846651055
 31
0.0
  0
LINE
  5
BA
  8
1
 62
     7
 10
-1632.8163024483481
 20
-685.13052846651055
 30
0.0
 11
-1614.8163024483481
 21
-685.13052846651055
 31
0.0
  0
LINE
  5
BB
  8
1
  6
DASHDOT
 62
     3
 10
-1631.16003116104
 20
-695.13052846651067
 30
0.0
 11
-1616.137508492784
 21
-695.13052846651067
 31
0.0
  0
LINE
  5
BC
  8
1
 62
     7
 10
-1290.530603595319
 20
-702.63052846651055
 30
0.0
 11
-1290.530603595319
 21
-768.13052846651055
 31
0.0
  0
LINE
  5
BD
  8
1
 62
     7
 10
-1280.030603595319
 20
-741.90552846651042
 30
0.0
 11
-1258.030603595319
 21
-741.90552846651042
 31
0.0
  0
LINE
  5
BE
  8
1
 62
     7
 10
-1257.530603595319
 20
-742.40552846651042
 30
0.0
 11
-1257.530603595319
 21
-837.85552846651069
 31
0.0
  0
LINE
  5
BF
  8
1
 62
     7
 10
-1257.530603595319
 20
-759.13052846651055
 30
0.0
 11
-1277.530603595319
 21
-759.13052846651055
 31
0.0
  0
LINE
  5
C0
  8
1
 62
     7
 10
-1277.530603595319
 20
-763.13052846651055
 30
0.0
 11
-1281.0306035953181
 21
-763.13052846651055
 31
0.0
  0
LINE
  5
C1
  8
1
 62
     7
 10
-1281.0306035953181
 20
-742.9055284665103
 30
0.0
 11
-1281.0306035953181
 21
-768.13052846651055
 31
0.0
  0
LINE
  5
C2
  8
1
 62
     7
 10
-1281.0306035953181
 20
-747.63052846651055
 30
0.0
 11
-1257.530603595319
 21
-747.63052846651055
 31
0.0
  0
LINE
  5
C3
  8
1
 62
     7
 10
-1294.530603595319
 20
-771.13052846651055
 30
0.0
 11
-1277.530603595319
 21
-771.13052846651055
 31
0.0
  0
LINE
  5
C4
  8
1
 62
     7
 10
-1294.530603595319
 20
-775.13052846651055
 30
0.0
 11
-1277.530603595319
 21
-775.13052846651055
 31
0.0
  0
LINE
  5
C5
  8
1
 62
     7
 10
-1281.0306035953181
 20
-742.9055284665103
 30
0.0
 11
-1280.030603595319
 21
-741.90552846651042
 31
0.0
  0
LINE
  5
C6
  8
1
 62
     7
 10
-1257.530603595319
 20
-742.40552846651042
 30
0.0
 11
-1258.030603595319
 21
-741.90552846651042
 31
0.0
  0
LINE
  5
C7
  8
1
 62
     7
 10
-1290.1306035953189
 20
-702.63052846651055
 30
0.0
 11
-1290.1306035953189
 21
-768.13052846651055
 31
0.0
  0
LINE
  5
C8
  8
1
 62
     7
 10
-1264.1306035953189
 20
-719.87342303461128
 30
0.0
 11
-1264.1306035953189
 21
-721.13052846651055
 31
0.0
  0
LINE
  5
C9
  8
1
 62
     7
 10
-1265.809351613967
 20
-718.13052846651055
 30
0.0
 11
-1273.830603595319
 21
-718.13052846651055
 31
0.0
  0
LINE
  5
CA
  8
1
 62
     7
 10
-1273.830603595319
 20
-718.13052846651055
 30
0.0
 11
-1273.830603595319
 21
-721.13052846651055
 31
0.0
  0
LINE
  5
CB
  8
1
 62
     7
 10
-1268.1306035953189
 20
-737.13052846651067
 30
0.0
 11
-1268.1306035953189
 21
-747.63052846651055
 31
0.0
  0
LINE
  5
CC
  8
1
 62
     7
 10
-1273.830603595319
 20
-732.13052846651067
 30
0.0
 11
-1269.1306035953189
 21
-732.13052846651067
 31
0.0
  0
LINE
  5
CD
  8
1
 62
     7
 10
-1269.1306035953189
 20
-732.13052846651067
 30
0.0
 11
-1269.1306035953189
 21
-736.13052846651067
 31
0.0
  0
LINE
  5
CE
  8
1
 62
     7
 10
-1280.1306035953189
 20
-731.63052846651055
 30
0.0
 11
-1287.6306035953189
 21
-731.63052846651055
 31
0.0
  0
LINE
  5
CF
  8
1
 62
     7
 10
-1287.6306035953189
 20
-731.63052846651055
 30
0.0
 11
-1288.1306035953189
 21
-730.76450306272613
 31
0.0
  0
LINE
  5
D0
  8
1
 62
     7
 10
-1288.1306035953189
 20
-730.76450306272613
 30
0.0
 11
-1288.1306035953189
 21
-719.49655387029486
 31
0.0
  0
LINE
  5
D1
  8
1
 62
     7
 10
-1288.1306035953189
 20
-719.49655387029486
 30
0.0
 11
-1287.6306035953189
 21
-718.63052846651055
 31
0.0
  0
LINE
  5
D2
  8
1
 62
     7
 10
-1287.6306035953189
 20
-718.63052846651055
 30
0.0
 11
-1280.1306035953189
 21
-718.63052846651055
 31
0.0
  0
LINE
  5
D3
  8
1
 62
     7
 10
-1287.6306035953189
 20
-731.63052846651055
 30
0.0
 11
-1287.6306035953189
 21
-718.63052846651055
 31
0.0
  0
LINE
  5
D4
  8
1
 62
     7
 10
-1280.1306035953189
 20
-729.13052846651055
 30
0.0
 11
-1262.9306035953191
 21
-729.13052846651055
 31
0.0
  0
LINE
  5
D5
  8
1
 62
     7
 10
-1262.9306035953191
 20
-729.13052846651055
 30
0.0
 11
-1262.1306035953189
 21
-728.3305284665106
 31
0.0
  0
LINE
  5
D6
  8
1
 62
     7
 10
-1262.1306035953189
 20
-728.3305284665106
 30
0.0
 11
-1262.1306035953189
 21
-721.93052846651051
 31
0.0
  0
LINE
  5
D7
  8
1
 62
     7
 10
-1262.1306035953189
 20
-721.93052846651051
 30
0.0
 11
-1262.9306035953191
 21
-721.13052846651055
 31
0.0
  0
LINE
  5
D8
  8
1
 62
     7
 10
-1262.9306035953191
 20
-721.13052846651055
 30
0.0
 11
-1280.1306035953189
 21
-721.13052846651055
 31
0.0
  0
LINE
  5
D9
  8
1
 62
     7
 10
-1262.9306035953191
 20
-729.13052846651055
 30
0.0
 11
-1262.9306035953191
 21
-721.13052846651055
 31
0.0
  0
LINE
  5
DA
  8
1
 62
     3
 10
-1262.1306035953189
 20
-728.3305284665106
 30
0.0
 11
-1278.244962949263
 21
-728.3305284665106
 31
0.0
  0
LINE
  5
DB
  8
1
 62
     3
 10
-1278.244962949263
 20
-728.3305284665106
 30
0.0
 11
-1279.6306035953189
 21
-729.13052846651055
 31
0.0
  0
LINE
  5
DC
  8
1
 62
     3
 10
-1262.1306035953189
 20
-721.93052846651051
 30
0.0
 11
-1278.244962949263
 21
-721.93052846651051
 31
0.0
  0
LINE
  5
DD
  8
1
 62
     3
 10
-1278.244962949263
 20
-721.93052846651051
 30
0.0
 11
-1279.6306035953189
 21
-721.13052846651055
 31
0.0
  0
LINE
  5
DE
  8
1
 62
     3
 10
-1278.244962949263
 20
-729.13052846651055
 30
0.0
 11
-1278.244962949263
 21
-721.13052846651055
 31
0.0
  0
LINE
  5
DF
  8
1
 62
     7
 10
-1276.030603595319
 20
-718.38052846651067
 30
0.0
 11
-1275.030603595319
 21
-718.38052846651067
 31
0.0
  0
LINE
  5
E0
  8
1
 62
     7
 10
-1275.030603595319
 20
-731.88052846651055
 30
0.0
 11
-1276.030603595319
 21
-731.88052846651055
 31
0.0
  0
LINE
  5
E1
  8
1
 62
     7
 10
-1276.030603595319
 20
-729.13052846651055
 30
0.0
 11
-1276.030603595319
 21
-739.63052846651055
 31
0.0
  0
LINE
  5
E2
  8
1
 62
     7
 10
-1275.030603595319
 20
-718.13052846651055
 30
0.0
 11
-1273.830603595319
 21
-718.13052846651055
 31
0.0
  0
LINE
  5
E3
  8
1
 62
     7
 10
-1272.830603595319
 20
-740.26440567690634
 30
0.0
 11
-1272.830603595319
 21
-732.13052846651067
 31
0.0
  0
LINE
  5
E4
  8
1
 62
     7
 10
-1272.1836025529351
 20
-740.70552846651049
 30
0.0
 11
-1268.5306035953181
 21
-740.70552846651049
 31
0.0
  0
LINE
  5
E5
  8
1
 62
     7
 10
-1274.030603595319
 20
-735.66187683371732
 30
0.0
 11
-1274.030603595319
 21
-740.44613201008599
 31
0.0
  0
LINE
  5
E6
  8
1
 62
     7
 10
-1276.030603595319
 20
-733.83052846651049
 30
0.0
 11
-1274.3034329380289
 21
-733.83052846651049
 31
0.0
  0
LINE
  5
E7
  8
1
 62
     7
 10
-1276.030603595319
 20
-735.03052846651076
 30
0.0
 11
-1274.609176497624
 21
-735.03052846651076
 31
0.0
  0
LINE
  5
E8
  8
1
 62
     7
 10
-1268.5306035953181
 20
-740.70552846651049
 30
0.0
 11
-1268.5306035953181
 21
-741.90552846651042
 31
0.0
  0
LINE
  5
E9
  8
1
 62
     7
 10
-1272.830603595319
 20
-739.03052846651076
 30
0.0
 11
-1271.6306035953189
 21
-739.03052846651076
 31
0.0
  0
LINE
  5
EA
  8
1
 62
     7
 10
-1271.6306035953189
 20
-739.03052846651076
 30
0.0
 11
-1271.6306035953189
 21
-732.13052846651067
 31
0.0
  0
LINE
  5
EB
  8
1
 62
     7
 10
-1272.830603595319
 20
-735.03052846651076
 30
0.0
 11
-1271.6306035953189
 21
-735.03052846651076
 31
0.0
  0
LINE
  5
EC
  8
1
 62
     7
 10
-1290.1306035953189
 20
-702.63052846651055
 30
0.0
 11
-1283.1306035953189
 21
-702.63052846651055
 31
0.0
  0
LINE
  5
ED
  8
1
 62
     7
 10
-1290.1306035953189
 20
-732.13052846651067
 30
0.0
 11
-1283.1306035953189
 21
-732.13052846651067
 31
0.0
  0
LINE
  5
EE
  8
1
 62
     7
 10
-1278.1306035953189
 20
-729.13052846651055
 30
0.0
 11
-1278.1306035953189
 21
-736.63052846651067
 31
0.0
  0
LINE
  5
EF
  8
1
 62
     7
 10
-1277.1306035953189
 20
-737.63052846651055
 30
0.0
 11
-1276.030603595319
 21
-737.63052846651055
 31
0.0
  0
LINE
  5
F0
  8
1
 62
     7
 10
-1278.1306035953189
 20
-718.13052846651055
 30
0.0
 11
-1276.030603595319
 21
-718.13052846651055
 31
0.0
  0
LINE
  5
F1
  8
1
 62
     7
 10
-1278.1306035953189
 20
-844.62642622509679
 30
0.0
 11
-1276.030603595319
 21
-844.62642622509679
 31
0.0
  0
LINE
  5
F2
  8
1
 62
     7
 10
-1283.1306035953189
 20
-848.13052846651078
 30
0.0
 11
-1290.1306035953189
 21
-848.13052846651078
 31
0.0
  0
LINE
  5
F3
  8
1
 62
     7
 10
-1283.1306035953189
 20
-877.63052846651078
 30
0.0
 11
-1290.1306035953189
 21
-877.63052846651078
 31
0.0
  0
LINE
  5
F4
  8
1
 62
     7
 10
-1271.6306035953189
 20
-841.23052846651069
 30
0.0
 11
-1271.6306035953189
 21
-862.13052846651078
 31
0.0
  0
LINE
  5
F5
  8
1
 62
     7
 10
-1271.6306035953189
 20
-841.23052846651069
 30
0.0
 11
-1272.830603595319
 21
-841.23052846651069
 31
0.0
  0
LINE
  5
F6
  8
1
 62
     7
 10
-1268.5306035953181
 20
-838.3555284665108
 30
0.0
 11
-1268.5306035953181
 21
-839.55552846651085
 31
0.0
  0
LINE
  5
F7
  8
1
 62
     7
 10
-1274.609176497624
 20
-845.2305284665108
 30
0.0
 11
-1276.030603595319
 21
-845.2305284665108
 31
0.0
  0
LINE
  5
F8
  8
1
 62
     7
 10
-1274.3034329380289
 20
-846.43052846651074
 30
0.0
 11
-1276.030603595319
 21
-846.43052846651074
 31
0.0
  0
LINE
  5
F9
  8
1
 62
     7
 10
-1274.030603595319
 20
-839.81492492293512
 30
0.0
 11
-1274.030603595319
 21
-844.59918009930379
 31
0.0
  0
LINE
  5
FA
  8
1
 62
     7
 10
-1268.5306035953181
 20
-839.55552846651085
 30
0.0
 11
-1272.1836025529351
 21
-839.55552846651085
 31
0.0
  0
LINE
  5
FB
  8
1
 62
     7
 10
-1268.1306035953189
 20
-832.63052846651067
 30
0.0
 11
-1268.1306035953189
 21
-843.13052846651067
 31
0.0
  0
LINE
  5
FC
  8
1
 62
     7
 10
-1258.030603595319
 20
-838.3555284665108
 30
0.0
 11
-1257.530603595319
 21
-837.85552846651069
 31
0.0
  0
LINE
  5
FD
  8
1
 62
     7
 10
-1280.030603595319
 20
-838.3555284665108
 30
0.0
 11
-1281.0306035953181
 21
-837.3555284665108
 31
0.0
  0
LINE
  5
FE
  8
1
 62
     7
 10
-1257.530603595319
 20
-832.63052846651067
 30
0.0
 11
-1281.0306035953181
 21
-832.63052846651067
 31
0.0
  0
LINE
  5
FF
  8
1
 62
     7
 10
-1281.0306035953181
 20
-817.13052846651067
 30
0.0
 11
-1277.530603595319
 21
-817.13052846651067
 31
0.0
  0
LINE
  5
100
  8
1
 62
     7
 10
-1277.530603595319
 20
-821.13052846651078
 30
0.0
 11
-1257.530603595319
 21
-821.13052846651078
 31
0.0
  0
LINE
  5
101
  8
1
 62
     7
 10
-1258.030603595319
 20
-838.3555284665108
 30
0.0
 11
-1280.030603595319
 21
-838.3555284665108
 31
0.0
  0
LINE
  5
102
  8
1
 62
     7
 10
-1272.830603595319
 20
-862.13052846651078
 30
0.0
 11
-1272.8306035953181
 21
-839.99665125611511
 31
0.0
  0
LINE
  5
103
  8
1
 62
     7
 10
-1272.830603595319
 20
-862.13052846651078
 30
0.0
 11
-1271.6306035953189
 21
-862.13052846651078
 31
0.0
  0
LINE
  5
104
  8
1
 62
     7
 10
-1269.1306035953189
 20
-850.13052846651067
 30
0.0
 11
-1262.7306035953191
 21
-850.13052846651067
 31
0.0
  0
LINE
  5
105
  8
1
  6
DASHDOT
 62
     3
 10
-1282.292674750491
 20
-827.63052846651055
 30
0.0
 11
-1255.7773905991139
 21
-827.63052846651055
 31
0.0
  0
LINE
  5
106
  8
1
 62
     3
 10
-1281.0306035953181
 20
-823.63052846651067
 30
0.0
 11
-1257.530603595319
 21
-823.63052846651067
 31
0.0
  0
LINE
  5
107
  8
1
 62
     7
 10
-1281.0306035953181
 20
-824.63052846651067
 30
0.0
 11
-1257.530603595319
 21
-824.63052846651067
 31
0.0
  0
LINE
  5
108
  8
1
 62
     7
 10
-1281.0306035953181
 20
-830.63052846651067
 30
0.0
 11
-1257.530603595319
 21
-830.63052846651067
 31
0.0
  0
LINE
  5
109
  8
1
 62
     3
 10
-1281.0306035953181
 20
-831.63052846651067
 30
0.0
 11
-1257.530603595319
 21
-831.63052846651067
 31
0.0
  0
LINE
  5
10A
  8
1
  6
DASHDOT
 62
     3
 10
-1255.7773905991139
 20
-752.63052846651033
 30
0.0
 11
-1282.292674750491
 21
-752.63052846651033
 31
0.0
  0
LINE
  5
10B
  8
1
 62
     7
 10
-1257.530603595319
 20
-756.63052846651033
 30
0.0
 11
-1281.0306035953181
 21
-756.63052846651033
 31
0.0
  0
LINE
  5
10C
  8
1
 62
     7
 10
-1257.530603595319
 20
-748.63052846651033
 30
0.0
 11
-1281.0306035953181
 21
-748.63052846651033
 31
0.0
  0
LINE
  5
10D
  8
1
 62
     7
 10
-1290.1306035953189
 20
-854.13052846651078
 30
0.0
 11
-1287.1306035953189
 21
-854.13052846651078
 31
0.0
  0
LINE
  5
10E
  8
1
 62
     7
 10
-1287.1306035953189
 20
-854.13052846651078
 30
0.0
 11
-1287.1306035953189
 21
-860.13052846651067
 31
0.0
  0
LINE
  5
10F
  8
1
 62
     7
 10
-1287.1306035953189
 20
-860.13052846651067
 30
0.0
 11
-1290.1306035953189
 21
-860.13052846651067
 31
0.0
  0
LINE
  5
110
  8
1
 62
     7
 10
-1287.1306035953189
 20
-855.53052846651076
 30
0.0
 11
-1281.1306035953189
 21
-855.53052846651076
 31
0.0
  0
LINE
  5
111
  8
1
 62
     7
 10
-1290.1306035953189
 20
-865.63052846651067
 30
0.0
 11
-1287.1306035953189
 21
-865.63052846651067
 31
0.0
  0
LINE
  5
112
  8
1
 62
     7
 10
-1287.1306035953189
 20
-865.63052846651067
 30
0.0
 11
-1287.1306035953189
 21
-871.63052846651067
 31
0.0
  0
LINE
  5
113
  8
1
 62
     7
 10
-1287.1306035953189
 20
-871.63052846651067
 30
0.0
 11
-1290.1306035953189
 21
-871.63052846651067
 31
0.0
  0
LINE
  5
114
  8
1
 62
     7
 10
-1287.1306035953189
 20
-867.03052846651076
 30
0.0
 11
-1281.1306035953189
 21
-867.03052846651076
 31
0.0
  0
LINE
  5
115
  8
1
 62
     7
 10
-1287.1306035953189
 20
-870.2305284665108
 30
0.0
 11
-1281.1306035953189
 21
-870.2305284665108
 31
0.0
  0
LINE
  5
116
  8
1
 62
     7
 10
-1281.1306035953189
 20
-858.7305284665108
 30
0.0
 11
-1287.1306035953189
 21
-858.7305284665108
 31
0.0
  0
LINE
  5
117
  8
1
 62
     7
 10
-1281.1306035953189
 20
-854.13052846651078
 30
0.0
 11
-1280.605533571365
 21
-854.13052846651078
 31
0.0
  0
LINE
  5
118
  8
1
 62
     7
 10
-1281.1306035953189
 20
-860.13052846651067
 30
0.0
 11
-1280.4593325459621
 21
-860.13052846651067
 31
0.0
  0
LINE
  5
119
  8
1
 62
     7
 10
-1281.1306035953189
 20
-865.63052846651067
 30
0.0
 11
-1280.5567998962299
 21
-865.63052846651067
 31
0.0
  0
LINE
  5
11A
  8
1
 62
     7
 10
-1281.1306035953189
 20
-871.63052846651067
 30
0.0
 11
-1280.7686001241609
 21
-871.63052846651067
 31
0.0
  0
LINE
  5
11B
  8
1
 62
     7
 10
-1281.1306035953189
 20
-871.63052846651067
 30
0.0
 11
-1281.1306035953189
 21
-846.63052846651067
 31
0.0
  0
LINE
  5
11C
  8
1
 62
     7
 10
-1334.530603595319
 20
-707.63052846651067
 30
0.0
 11
-1302.530603595319
 21
-707.63052846651067
 31
0.0
  0
LINE
  5
11D
  8
1
 62
     7
 10
-1313.530603595319
 20
-750.69063411624029
 30
0.0
 11
-1313.530603595319
 21
-739.13052846651055
 31
0.0
  0
LINE
  5
11E
  8
1
 62
     7
 10
-1277.530603595319
 20
-805.13052846651078
 30
0.0
 11
-1294.530603595319
 21
-805.13052846651078
 31
0.0
  0
LINE
  5
11F
  8
1
 62
     7
 10
-1277.530603595319
 20
-809.13052846651067
 30
0.0
 11
-1294.530603595319
 21
-809.13052846651067
 31
0.0
  0
LINE
  5
120
  8
1
 62
     7
 10
-1316.530603595319
 20
-739.13052846651055
 30
0.0
 11
-1316.530603595319
 21
-762.63052846651055
 31
0.0
  0
LINE
  5
121
  8
1
 62
     7
 10
-1337.530603595319
 20
-740.13052846651055
 30
0.0
 11
-1316.530603595319
 21
-740.13052846651055
 31
0.0
  0
LINE
  5
122
  8
1
 62
     7
 10
-1337.530603595319
 20
-740.13052846651055
 30
0.0
 11
-1337.530603595319
 21
-763.63052846651055
 31
0.0
  0
LINE
  5
123
  8
1
 62
     7
 10
-1316.530603595319
 20
-762.63052846651055
 30
0.0
 11
-1337.530603595319
 21
-762.63052846651055
 31
0.0
  0
LINE
  5
124
  8
1
 62
     7
 10
-1339.530603595319
 20
-763.63052846651055
 30
0.0
 11
-1337.530603595319
 21
-763.63052846651055
 31
0.0
  0
LINE
  5
125
  8
1
 62
     7
 10
-1277.530603595319
 20
-759.13052846651055
 30
0.0
 11
-1277.530603595319
 21
-821.13052846651078
 31
0.0
  0
LINE
  5
126
  8
1
 62
     7
 10
-1316.530603595319
 20
-817.63052846651078
 30
0.0
 11
-1337.530603595319
 21
-817.63052846651078
 31
0.0
  0
LINE
  5
127
  8
1
 62
     7
 10
-1316.530603595319
 20
-817.63052846651078
 30
0.0
 11
-1316.530603595319
 21
-841.13052846651067
 31
0.0
  0
LINE
  5
128
  8
1
 62
     7
 10
-1337.530603595319
 20
-840.13052846651078
 30
0.0
 11
-1316.530603595319
 21
-840.13052846651078
 31
0.0
  0
LINE
  5
129
  8
1
 62
     7
 10
-1337.530603595319
 20
-816.63052846651078
 30
0.0
 11
-1337.530603595319
 21
-840.13052846651078
 31
0.0
  0
LINE
  5
12A
  8
1
 62
     7
 10
-1313.530603595319
 20
-841.13052846651067
 30
0.0
 11
-1313.530603595319
 21
-829.41868080180711
 31
0.0
  0
LINE
  5
12B
  8
1
 62
     7
 10
-1316.530603595319
 20
-841.13052846651067
 30
0.0
 11
-1313.530603595319
 21
-841.13052846651067
 31
0.0
  0
LINE
  5
12C
  8
1
 62
     7
 10
-1339.530603595319
 20
-816.63052846651078
 30
0.0
 11
-1337.530603595319
 21
-816.63052846651078
 31
0.0
  0
LINE
  5
12D
  8
1
 62
     7
 10
-1275.030603595319
 20
-718.13052846651055
 30
0.0
 11
-1275.030603595319
 21
-721.13052846651055
 31
0.0
  0
LINE
  5
12E
  8
1
 62
     7
 10
-1276.030603595319
 20
-721.13052846651055
 30
0.0
 11
-1276.030603595319
 21
-702.63052846651055
 31
0.0
  0
LINE
  5
12F
  8
1
 62
     7
 10
-1273.830603595319
 20
-732.63052846651067
 30
0.0
 11
-1273.830603595319
 21
-729.13052846651055
 31
0.0
  0
LINE
  5
130
  8
1
 62
     7
 10
-1275.030603595319
 20
-729.13052846651055
 30
0.0
 11
-1275.030603595319
 21
-732.63052846651067
 31
0.0
  0
LINE
  5
131
  8
1
 62
     7
 10
-1273.830603595319
 20
-732.63052846651067
 30
0.0
 11
-1275.030603595319
 21
-732.63052846651067
 31
0.0
  0
LINE
  5
132
  8
1
 62
     7
 10
-1283.1306035953189
 20
-858.7305284665108
 30
0.0
 11
-1283.1306035953189
 21
-867.03052846651076
 31
0.0
  0
LINE
  5
133
  8
1
 62
     7
 10
-1336.530603595319
 20
-726.13052846651055
 30
0.0
 11
-1336.530603595319
 21
-685.13052846651055
 31
0.0
  0
LINE
  5
134
  8
1
  6
DASHDOT
 62
     3
 10
-1623.8163024483481
 20
-686.86551131811689
 30
0.0
 11
-1623.8163024483481
 21
-701.07907244432909
 31
0.0
  0
LINE
  5
135
  8
1
 62
     7
 10
-1406.9314736164399
 20
-860.38763389840949
 30
0.0
 11
-1406.9314736164399
 21
-719.87342303461128
 31
0.0
  0
LINE
  5
136
  8
1
 62
     7
 10
-1411.4314736164399
 20
-854.48313923025557
 30
0.0
 11
-1407.4314736164399
 21
-854.48313923025557
 31
0.0
  0
LINE
  5
137
  8
1
 62
     7
 10
-1411.9314736164399
 20
-854.48313923025557
 30
0.0
 11
-1411.9314736164399
 21
-848.13052846651021
 31
0.0
  0
LINE
  5
138
  8
1
 62
     7
 10
-1407.4314736164399
 20
-725.77791770276531
 30
0.0
 11
-1411.4314736164399
 21
-725.77791770276531
 31
0.0
  0
LINE
  5
139
  8
1
 62
     7
 10
-1411.9314736164399
 20
-725.77791770276531
 30
0.0
 11
-1411.9314736164399
 21
-736.13052846651067
 31
0.0
  0
LINE
  5
13A
  8
1
 62
     7
 10
-1417.83147361644
 20
-796.88052846651067
 30
0.0
 11
-1418.83147361644
 21
-796.88052846651067
 31
0.0
  0
LINE
  5
13B
  8
1
 62
     7
 10
-1417.83147361644
 20
-783.38052846651055
 30
0.0
 11
-1418.83147361644
 21
-783.38052846651055
 31
0.0
  0
LINE
  5
13C
  8
1
 62
     7
 10
-1417.83147361644
 20
-862.13052846651033
 30
0.0
 11
-1417.83147361644
 21
-848.13052846651021
 31
0.0
  0
LINE
  5
13D
  8
1
 62
     7
 10
-1416.63147361644
 20
-862.13052846651033
 30
0.0
 11
-1416.63147361644
 21
-848.13052846651021
 31
0.0
  0
LINE
  5
13E
  8
1
 62
     7
 10
-1416.63147361644
 20
-848.13052846651021
 30
0.0
 11
-1413.8970360195181
 21
-799.18224507703371
 31
0.0
  0
LINE
  5
13F
  8
1
 62
     7
 10
-1417.83147361644
 20
-848.13052846651021
 30
0.0
 11
-1415.095921081647
 21
-799.13052846651067
 31
0.0
  0
LINE
  5
140
  8
1
 62
     7
 10
-1413.8970360195181
 20
-799.18224507703371
 30
0.0
 11
-1415.095921081647
 21
-799.13052846651067
 31
0.0
  0
LINE
  5
141
  8
1
 62
     7
 10
-1417.83147361644
 20
-783.13052846651067
 30
0.0
 11
-1417.83147361644
 21
-797.13052846651055
 31
0.0
  0
LINE
  5
142
  8
1
 62
     7
 10
-1416.63147361644
 20
-783.13052846651067
 30
0.0
 11
-1416.63147361644
 21
-797.13052846651055
 31
0.0
  0
LINE
  5
143
  8
1
 62
     7
 10
-1403.5314736164401
 20
-848.13052846651078
 30
0.0
 11
-1403.5314736164401
 21
-732.13052846651067
 31
0.0
  0
LINE
  5
144
  8
1
 62
     7
 10
-1411.9314736164399
 20
-844.13052846651033
 30
0.0
 11
-1411.9314736164399
 21
-848.13052846651021
 31
0.0
  0
LINE
  5
145
  8
1
 62
     7
 10
-1411.9314736164399
 20
-848.13052846651021
 30
0.0
 11
-1416.63147361644
 21
-848.13052846651021
 31
0.0
  0
LINE
  5
146
  8
1
 62
     7
 10
-1417.83147361644
 20
-862.13052846651033
 30
0.0
 11
-1408.6102216350871
 21
-862.13052846651033
 31
0.0
  0
LINE
  5
147
  8
1
 62
     7
 10
-1418.83147361644
 20
-848.38052846651044
 30
0.0
 11
-1417.83147361644
 21
-848.38052846651044
 31
0.0
  0
LINE
  5
148
  8
1
 62
     7
 10
-1417.83147361644
 20
-861.88052846651033
 30
0.0
 11
-1418.83147361644
 21
-861.88052846651033
 31
0.0
  0
LINE
  5
149
  8
1
 62
     7
 10
-1405.7314736164401
 20
-851.13052846651044
 30
0.0
 11
-1406.9314736164399
 21
-851.13052846651044
 31
0.0
  0
LINE
  5
14A
  8
1
 62
     3
 10
-1406.9314736164399
 20
-858.33052846651049
 30
0.0
 11
-1404.9314736164399
 21
-858.33052846651049
 31
0.0
  0
LINE
  5
14B
  8
1
 62
     3
 10
-1406.9314736164399
 20
-851.93052846651028
 30
0.0
 11
-1404.9314736164399
 21
-851.93052846651028
 31
0.0
  0
LINE
  5
14C
  8
1
 62
     7
 10
-1405.7314736164401
 20
-859.13052846651044
 30
0.0
 11
-1405.7314736164401
 21
-851.13052846651044
 31
0.0
  0
LINE
  5
14D
  8
1
 62
     7
 10
-1406.9314736164399
 20
-859.13052846651044
 30
0.0
 11
-1405.7314736164401
 21
-859.13052846651044
 31
0.0
  0
LINE
  5
14E
  8
1
 62
     7
 10
-1405.7314736164401
 20
-859.13052846651044
 30
0.0
 11
-1404.9314736164399
 21
-858.33052846651049
 31
0.0
  0
LINE
  5
14F
  8
1
 62
     7
 10
-1404.9314736164399
 20
-858.33052846651049
 30
0.0
 11
-1404.9314736164399
 21
-851.93052846651028
 31
0.0
  0
LINE
  5
150
  8
1
 62
     7
 10
-1404.9314736164399
 20
-851.93052846651028
 30
0.0
 11
-1405.7314736164401
 21
-851.13052846651044
 31
0.0
  0
LINE
  5
151
  8
1
 62
     7
 10
-1410.9314736164399
 20
-797.13052846651055
 30
0.0
 11
-1410.9314736164399
 21
-843.13052846651033
 31
0.0
  0
LINE
  5
152
  8
1
 62
     7
 10
-1414.4303576417001
 20
-732.13052846651067
 30
0.0
 11
-1411.9314736164399
 21
-732.13052846651067
 31
0.0
  0
LINE
  5
153
  8
1
 62
     7
 10
-1416.63147361644
 20
-783.13052846651067
 30
0.0
 11
-1413.8970360195181
 21
-719.76716358864405
 31
0.0
  0
LINE
  5
154
  8
1
 62
     7
 10
-1417.83147361644
 20
-783.13052846651067
 30
0.0
 11
-1415.095921081647
 21
-719.71544697812078
 31
0.0
  0
LINE
  5
155
  8
1
 62
     7
 10
-1413.8970360195181
 20
-719.76716358864405
 30
0.0
 11
-1415.095921081647
 21
-719.71544697812078
 31
0.0
  0
LINE
  5
156
  8
1
 62
     7
 10
-1410.9314736164399
 20
-783.13052846651067
 30
0.0
 11
-1410.9314736164399
 21
-737.13052846651067
 31
0.0
  0
LINE
  5
157
  8
1
 62
     7
 10
-1407.9314736164399
 20
-797.13052846651055
 30
0.0
 11
-1417.83147361644
 21
-797.13052846651055
 31
0.0
  0
LINE
  5
158
  8
1
 62
     7
 10
-1416.63147361644
 20
-783.13052846651067
 30
0.0
 11
-1407.9314736164399
 21
-783.13052846651067
 31
0.0
  0
LINE
  5
159
  8
1
 62
     7
 10
-1406.9314736164399
 20
-729.13052846651055
 30
0.0
 11
-1405.7314736164401
 21
-729.13052846651055
 31
0.0
  0
LINE
  5
15A
  8
1
 62
     7
 10
-1403.5314736164401
 20
-747.63052846651055
 30
0.0
 11
-1400.33147361644
 21
-747.63052846651055
 31
0.0
  0
LINE
  5
15B
  8
1
 62
     7
 10
-1432.9314736164399
 20
-702.63052846651055
 30
0.0
 11
-1432.9314736164399
 21
-877.63052846651078
 31
0.0
  0
LINE
  5
15C
  8
1
 62
     7
 10
-1400.83147361644
 20
-838.35552846651046
 30
0.0
 11
-1403.5314736164401
 21
-838.35552846651046
 31
0.0
  0
LINE
  5
15D
  8
1
 62
     7
 10
-1400.3314736164409
 20
-832.63052846651078
 30
0.0
 11
-1403.5314736164401
 21
-832.63052846651067
 31
0.0
  0
LINE
  5
15E
  8
1
 62
     7
 10
-1400.83147361644
 20
-741.90552846651042
 30
0.0
 11
-1403.5314736164401
 21
-741.90552846651042
 31
0.0
  0
LINE
  5
15F
  8
1
 62
     7
 10
-1425.9314736164399
 20
-877.63052846651078
 30
0.0
 11
-1432.9314736164399
 21
-877.63052846651078
 31
0.0
  0
LINE
  5
160
  8
1
 62
     7
 10
-1419.9314736164399
 20
-702.63052846651055
 30
0.0
 11
-1418.83147361644
 21
-702.63052846651055
 31
0.0
  0
LINE
  5
161
  8
1
 62
     7
 10
-1432.9314736164399
 20
-702.63052846651055
 30
0.0
 11
-1425.9314736164399
 21
-702.63052846651055
 31
0.0
  0
LINE
  5
162
  8
1
 62
     7
 10
-1417.83147361644
 20
-718.13052846651055
 30
0.0
 11
-1416.63147361644
 21
-718.13052846651055
 31
0.0
  0
LINE
  5
163
  8
1
 62
     7
 10
-1417.83147361644
 20
-731.88052846651055
 30
0.0
 11
-1418.83147361644
 21
-731.88052846651055
 31
0.0
  0
LINE
  5
164
  8
1
 62
     7
 10
-1418.83147361644
 20
-718.38052846651067
 30
0.0
 11
-1417.83147361644
 21
-718.38052846651067
 31
0.0
  0
LINE
  5
165
  8
1
 62
     3
 10
-1404.9314736164399
 20
-721.93052846651051
 30
0.0
 11
-1406.9314736164399
 21
-721.93052846651051
 31
0.0
  0
LINE
  5
166
  8
1
 62
     3
 10
-1404.9314736164399
 20
-728.3305284665106
 30
0.0
 11
-1406.9314736164399
 21
-728.3305284665106
 31
0.0
  0
LINE
  5
167
  8
1
 62
     7
 10
-1405.7314736164401
 20
-729.13052846651055
 30
0.0
 11
-1405.7314736164401
 21
-721.13052846651055
 31
0.0
  0
LINE
  5
168
  8
1
 62
     7
 10
-1405.7314736164401
 20
-721.13052846651055
 30
0.0
 11
-1406.9314736164399
 21
-721.13052846651055
 31
0.0
  0
LINE
  5
169
  8
1
 62
     7
 10
-1404.9314736164399
 20
-721.93052846651051
 30
0.0
 11
-1405.7314736164401
 21
-721.13052846651055
 31
0.0
  0
LINE
  5
16A
  8
1
 62
     7
 10
-1404.9314736164399
 20
-728.3305284665106
 30
0.0
 11
-1404.9314736164399
 21
-721.93052846651051
 31
0.0
  0
LINE
  5
16B
  8
1
 62
     7
 10
-1405.7314736164401
 20
-729.13052846651055
 30
0.0
 11
-1404.9314736164399
 21
-728.3305284665106
 31
0.0
  0
LINE
  5
16C
  8
1
 62
     7
 10
-1416.63147361644
 20
-732.13052846651067
 30
0.0
 11
-1415.63147361644
 21
-732.13052846651067
 31
0.0
  0
LINE
  5
16D
  8
1
 62
     7
 10
-1416.63147361644
 20
-718.13052846651055
 30
0.0
 11
-1416.63147361644
 21
-732.63052846651067
 31
0.0
  0
LINE
  5
16E
  8
1
 62
     7
 10
-1408.6102216350871
 20
-718.13052846651055
 30
0.0
 11
-1416.63147361644
 21
-718.13052846651055
 31
0.0
  0
LINE
  5
16F
  8
1
 62
     7
 10
-1418.83147361644
 20
-877.63052846651078
 30
0.0
 11
-1418.83147361644
 21
-702.63052846651055
 31
0.0
  0
LINE
  5
170
  8
1
 62
     7
 10
-1417.83147361644
 20
-732.63052846651067
 30
0.0
 11
-1417.83147361644
 21
-718.13052846651055
 31
0.0
  0
LINE
  5
171
  8
1
 62
     7
 10
-1417.83147361644
 20
-732.63052846651067
 30
0.0
 11
-1416.63147361644
 21
-732.63052846651067
 31
0.0
  0
LINE
  5
172
  8
1
 62
     7
 10
-1400.33147361644
 20
-837.85552846651058
 30
0.0
 11
-1400.33147361644
 21
-742.40552846651042
 31
0.0
  0
LINE
  5
173
  8
1
 62
     7
 10
-1131.25765473865
 20
-685.13052846651055
 30
0.0
 11
-1113.25765473865
 21
-685.13052846651055
 31
0.0
  0
LINE
  5
174
  8
1
  6
DASHDOT
 62
     3
 10
-1129.601383451341
 20
-695.13052846651067
 30
0.0
 11
-1114.578860783085
 21
-695.13052846651067
 31
0.0
  0
LINE
  5
175
  8
1
  6
DASHDOT
 62
     3
 10
-1122.25765473865
 20
-686.86551131811689
 30
0.0
 11
-1122.25765473865
 21
-701.07907244432909
 31
0.0
  0
LINE
  5
176
  8
1
 62
     7
 10
-1110.25765473865
 20
-688.13052846651055
 30
0.0
 11
-1110.25765473865
 21
-703.45729153607147
 31
0.0
  0
LINE
  5
177
  8
1
 62
     7
 10
-1134.25765473865
 20
-703.45729153607147
 30
0.0
 11
-1134.25765473865
 21
-688.13052846651055
 31
0.0
  0
LINE
  5
178
  8
1
 62
     7
 10
-1433.33147361644
 20
-702.63052846651055
 30
0.0
 11
-1452.33147361644
 21
-702.63052846651055
 31
0.0
  0
LINE
  5
179
  8
1
 62
     7
 10
-1485.33147361644
 20
-763.63052846651055
 30
0.0
 11
-1485.33147361644
 21
-816.63052846651078
 31
0.0
  0
LINE
  5
17A
  8
1
 62
     7
 10
-1454.33147361644
 20
-704.63052846651055
 30
0.0
 11
-1452.33147361644
 21
-702.63052846651055
 31
0.0
  0
LINE
  5
17B
  8
1
 62
     7
 10
-1485.33147361644
 20
-763.63052846651055
 30
0.0
 11
-1484.33147361644
 21
-762.63052846651055
 31
0.0
  0
LINE
  5
17C
  8
1
 62
     7
 10
-1479.33147361644
 20
-726.13052846651055
 30
0.0
 11
-1481.83147361644
 21
-726.13052846651055
 31
0.0
  0
LINE
  5
17D
  8
1
 62
     7
 10
-1482.33147361644
 20
-762.63052846651055
 30
0.0
 11
-1484.33147361644
 21
-762.63052846651055
 31
0.0
  0
LINE
  5
17E
  8
1
 62
     7
 10
-1481.83147361644
 20
-726.13052846651055
 30
0.0
 11
-1482.33147361644
 21
-726.63052846651055
 31
0.0
  0
LINE
  5
17F
  8
1
 62
     7
 10
-1477.33147361644
 20
-707.63052846651067
 30
0.0
 11
-1479.33147361644
 21
-709.63052846651055
 31
0.0
  0
LINE
  5
180
  8
1
 62
     7
 10
-1482.33147361644
 20
-853.63052846651067
 30
0.0
 11
-1482.33147361644
 21
-726.63052846651055
 31
0.0
  0
LINE
  5
181
  8
1
 62
     7
 10
-1479.33147361644
 20
-870.63052846651067
 30
0.0
 11
-1477.33147361644
 21
-872.63052846651067
 31
0.0
  0
LINE
  5
182
  8
1
 62
     7
 10
-1482.33147361644
 20
-853.63052846651067
 30
0.0
 11
-1481.83147361644
 21
-854.13052846651078
 31
0.0
  0
LINE
  5
183
  8
1
 62
     7
 10
-1484.33147361644
 20
-817.63052846651078
 30
0.0
 11
-1482.33147361644
 21
-817.63052846651078
 31
0.0
  0
LINE
  5
184
  8
1
 62
     7
 10
-1477.33147361644
 20
-872.63052846651067
 30
0.0
 11
-1454.33147361644
 21
-872.63052846651067
 31
0.0
  0
LINE
  5
185
  8
1
 62
     7
 10
-1479.33147361644
 20
-870.63052846651067
 30
0.0
 11
-1479.33147361644
 21
-685.13052846651055
 31
0.0
  0
LINE
  5
186
  8
1
 62
     7
 10
-1481.83147361644
 20
-854.13052846651078
 30
0.0
 11
-1479.33147361644
 21
-854.13052846651078
 31
0.0
  0
LINE
  5
187
  8
1
 62
     7
 10
-1484.33147361644
 20
-817.63052846651078
 30
0.0
 11
-1485.33147361644
 21
-816.63052846651078
 31
0.0
  0
LINE
  5
188
  8
1
 62
     7
 10
-1452.33147361644
 20
-877.63052846651078
 30
0.0
 11
-1454.33147361644
 21
-875.63052846651078
 31
0.0
  0
LINE
  5
189
  8
1
 62
     7
 10
-1452.33147361644
 20
-877.63052846651078
 30
0.0
 11
-1433.33147361644
 21
-877.63052846651078
 31
0.0
  0
LINE
  5
18A
  8
1
 62
     7
 10
-1477.33147361644
 20
-707.63052846651067
 30
0.0
 11
-1454.33147361644
 21
-707.63052846651067
 31
0.0
  0
LINE
  5
18B
  8
1
 62
     7
 10
-1454.33147361644
 20
-875.63052846651078
 30
0.0
 11
-1454.33147361644
 21
-704.63052846651055
 31
0.0
  0
LINE
  5
18C
  8
1
 62
     7
 10
-1433.33147361644
 20
-877.63052846651078
 30
0.0
 11
-1433.33147361644
 21
-702.63052846651055
 31
0.0
  0
LINE
  5
18D
  8
1
  6
DASHDOT
 62
     3
 10
-1122.25765473865
 20
-834.63052846651055
 30
0.0
 11
-1122.25765473865
 21
-820.63052846651055
 31
0.0
  0
LINE
  5
18E
  8
1
  6
DASHDOT
 62
     3
 10
-1083.719524270241
 20
-767.88052846651067
 30
0.0
 11
-1095.843879923224
 21
-774.88052846651055
 31
0.0
  0
LINE
  5
18F
  8
1
  6
DASHDOT
 62
     3
 10
-1160.795785207056
 20
-767.88052846651067
 30
0.0
 11
-1148.6714295540739
 21
-774.88052846651055
 31
0.0
  0
LINE
  5
190
  8
1
  6
DASHDOT
 62
     3
 10
-1122.25765473865
 20
-745.38052846651055
 30
0.0
 11
-1122.25765473865
 21
-759.88052846651067
 31
0.0
  0
LINE
  5
191
  8
1
  6
DASHDOT
 62
     3
 10
-1161.0122915580041
 20
-812.50552846651067
 30
0.0
 11
-1148.4549232031291
 21
-805.25552846651067
 31
0.0
  0
LINE
  5
192
  8
1
  6
DASHDOT
 62
     3
 10
-1083.503017919295
 20
-812.50552846651067
 30
0.0
 11
-1096.0603862741709
 21
-805.25552846651067
 31
0.0
  0
LINE
  5
193
  8
1
 62
     7
 10
-1339.4306035953191
 20
-685.13052846651055
 30
0.0
 11
-1336.530603595319
 21
-685.13052846651055
 31
0.0
  0
LINE
  5
194
  8
1
 62
     7
 10
-1339.4306035953191
 20
-690.88052846651055
 30
0.0
 11
-1336.530603595319
 21
-690.88052846651055
 31
0.0
  0
LINE
  5
195
  8
1
  6
DASHDOT
 62
     3
 10
-1340.9809015245801
 20
-695.13052846651067
 30
0.0
 11
-1334.9780507217699
 21
-695.13052846651067
 31
0.0
  0
LINE
  5
196
  8
1
 62
     7
 10
-1339.4306035953191
 20
-699.38052846651055
 30
0.0
 11
-1336.530603595319
 21
-699.38052846651055
 31
0.0
  0
LINE
  5
197
  8
1
 62
     7
 10
-1339.4306035953191
 20
-725.13052846651055
 30
0.0
 11
-1336.530603595319
 21
-725.13052846651055
 31
0.0
  0
LINE
  5
198
  8
1
 62
     7
 10
-1339.4306035953191
 20
-685.13052846651055
 30
0.0
 11
-1339.4306035953191
 21
-725.13052846651055
 31
0.0
  0
LINE
  5
199
  8
1
 62
     7
 10
-1482.2314736164401
 20
-685.13052846651055
 30
0.0
 11
-1479.33147361644
 21
-685.13052846651055
 31
0.0
  0
LINE
  5
19A
  8
1
  6
DASHDOT
 62
     3
 10
-1483.5070857274691
 20
-695.13052846651067
 30
0.0
 11
-1477.5070857274691
 21
-695.13052846651067
 31
0.0
  0
LINE
  5
19B
  8
1
 62
     7
 10
-1482.2314736164401
 20
-725.13052846651055
 30
0.0
 11
-1479.33147361644
 21
-725.13052846651055
 31
0.0
  0
LINE
  5
19C
  8
1
 62
     7
 10
-1482.2314736164401
 20
-685.13052846651055
 30
0.0
 11
-1482.2314736164401
 21
-725.13052846651055
 31
0.0
  0
LINE
  5
19D
  8
1
 62
     7
 10
-1326.6806035953191
 20
-682.63052846651067
 30
0.0
 11
-1324.3806035953189
 21
-682.63052846651067
 31
0.0
  0
LINE
  5
19E
  8
1
 62
     7
 10
-1324.3806035953189
 20
-682.63052846651067
 30
0.0
 11
-1324.3806035953189
 21
-707.63052846651067
 31
0.0
  0
LINE
  5
19F
  8
1
 62
     7
 10
-1326.6806035953191
 20
-682.63052846651067
 30
0.0
 11
-1326.6806035953191
 21
-707.63052846651067
 31
0.0
  0
LINE
  5
1A0
  8
1
 62
     7
 10
-1324.7306035953191
 20
-678.63052846651067
 30
0.0
 11
-1324.7306035953191
 21
-682.63052846651067
 31
0.0
  0
LINE
  5
1A1
  8
1
 62
     7
 10
-1325.1306035953189
 20
-678.63052846651067
 30
0.0
 11
-1325.1306035953189
 21
-682.63052846651067
 31
0.0
  0
LINE
  5
1A2
  8
1
 62
     7
 10
-1325.530603595319
 20
-678.63052846651067
 30
0.0
 11
-1325.530603595319
 21
-682.63052846651067
 31
0.0
  0
LINE
  5
1A3
  8
1
 62
     7
 10
-1325.9306035953191
 20
-678.63052846651067
 30
0.0
 11
-1325.9306035953191
 21
-682.63052846651067
 31
0.0
  0
LINE
  5
1A4
  8
1
 62
     7
 10
-1326.330603595319
 20
-678.63052846651067
 30
0.0
 11
-1326.330603595319
 21
-682.63052846651067
 31
0.0
  0
LINE
  5
1A5
  8
1
 62
     7
 10
-1260.7306035953191
 20
-732.13052846651067
 30
0.0
 11
-1260.7306035953191
 21
-747.63052846651055
 31
0.0
  0
LINE
  5
1A6
  8
1
 62
     7
 10
-1263.544817157692
 20
-729.31631490413758
 30
0.0
 11
-1260.7306035953191
 21
-732.13052846651067
 31
0.0
  0
LINE
  5
1A7
  8
1
 62
     7
 10
-1260.7306035953191
 20
-832.63052846651067
 30
0.0
 11
-1260.7306035953191
 21
-848.13052846651078
 31
0.0
  0
LINE
  5
1A8
  8
1
 62
     7
 10
-1269.1306035953189
 20
-844.13052846651067
 30
0.0
 11
-1269.1306035953189
 21
-850.13052846651067
 31
0.0
  0
LINE
  5
1A9
  8
1
 62
     7
 10
-1276.030603595319
 20
-735.63463070792432
 30
0.0
 11
-1278.1306035953189
 21
-735.63463070792432
 31
0.0
  0
LINE
  5
1AA
  8
1
 62
     7
 10
-1276.030603595319
 20
-840.63052846651067
 30
0.0
 11
-1276.030603595319
 21
-877.63052846651078
 31
0.0
  0
LINE
  5
1AB
  8
1
 62
     7
 10
-1276.030603595319
 20
-877.63052846651078
 30
0.0
 11
-1277.1306035953189
 21
-877.63052846651078
 31
0.0
  0
LINE
  5
1AC
  8
1
 62
     7
 10
-1276.030603595319
 20
-862.13052846651078
 30
0.0
 11
-1278.1306035953189
 21
-862.13052846651078
 31
0.0
  0
LINE
  5
1AD
  8
1
 62
     7
 10
-1283.1306035953189
 20
-848.13052846651078
 30
0.0
 11
-1283.1306035953189
 21
-855.53052846651076
 31
0.0
  0
LINE
  5
1AE
  8
1
 62
     7
 10
-1276.030603595319
 20
-702.63052846651055
 30
0.0
 11
-1277.1306035953189
 21
-702.63052846651055
 31
0.0
  0
LINE
  5
1AF
  8
1
 62
     7
 10
-1280.1306035953189
 20
-705.17278004231696
 30
0.0
 11
-1280.1306035953189
 21
-718.63052846651055
 31
0.0
  0
LINE
  5
1B0
  8
1
 62
     7
 10
-1277.1306035953189
 20
-704.63052846651055
 30
0.0
 11
-1276.030603595319
 21
-704.63052846651055
 31
0.0
  0
LINE
  5
1B1
  8
1
 62
     7
 10
-1278.1306035953189
 20
-705.63052846651055
 30
0.0
 11
-1278.1306035953189
 21
-721.13052846651055
 31
0.0
  0
LINE
  5
1B2
  8
1
 62
     7
 10
-1283.1306035953189
 20
-702.63052846651055
 30
0.0
 11
-1283.1306035953189
 21
-718.63052846651055
 31
0.0
  0
LINE
  5
1B3
  8
1
 62
     7
 10
-1280.1306035953189
 20
-718.63052846651055
 30
0.0
 11
-1280.1306035953189
 21
-737.08827689070415
 31
0.0
  0
LINE
  5
1B4
  8
1
 62
     7
 10
-1277.1306035953189
 20
-739.63052846651055
 30
0.0
 11
-1276.030603595319
 21
-739.63052846651055
 31
0.0
  0
LINE
  5
1B5
  8
1
 62
     7
 10
-1283.1306035953189
 20
-731.63052846651055
 30
0.0
 11
-1283.1306035953189
 21
-768.13052846651055
 31
0.0
  0
LINE
  5
1B6
  8
1
 62
     7
 10
-1292.530603595319
 20
-768.13052846651055
 30
0.0
 11
-1292.530603595319
 21
-732.13052846651067
 31
0.0
  0
LINE
  5
1B7
  8
1
 62
     7
 10
-1281.0306035953181
 20
-812.13052846651078
 30
0.0
 11
-1281.0306035953181
 21
-837.3555284665108
 31
0.0
  0
LINE
  5
1B8
  8
1
 62
     7
 10
-1283.1306035953189
 20
-812.13052846651078
 30
0.0
 11
-1283.1306035953189
 21
-848.13052846651078
 31
0.0
  0
LINE
  5
1B9
  8
1
 62
     7
 10
-1290.1306035953189
 20
-812.13052846651078
 30
0.0
 11
-1290.1306035953189
 21
-877.63052846651078
 31
0.0
  0
LINE
  5
1BA
  8
1
 62
     7
 10
-1290.530603595319
 20
-812.13052846651078
 30
0.0
 11
-1290.530603595319
 21
-877.63052846651078
 31
0.0
  0
LINE
  5
1BB
  8
1
 62
     7
 10
-1292.530603595319
 20
-812.13052846651078
 30
0.0
 11
-1292.530603595319
 21
-848.13052846651078
 31
0.0
  0
LINE
  5
1BC
  8
1
 62
     7
 10
-1283.1306035953189
 20
-870.2305284665108
 30
0.0
 11
-1283.1306035953189
 21
-877.63052846651078
 31
0.0
  0
LINE
  5
1BD
  8
1
 62
     7
 10
-1277.1306035953189
 20
-875.63052846651078
 30
0.0
 11
-1276.030603595319
 21
-875.63052846651078
 31
0.0
  0
LINE
  5
1BE
  8
1
 62
     7
 10
-1278.1306035953189
 20
-843.63052846651078
 30
0.0
 11
-1278.1306035953189
 21
-874.63052846651078
 31
0.0
  0
LINE
  5
1BF
  8
1
 62
     7
 10
-1277.1306035953189
 20
-840.63052846651067
 30
0.0
 11
-1276.030603595319
 21
-840.63052846651067
 31
0.0
  0
LINE
  5
1C0
  8
1
 62
     7
 10
-1276.030603595319
 20
-842.63052846651078
 30
0.0
 11
-1277.1306035953189
 21
-842.63052846651078
 31
0.0
  0
LINE
  5
1C1
  8
1
 62
     7
 10
-1422.9314736164399
 20
-705.17278004231696
 30
0.0
 11
-1422.9314736164399
 21
-875.08827689070415
 31
0.0
  0
LINE
  5
1C2
  8
1
 62
     7
 10
-1425.9314736164399
 20
-702.63052846651055
 30
0.0
 11
-1425.9314736164399
 21
-877.63052846651078
 31
0.0
  0
ARC
  5
1C3
  8
1
 62
     7
 10
-1169.6338090781489
 20
-837.50668280600905
 30
0.0
 40
4.0000000000000071
 50
85.265318006237806
 51
4.7346819937529814
  0
ARC
  5
1C4
  8
1
 62
     7
 10
-1139.598530760519
 20
-725.41349810514282
 30
0.0
 40
3.9999999999996709
 50
354.77282567907122
 51
244.73468199378999
  0
ARC
  5
1C5
  8
1
 62
     7
 10
-1139.598530760519
 20
-854.84755882787829
 30
0.0
 40
3.999999999999901
 50
115.2653180062364
 51
5.2271743209223951
  0
ARC
  5
1C6
  8
1
 62
     7
 10
-1623.8163024483481
 20
-788.75552846651055
 30
0.0
 40
29.624999999999901
 50
297.02839149488051
 51
242.97160850511781
  0
ARC
  5
1C7
  8
1
 62
     7
 10
-1407.9314736164399
 20
-798.13052846651055
 30
0.0
 40
1.0
 50
0.0
 51
90.0
  0
ARC
  5
1C8
  8
1
 62
     7
 10
-1407.9314736164399
 20
-782.13052846651067
 30
0.0
 40
1.0
 50
270.0
 51
0.0
  0
ARC
  5
1C9
  8
1
  6
DASHDOT
 62
     3
 10
-1122.25765473865
 20
-790.13052846651067
 30
0.0
 40
37.499999999999929
 50
79.940862489374979
 51
100.0499002394252
  0
ARC
  5
1CA
  8
1
 62
     7
 10
-1327.030603595319
 20
-751.38052846651067
 30
0.0
 40
6.7499999999999636
 50
59.999999999999822
 51
120.0000000000002
  0
ARC
  5
1CB
  8
1
 62
     7
 10
-1327.030603595319
 20
-751.38052846651067
 30
0.0
 40
6.7499999999999636
 50
300.00000000000011
 51
59.999999999999822
  0
ARC
  5
1CC
  8
1
 62
     7
 10
-1327.030603595319
 20
-751.38052846651067
 30
0.0
 40
6.7499999999999636
 50
120.0000000000002
 51
239.9999999999998
  0
ARC
  5
1CD
  8
1
 62
     7
 10
-1327.030603595319
 20
-751.38052846651067
 30
0.0
 40
6.7499999999999636
 50
239.9999999999998
 51
300.00000000000011
  0
ARC
  5
1CE
  8
1
 62
     7
 10
-1327.030603595319
 20
-828.88052846651067
 30
0.0
 40
6.7499999999999636
 50
59.999999999999822
 51
120.0000000000002
  0
ARC
  5
1CF
  8
1
 62
     7
 10
-1327.030603595319
 20
-828.88052846651067
 30
0.0
 40
6.7499999999999636
 50
120.0000000000002
 51
239.9999999999998
  0
ARC
  5
1D0
  8
1
 62
     7
 10
-1327.030603595319
 20
-828.88052846651067
 30
0.0
 40
6.7499999999999636
 50
300.00000000000011
 51
59.999999999999822
  0
ARC
  5
1D1
  8
1
 62
     7
 10
-1327.030603595319
 20
-828.88052846651067
 30
0.0
 40
6.7499999999999636
 50
239.9999999999998
 51
300.00000000000011
  0
ARC
  5
1D2
  8
1
 62
     7
 10
-1614.8163024483481
 20
-688.13052846651055
 30
0.0
 40
3.0
 50
0.0
 51
90.0
  0
ARC
  5
1D3
  8
1
 62
     7
 10
-1608.8163024483481
 20
-710.13052846651055
 30
0.0
 40
3.0
 50
180.0
 51
270.0
  0
ARC
  5
1D4
  8
1
 62
     7
 10
-1606.8163024483481
 20
-716.13052846651067
 30
0.0
 40
3.0
 50
0.0
 51
90.0
  0
ARC
  5
1D5
  8
1
 62
     7
 10
-1640.8163024483481
 20
-716.13052846651067
 30
0.0
 40
3.0
 50
90.0
 51
180.0
  0
ARC
  5
1D6
  8
1
 62
     7
 10
-1638.8163024483481
 20
-710.13052846651055
 30
0.0
 40
3.0
 50
270.0
 51
0.0
  0
ARC
  5
1D7
  8
1
 62
     7
 10
-1632.8163024483481
 20
-688.13052846651055
 30
0.0
 40
3.0
 50
90.0
 51
180.0
  0
ARC
  5
1D8
  8
1
 62
     7
 10
-1623.8163024483481
 20
-790.13052846651067
 30
0.0
 40
14.999999999999931
 50
103.49339882155169
 51
76.506601178448278
  0
ARC
  5
1D9
  8
1
 62
     7
 10
-1265.809351613967
 20
-719.810456929427
 30
0.0
 40
1.679928462916499
 50
357.85196964707808
 51
90.0
  0
ARC
  5
1DA
  8
1
 62
     7
 10
-1269.1306035953189
 20
-737.13052846651067
 30
0.0
 40
1.0
 50
0.0
 51
90.0
  0
ARC
  5
1DB
  8
1
 62
     7
 10
-1274.3034329380289
 20
-735.33437274682194
 30
0.0
 40
1.503844280311379
 50
11.65657304076238
 51
90.0
  0
ARC
  5
1DC
  8
1
 62
     7
 10
-1272.356725174586
 20
-740.26440567690634
 30
0.0
 40
0.4738784207329445
 50
180.0
 51
291.42797317075389
  0
ARC
  5
1DD
  8
1
 62
     7
 10
-1274.609176497624
 20
-735.61130716346099
 30
0.0
 40
0.580778696950492
 50
355.00480576512427
 51
90.0
  0
ARC
  5
1DE
  8
1
 62
     7
 10
-1272.551657668484
 20
-740.44613201008599
 30
0.0
 40
1.4789459268340579
 50
180.0
 51
260.673718098763
  0
ARC
  5
1DF
  8
1
 62
     7
 10
-1272.551657668484
 20
-839.81492492293512
 30
0.0
 40
1.4789459268343521
 50
99.326281901235461
 51
180.0
  0
ARC
  5
1E0
  8
1
 62
     7
 10
-1274.609176497624
 20
-844.64974976956023
 30
0.0
 40
0.5807786969504605
 50
270.0
 51
4.9951942348756324
  0
ARC
  5
1E1
  8
1
 62
     7
 10
-1272.356725174586
 20
-839.99665125611511
 30
0.0
 40
0.4738784207320856
 50
68.572026829246028
 51
180.0
  0
ARC
  5
1E2
  8
1
 62
     7
 10
-1274.3034329380289
 20
-844.9266841861994
 30
0.0
 40
1.5038442803113401
 50
270.0
 51
348.34342695923749
  0
ARC
  5
1E3
  8
1
 62
     7
 10
-1269.1306035953189
 20
-843.13052846651067
 30
0.0
 40
1.0
 50
270.0
 51
0.0
  0
ARC
  5
1E4
  8
1
 62
     7
 10
-1282.474157105657
 20
-857.17784214096446
 30
0.0
 40
3.5746153000593188
 50
304.30845462057607
 51
58.483226858687928
  0
ARC
  5
1E5
  8
1
 62
     7
 10
-1282.641390649934
 20
-868.56068061176074
 30
0.0
 40
3.596013098522068
 50
301.38568480336301
 51
54.57090773897054
  0
ARC
  5
1E6
  8
1
 62
     7
 10
-1623.8163024483481
 20
-790.13052846651067
 30
0.0
 40
87.499999999999957
 50
97.882549247617916
 51
180.0
  0
ARC
  5
1E7
  8
1
 62
     7
 10
-1623.8163024483481
 20
-790.13052846651067
 30
0.0
 40
87.5
 50
180.0
 51
73.493766023396162
  0
ARC
  5
1E8
  8
1
 62
     7
 10
-1623.8163024483481
 20
-790.13052846651067
 30
0.0
 40
82.499999999999957
 50
98.363601789026717
 51
180.0
  0
ARC
  5
1E9
  8
1
 62
     7
 10
-1623.8163024483481
 20
-790.13052846651067
 30
0.0
 40
82.5
 50
180.0
 51
81.636398210973297
  0
ARC
  5
1EA
  8
1
 62
     7
 10
-1623.8163024483481
 20
-790.13052846651067
 30
0.0
 40
87.499999999999872
 50
76.506233976602275
 51
82.117450752382098
  0
ARC
  5
1EB
  8
1
 62
     7
 10
-1169.6338090781489
 20
-742.75437412701172
 30
0.0
 40
3.9999999999995821
 50
355.26531800623229
 51
274.73468199376219
  0
ARC
  5
1EC
  8
1
 62
     7
 10
-1186.974685100018
 20
-772.78965244464155
 30
0.0
 40
4.0000000000003864
 50
25.265318006220671
 51
275.22717432093663
  0
ARC
  5
1ED
  8
1
 62
     7
 10
-1186.974685100018
 20
-807.47140448837922
 30
0.0
 40
4.0000000000000711
 50
84.772825679079816
 51
334.73468199375611
  0
ARC
  5
1EE
  8
1
 62
     7
 10
-1104.916778716781
 20
-854.84755882787852
 30
0.0
 40
3.9999999999997211
 50
174.772825679063
 51
64.734681993766245
  0
ARC
  5
1EF
  8
1
 62
     7
 10
-1074.8815003991499
 20
-837.50668280600951
 30
0.0
 40
3.9999999999996279
 50
175.26531800622431
 51
94.734681993778537
  0
ARC
  5
1F0
  8
1
 62
     7
 10
-1057.540624377282
 20
-807.47140448837979
 30
0.0
 40
3.9999999999995151
 50
205.26531800622479
 51
90.0
  0
ARC
  5
1F1
  8
1
 62
     7
 10
-1057.540624377282
 20
-807.47140448837979
 30
0.0
 40
4.0
 50
90.0
 51
95.227174320936669
  0
ARC
  5
1F2
  8
1
 62
     7
 10
-1057.540624377282
 20
-772.78965244464177
 30
0.0
 40
3.999999999999948
 50
264.77282567906332
 51
154.73468199377081
  0
ARC
  5
1F3
  8
1
 62
     7
 10
-1074.8815003991499
 20
-742.75437412701172
 30
0.0
 40
4.0000000000000071
 50
265.26531800623781
 51
184.73468199377561
  0
ARC
  5
1F4
  8
1
 62
     7
 10
-1104.916778716781
 20
-725.41349810514282
 30
0.0
 40
4.0000000000000044
 50
295.26531800623582
 51
185.2271743209273
  0
ARC
  5
1F5
  8
1
 62
     7
 10
-1145.7365258503
 20
-714.67564180560657
 30
0.0
 40
15.023397229474551
 50
287.28427974527932
 51
315.9242226727805
  0
ARC
  5
1F6
  8
1
 62
     7
 10
-1122.25765473865
 20
-733.13052846651067
 30
0.0
 40
15.000000000000311
 50
32.251158773730332
 51
147.74884122626969
  0
ARC
  5
1F7
  8
1
 62
     7
 10
-1098.778783626999
 20
-714.67564180560657
 30
0.0
 40
15.02339722947427
 50
224.07577732721961
 51
252.71572025472051
  0
ARC
  5
1F8
  8
1
 62
     7
 10
-1197.7125413995541
 20
-766.65165735486073
 30
0.0
 40
15.02339722947452
 50
314.07577732721938
 51
342.7157202547213
  0
ARC
  5
1F9
  8
1
 62
     7
 10
-1179.25765473865
 20
-790.13052846651067
 30
0.0
 40
15.00000000000008
 50
122.2511587737314
 51
237.74884122626921
  0
ARC
  5
1FA
  8
1
 62
     7
 10
-1197.7125413995541
 20
-813.60939957816049
 30
0.0
 40
15.02339722947405
 50
17.284279745278969
 51
45.924222672779862
  0
ARC
  5
1FB
  8
1
 62
     7
 10
-1145.7365258503
 20
-865.58541512741442
 30
0.0
 40
15.02339722947435
 50
44.075777327219853
 51
72.715720254720054
  0
ARC
  5
1FC
  8
1
 62
     7
 10
-1122.25765473865
 20
-847.13052846651078
 30
0.0
 40
15.00000000000025
 50
212.25115877372991
 51
327.74884122627037
  0
ARC
  5
1FD
  8
1
 62
     7
 10
-1098.778783626999
 20
-865.58541512741442
 30
0.0
 40
15.023397229474551
 50
107.28427974527921
 51
135.9242226727799
  0
ARC
  5
1FE
  8
1
 62
     7
 10
-1046.802768077745
 20
-813.60939957816049
 30
0.0
 40
15.02339722947452
 50
134.07577732721921
 51
162.71572025472091
  0
ARC
  5
1FF
  8
1
 62
     7
 10
-1065.25765473865
 20
-790.13052846651078
 30
0.0
 40
15.00000000000008
 50
302.25115877373139
 51
57.748841226268397
  0
ARC
  5
200
  8
1
 62
     7
 10
-1046.802768077745
 20
-766.65165735486073
 30
0.0
 40
15.02339722947405
 50
197.28427974527901
 51
225.9242226727811
  0
ARC
  5
201
  8
1
 62
     7
 10
-1122.25765473865
 20
-790.13052846651067
 30
0.0
 40
63.999999999999993
 50
107.2842797452784
 51
162.71572025472159
  0
ARC
  5
202
  8
1
 62
     7
 10
-1122.25765473865
 20
-790.13052846651067
 30
0.0
 40
64.000000000000625
 50
17.284279745278209
 51
72.715720254721674
  0
ARC
  5
203
  8
1
 62
     7
 10
-1122.25765473865
 20
-790.13052846651067
 30
0.0
 40
64.000000000000099
 50
287.2842797452783
 51
342.71572025472159
  0
ARC
  5
204
  8
1
 62
     7
 10
-1122.25765473865
 20
-790.13052846651067
 30
0.0
 40
64.000000000000654
 50
197.2842797452783
 51
252.7157202547217
  0
ARC
  5
205
  8
1
 62
     7
 10
-1411.9314736164399
 20
-843.13052846651033
 30
0.0
 40
1.0
 50
270.0
 51
0.0
  0
ARC
  5
206
  8
1
 62
     7
 10
-1408.6102216350871
 20
-860.4506000035941
 30
0.0
 40
1.679928462916449
 50
270.0
 51
2.14803035292196
  0
ARC
  5
207
  8
1
 62
     7
 10
-1411.9314736164399
 20
-737.13052846651067
 30
0.0
 40
1.0
 50
0.0
 51
90.0
  0
ARC
  5
208
  8
1
 62
     7
 10
-1408.6102216350871
 20
-719.810456929427
 30
0.0
 40
1.679928462916499
 50
357.85196964707808
 51
90.0
  0
ARC
  5
209
  8
1
 62
     7
 10
-1113.25765473865
 20
-688.13052846651055
 30
0.0
 40
3.0
 50
0.0
 51
90.0
  0
ARC
  5
20A
  8
1
 62
     7
 10
-1131.25765473865
 20
-688.13052846651055
 30
0.0
 40
3.0
 50
90.0
 51
180.0
  0
ARC
  5
20B
  8
1
  6
DASHDOT
 62
     3
 10
-1122.25765473865
 20
-790.13052846651067
 30
0.0
 40
37.50000000000032
 50
140.067600421078
 51
161.054282586661
  0
ARC
  5
20C
  8
1
  6
DASHDOT
 62
     3
 10
-1122.25765473865
 20
-790.13052846651067
 30
0.0
 40
37.499999999999908
 50
260.87076310977233
 51
279.31574115633578
  0
ARC
  5
20D
  8
1
  6
DASHDOT
 62
     3
 10
-1122.25765473865
 20
-790.13052846651067
 30
0.0
 40
37.499999999999751
 50
319.505305458988
 51
340.73535243209119
  0
ARC
  5
20E
  8
1
  6
DASHDOT
 62
     3
 10
-1122.25765473865
 20
-790.13052846651067
 30
0.0
 40
37.500000000000028
 50
19.940862489375011
 51
40.049900239425448
  0
ARC
  5
20F
  8
1
  6
DASHDOT
 62
     3
 10
-1122.25765473865
 20
-790.13052846651067
 30
0.0
 40
37.499999999999567
 50
198.60492121434069
 51
221.3514713175195
  0
ARC
  5
210
  8
1
 62
     7
 10
-1281.028519356975
 20
-875.52844422816725
 30
0.0
 40
3.0338372528344171
 50
17.21553299495643
 51
72.784467005048953
  0
ARC
  5
211
  8
1
 62
     7
 10
-1281.028519356975
 20
-842.73261270485443
 30
0.0
 40
3.0338372528345681
 50
287.2155329949511
 51
342.78446700504361
  0
CIRCLE
  5
212
  8
1
 62
     7
 10
-1632.27463578168
 20
-819.82491563712563
 30
0.0
 40
1.25
  0
CIRCLE
  5
213
  8
1
 62
     7
 10
-1615.3579691150151
 20
-819.82491563712563
 30
0.0
 40
1.25
  0
CIRCLE
  5
214
  8
1
 62
     7
 10
-1623.8163024483481
 20
-790.13052846651067
 30
0.0
 40
27.5
  0
CIRCLE
  5
215
  8
1
  6
DASHDOT
 62
     3
 10
-1122.25765473865
 20
-790.13052846651067
 30
0.0
 40
45.303711254904997
  0
CIRCLE
  5
216
  8
1
 62
     7
 10
-1122.25765473865
 20
-790.13052846651067
 30
0.0
 40
19.0
  0
CIRCLE
  5
217
  8
1
 62
     7
 10
-1122.25765473865
 20
-790.13052846651067
 30
0.0
 40
15.0
  0
CIRCLE
  5
218
  8
1
 62
     7
 10
-1623.8163024483481
 20
-790.13052846651067
 30
0.0
 40
46.0
  0
CIRCLE
  5
219
  8
1
 62
     7
 10
-1623.8163024483481
 20
-695.13052846651067
 30
0.0
 40
4.25
  0
CIRCLE
  5
21A
  8
1
 62
     7
 10
-1623.8163024483481
 20
-790.13052846651067
 30
0.0
 40
64.0
  0
CIRCLE
  5
21B
  8
1
 62
     7
 10
-1122.25765473865
 20
-790.13052846651067
 30
0.0
 40
85.5
  0
CIRCLE
  5
21C
  8
1
 62
     7
 10
-1122.25765473865
 20
-790.13052846651067
 30
0.0
 40
87.5
  0
CIRCLE
  5
21D
  8
1
 62
     7
 10
-1074.8815003991499
 20
-742.75437412701172
 30
0.0
 40
2.600000000001045
  0
CIRCLE
  5
21E
  8
1
 62
     7
 10
-1057.540624377282
 20
-772.78965244464177
 30
0.0
 40
2.600000000001045
  0
CIRCLE
  5
21F
  8
1
 62
     7
 10
-1057.540624377282
 20
-807.47140448837979
 30
0.0
 40
2.6000000000001351
  0
CIRCLE
  5
220
  8
1
 62
     7
 10
-1074.8815003991499
 20
-837.50668280600951
 30
0.0
 40
2.6000000000001351
  0
CIRCLE
  5
221
  8
1
 62
     7
 10
-1104.916778716781
 20
-854.84755882787852
 30
0.0
 40
2.5999999999999091
  0
CIRCLE
  5
222
  8
1
 62
     7
 10
-1139.598530760519
 20
-854.84755882787829
 30
0.0
 40
2.5999999999999091
  0
CIRCLE
  5
223
  8
1
 62
     7
 10
-1169.6338090781489
 20
-837.50668280600905
 30
0.0
 40
2.5999999999999091
  0
CIRCLE
  5
224
  8
1
 62
     7
 10
-1186.974685100018
 20
-807.47140448837922
 30
0.0
 40
2.5999999999999091
  0
CIRCLE
  5
225
  8
1
 62
     7
 10
-1186.974685100018
 20
-772.78965244464155
 30
0.0
 40
2.5999999999999091
  0
CIRCLE
  5
226
  8
1
 62
     7
 10
-1169.6338090781489
 20
-742.75437412701172
 30
0.0
 40
2.5999999999999091
  0
CIRCLE
  5
227
  8
1
 62
     7
 10
-1139.598530760519
 20
-725.41349810514282
 30
0.0
 40
2.5999999999989991
  0
CIRCLE
  5
228
  8
1
 62
     7
 10
-1104.916778716781
 20
-725.41349810514282
 30
0.0
 40
2.5999999999999091
  0
CIRCLE
  5
229
  8
1
 62
     7
 10
-1122.25765473865
 20
-790.13052846651067
 30
0.0
 40
72.0
  0
CIRCLE
  5
22A
  8
1
 62
     7
 10
-1122.25765473865
 20
-725.13052846651055
 30
0.0
 40
4.0
  0
CIRCLE
  5
22B
  8
1
 62
     7
 10
-1122.25765473865
 20
-725.13052846651055
 30
0.0
 40
3.0
  0
CIRCLE
  5
22C
  8
1
 62
     7
 10
-1187.2576547386491
 20
-790.13052846651067
 30
0.0
 40
3.0
  0
CIRCLE
  5
22D
  8
1
 62
     7
 10
-1187.2576547386491
 20
-790.13052846651067
 30
0.0
 40
4.0
  0
CIRCLE
  5
22E
  8
1
 62
     7
 10
-1122.25765473865
 20
-855.13052846651078
 30
0.0
 40
3.0
  0
CIRCLE
  5
22F
  8
1
 62
     7
 10
-1122.25765473865
 20
-855.13052846651078
 30
0.0
 40
4.0
  0
CIRCLE
  5
230
  8
1
 62
     7
 10
-1057.25765473865
 20
-790.13052846651078
 30
0.0
 40
3.0
  0
CIRCLE
  5
231
  8
1
 62
     7
 10
-1057.25765473865
 20
-790.13052846651078
 30
0.0
 40
4.0
  0
CIRCLE
  5
232
  8
1
 62
     7
 10
-1122.25765473865
 20
-790.13052846651067
 30
0.0
 40
60.0
  0
CIRCLE
  5
233
  8
1
 62
     7
 10
-1122.25765473865
 20
-790.13052846651067
 30
0.0
 40
48.5
  0
CIRCLE
  5
234
  8
1
 62
     7
 10
-1122.25765473865
 20
-695.13052846651067
 30
0.0
 40
4.25
  0
CIRCLE
  5
235
  8
1
 62
     3
 10
-1122.25765473865
 20
-790.13052846651067
 30
0.0
 40
42.5
  0
CIRCLE
  5
236
  8
1
 62
     7
 10
-1122.25765473865
 20
-827.63052846651055
 30
0.0
 40
3.2000000000000459
  0
CIRCLE
  5
237
  8
1
 62
     3
 10
-1122.25765473865
 20
-827.63052846651055
 30
0.0
 40
4.0
  0
CIRCLE
  5
238
  8
1
 62
     7
 10
-1089.7817020967341
 20
-771.38052846651067
 30
0.0
 40
3.200000000001181
  0
CIRCLE
  5
239
  8
1
 62
     3
 10
-1089.7817020967341
 20
-771.38052846651067
 30
0.0
 40
4.0
  0
CIRCLE
  5
23A
  8
1
 62
     7
 10
-1154.7336073805659
 20
-771.38052846651067
 30
0.0
 40
3.1999999999998181
  0
CIRCLE
  5
23B
  8
1
 62
     3
 10
-1154.7336073805659
 20
-771.38052846651067
 30
0.0
 40
4.0
  0
CIRCLE
  5
23C
  8
1
 62
     7
 10
-1122.25765473865
 20
-752.63052846651055
 30
0.0
 40
4.25
  0
CIRCLE
  5
23D
  8
1
 62
     7
 10
-1154.7336073805659
 20
-808.88052846651055
 30
0.0
 40
4.25
  0
CIRCLE
  5
23E
  8
1
 62
     7
 10
-1089.7817020967341
 20
-808.88052846651055
 30
0.0
 40
4.25
  0
CIRCLE
  5
23F
  8
1
 62
     7
 10
-1122.25765473865
 20
-790.13052846651067
 30
0.0
 40
27.0
  0
CIRCLE
  5
240
  8
1
 62
     7
 10
-1122.25765473865
 20
-790.13052846651067
 30
0.0
 40
31.0
  0
ARC
  5
241
  8
1
 62
     7
 10
-1405.5314736164401
 20
-848.13052846651078
 30
0.0
 40
2.0
 50
270.0
 51
0.0
  0
ARC
  5
242
  8
1
 62
     7
 10
-1638.9829691150151
 20
-818.48535939812211
 30
0.0
 40
3.75
 50
0.0
 51
62.971608505121878
  0
ARC
  5
243
  8
1
 62
     7
 10
-1608.6496357816809
 20
-818.48535939812211
 30
0.0
 40
3.7500000000003211
 50
117.0283914948935
 51
180.0
  0
ARC
  5
244
  8
1
 62
     7
 10
-1632.7329691150151
 20
-820.07491563712551
 30
0.0
 40
2.5
 50
180.0
 51
270.0
  0
ARC
  5
245
  8
1
 62
     7
 10
-1614.89963578168
 20
-820.07491563712551
 30
0.0
 40
2.5
 50
270.0
 51
0.0
  0
ARC
  5
246
  8
1
 62
     7
 10
-1262.1306035953189
 20
-727.90210134176436
 30
0.0
 40
2.0000000000000631
 50
217.89479853364151
 51
225.0
  0
ARC
  5
247
  8
1
 62
     7
 10
-1262.7306035953191
 20
-848.13052846651078
 30
0.0
 40
2.0
 50
270.0
 51
0.0
  0
ARC
  5
248
  8
1
 62
     7
 10
-1277.1306035953189
 20
-705.63052846651055
 30
0.0
 40
3.0
 50
90.0
 51
167.02776011381451
  0
ARC
  5
249
  8
1
 62
     7
 10
-1277.1306035953189
 20
-705.63052846651055
 30
0.0
 40
1.0
 50
90.0
 51
180.0
  0
ARC
  5
24A
  8
1
 62
     7
 10
-1280.1306035953189
 20
-708.63052846651055
 30
0.0
 40
2.9999999999999649
 50
102.97223988618281
 51
180.0
  0
ARC
  5
24B
  8
1
 62
     7
 10
-1281.028519356975
 20
-704.73261270485432
 30
0.0
 40
0.9999999999999715
 50
282.97223988617861
 51
347.02776011381371
  0
ARC
  5
24C
  8
1
 62
     7
 10
-1277.1306035953189
 20
-736.63052846651067
 30
0.0
 40
1.0
 50
180.0
 51
270.0
  0
ARC
  5
24D
  8
1
 62
     7
 10
-1277.1306035953189
 20
-736.63052846651067
 30
0.0
 40
2.999999999999881
 50
192.97223988618541
 51
270.0
  0
ARC
  5
24E
  8
1
 62
     7
 10
-1280.1306035953189
 20
-733.63052846651055
 30
0.0
 40
3.0
 50
180.0
 51
257.02776011381718
  0
ARC
  5
24F
  8
1
 62
     7
 10
-1281.028519356975
 20
-737.52844422816668
 30
0.0
 40
0.9999999999998861
 50
12.972239886186349
 51
77.027760113821444
  0
ARC
  5
250
  8
1
 62
     7
 10
-1277.1306035953189
 20
-874.63052846651078
 30
0.0
 40
2.999999999999881
 50
192.97223988618541
 51
270.0
  0
ARC
  5
251
  8
1
 62
     7
 10
-1280.1306035953189
 20
-871.63052846651067
 30
0.0
 40
3.0
 50
180.0
 51
257.02776011381718
  0
ARC
  5
252
  8
1
 62
     7
 10
-1281.028519356975
 20
-875.52844422816725
 30
0.0
 40
0.9999999999998861
 50
12.972239886186349
 51
77.027760113821444
  0
ARC
  5
253
  8
1
 62
     7
 10
-1277.1306035953189
 20
-874.63052846651078
 30
0.0
 40
1.0
 50
180.0
 51
270.0
  0
ARC
  5
254
  8
1
 62
     7
 10
-1280.1306035953189
 20
-871.63052846651067
 30
0.0
 40
1.0
 50
180.0
 51
270.0
  0
ARC
  5
255
  8
1
 62
     7
 10
-1277.1306035953189
 20
-843.63052846651078
 30
0.0
 40
3.0
 50
90.0
 51
167.02776011381451
  0
ARC
  5
256
  8
1
 62
     7
 10
-1277.1306035953189
 20
-843.63052846651078
 30
0.0
 40
1.0
 50
90.0
 51
180.0
  0
ARC
  5
257
  8
1
 62
     7
 10
-1280.1306035953189
 20
-846.63052846651067
 30
0.0
 40
1.0
 50
90.0
 51
180.0
  0
ARC
  5
258
  8
1
 62
     7
 10
-1280.1306035953189
 20
-846.63052846651067
 30
0.0
 40
2.9999999999999649
 50
102.97223988618281
 51
180.0
  0
ARC
  5
259
  8
1
 62
     7
 10
-1281.028519356975
 20
-842.73261270485443
 30
0.0
 40
0.9999999999999715
 50
282.97223988617861
 51
347.02776011381371
  0
ARC
  5
25A
  8
1
 62
     7
 10
-1419.9314736164399
 20
-874.63052846651078
 30
0.0
 40
2.999999999999881
 50
192.97223988618541
 51
270.0
  0
ARC
  5
25B
  8
1
 62
     7
 10
-1422.9314736164399
 20
-871.63052846651067
 30
0.0
 40
3.0
 50
180.0
 51
257.02776011381718
  0
ARC
  5
25C
  8
1
 62
     7
 10
-1423.829389378096
 20
-875.52844422816702
 30
0.0
 40
0.9999999999998861
 50
12.972239886186349
 51
77.027760113821444
  0
ARC
  5
25D
  8
1
 62
     7
 10
-1419.9314736164399
 20
-705.63052846651055
 30
0.0
 40
3.0
 50
90.0
 51
167.02776011381451
  0
ARC
  5
25E
  8
1
 62
     7
 10
-1422.9314736164399
 20
-708.63052846651055
 30
0.0
 40
2.9999999999999649
 50
102.97223988618281
 51
180.0
  0
ARC
  5
25F
  8
1
 62
     7
 10
-1423.829389378096
 20
-704.73261270485432
 30
0.0
 40
0.9999999999999715
 50
282.97223988617861
 51
347.02776011381371
  0
TEXT
  5
261
  8
1
 62
     7
 10
-1712.3180545794571
 20
-642.20359836192119
 30
0.0
 40
9.0
  1
MSC 10T
 41
0.9
  7
SIMPLEX
 72
     1
 11
-1686.4751974366
 21
-642.20359836192119
 31
0.0
  0
ENDSEC
  0
EOF
