  0
SECTION
  2
HEADER
  9
$ACADVER
  1
AC1015
  9
$ACADMAINTVER
 70
     6
  9
$DWGCODEPAGE
  3
ANSI_932
  9
$INSBASE
 10
0.0
 20
0.0
 30
0.0
  9
$EXTMIN
 10
-644.4039471674496
 20
-359.8411221866978
 30
0.0
  9
$EXTMAX
 10
-298.7073063858271
 20
-237.2512475840879
 30
0.0
  9
$LIMMIN
 10
-639.4078193530291
 20
-359.8411221866978
  9
$LIMMAX
 10
-303.1986844144756
 20
-237.2512475840879
  9
$ORTHOMODE
 70
     0
  9
$REGENMODE
 70
     1
  9
$FILLMODE
 70
     1
  9
$QTEXTMODE
 70
     0
  9
$MIRRTEXT
 70
     1
  9
$LTSCALE
 40
1.0
  9
$ATTMODE
 70
     1
  9
$TEXTSIZE
 40
3.5
  9
$TRACEWID
 40
0.5
  9
$TEXTSTYLE
  7
STANDARD
  9
$CLAYER
  8
0
  9
$CELTYPE
  6
ByLayer
  9
$CECOLOR
 62
   256
  9
$CELTSCALE
 40
1.0
  9
$DISPSILH
 70
     0
  9
$DIMSCALE
 40
1.0
  9
$DIMASZ
 40
0.18
  9
$DIMEXO
 40
0.0625
  9
$DIMDLI
 40
0.38
  9
$DIMRND
 40
0.0
  9
$DIMDLE
 40
0.0
  9
$DIMEXE
 40
0.18
  9
$DIMTP
 40
0.0
  9
$DIMTM
 40
0.0
  9
$DIMTXT
 40
0.18
  9
$DIMCEN
 40
0.09
  9
$DIMTSZ
 40
0.0
  9
$DIMTOL
 70
     0
  9
$DIMLIM
 70
     0
  9
$DIMTIH
 70
     1
  9
$DIMTOH
 70
     1
  9
$DIMSE1
 70
     0
  9
$DIMSE2
 70
     0
  9
$DIMTAD
 70
     0
  9
$DIMZIN
 70
     0
  9
$DIMBLK
  1

  9
$DIMASO
 70
     1
  9
$DIMSHO
 70
     1
  9
$DIMPOST
  1

  9
$DIMAPOST
  1

  9
$DIMALT
 70
     0
  9
$DIMALTD
 70
     2
  9
$DIMALTF
 40
25.4
  9
$DIMLFAC
 40
1.0
  9
$DIMTOFL
 70
     0
  9
$DIMTVP
 40
0.0
  9
$DIMTIX
 70
     0
  9
$DIMSOXD
 70
     0
  9
$DIMSAH
 70
     0
  9
$DIMBLK1
  1

  9
$DIMBLK2
  1

  9
$DIMSTYLE
  2
Standard
  9
$DIMCLRD
 70
     0
  9
$DIMCLRE
 70
     0
  9
$DIMCLRT
 70
     0
  9
$DIMTFAC
 40
1.0
  9
$DIMGAP
 40
0.09
  9
$DIMJUST
 70
     0
  9
$DIMSD1
 70
     0
  9
$DIMSD2
 70
     0
  9
$DIMTOLJ
 70
     1
  9
$DIMTZIN
 70
     0
  9
$DIMALTZ
 70
     0
  9
$DIMALTTZ
 70
     0
  9
$DIMUPT
 70
     0
  9
$DIMDEC
 70
     4
  9
$DIMTDEC
 70
     4
  9
$DIMALTU
 70
     2
  9
$DIMALTTD
 70
     2
  9
$DIMTXSTY
  7
STANDARD
  9
$DIMAUNIT
 70
     0
  9
$DIMADEC
 70
     0
  9
$DIMALTRND
 40
0.0
  9
$DIMAZIN
 70
     0
  9
$DIMDSEP
 70
    46
  9
$DIMATFIT
 70
     3
  9
$DIMFRAC
 70
     0
  9
$DIMLDRBLK
  1

  9
$DIMLUNIT
 70
     2
  9
$DIMLWD
 70
    -2
  9
$DIMLWE
 70
    -2
  9
$DIMTMOVE
 70
     0
  9
$LUNITS
 70
     2
  9
$LUPREC
 70
     4
  9
$SKETCHINC
 40
0.1
  9
$FILLETRAD
 40
2.0
  9
$AUNITS
 70
     0
  9
$AUPREC
 70
     0
  9
$MENU
  1
ACAD
  9
$ELEVATION
 40
0.0
  9
$PELEVATION
 40
0.0
  9
$THICKNESS
 40
0.0
  9
$LIMCHECK
 70
     0
  9
$CHAMFERA
 40
0.0
  9
$CHAMFERB
 40
0.0
  9
$CHAMFERC
 40
0.0
  9
$CHAMFERD
 40
0.0
  9
$SKPOLY
 70
     0
  9
$TDCREATE
 40
2452094.537563541
  9
$TDUCREATE
 40
2452094.162563541
  9
$TDUPDATE
 40
2452094.539258912
  9
$TDUUPDATE
 40
2452094.164258912
  9
$TDINDWG
 40
0.0017056713
  9
$TDUSRTIMER
 40
0.0017056713
  9
$USRTIMER
 70
     1
  9
$ANGBASE
 50
0.0
  9
$ANGDIR
 70
     0
  9
$PDMODE
 70
     0
  9
$PDSIZE
 40
0.0
  9
$PLINEWID
 40
0.0
  9
$SPLFRAME
 70
     0
  9
$SPLINETYPE
 70
     6
  9
$SPLINESEGS
 70
     8
  9
$HANDSEED
  5
22A
  9
$SURFTAB1
 70
     6
  9
$SURFTAB2
 70
     6
  9
$SURFTYPE
 70
     6
  9
$SURFU
 70
     6
  9
$SURFV
 70
     6
  9
$UCSBASE
  2

  9
$UCSNAME
  2

  9
$UCSORG
 10
0.0
 20
0.0
 30
0.0
  9
$UCSXDIR
 10
1.0
 20
0.0
 30
0.0
  9
$UCSYDIR
 10
0.0
 20
1.0
 30
0.0
  9
$UCSORTHOREF
  2

  9
$UCSORTHOVIEW
 70
     0
  9
$UCSORGTOP
 10
0.0
 20
0.0
 30
0.0
  9
$UCSORGBOTTOM
 10
0.0
 20
0.0
 30
0.0
  9
$UCSORGLEFT
 10
0.0
 20
0.0
 30
0.0
  9
$UCSORGRIGHT
 10
0.0
 20
0.0
 30
0.0
  9
$UCSORGFRONT
 10
0.0
 20
0.0
 30
0.0
  9
$UCSORGBACK
 10
0.0
 20
0.0
 30
0.0
  9
$PUCSBASE
  2

  9
$PUCSNAME
  2

  9
$PUCSORG
 10
0.0
 20
0.0
 30
0.0
  9
$PUCSXDIR
 10
1.0
 20
0.0
 30
0.0
  9
$PUCSYDIR
 10
0.0
 20
1.0
 30
0.0
  9
$PUCSORTHOREF
  2

  9
$PUCSORTHOVIEW
 70
     0
  9
$PUCSORGTOP
 10
0.0
 20
0.0
 30
0.0
  9
$PUCSORGBOTTOM
 10
0.0
 20
0.0
 30
0.0
  9
$PUCSORGLEFT
 10
0.0
 20
0.0
 30
0.0
  9
$PUCSORGRIGHT
 10
0.0
 20
0.0
 30
0.0
  9
$PUCSORGFRONT
 10
0.0
 20
0.0
 30
0.0
  9
$PUCSORGBACK
 10
0.0
 20
0.0
 30
0.0
  9
$USERI1
 70
     0
  9
$USERI2
 70
     0
  9
$USERI3
 70
     0
  9
$USERI4
 70
     0
  9
$USERI5
 70
     0
  9
$USERR1
 40
0.0
  9
$USERR2
 40
0.0
  9
$USERR3
 40
0.0
  9
$USERR4
 40
0.0
  9
$USERR5
 40
0.0
  9
$WORLDVIEW
 70
     1
  9
$SHADEDGE
 70
     3
  9
$SHADEDIF
 70
    70
  9
$TILEMODE
 70
     1
  9
$MAXACTVP
 70
    64
  9
$PINSBASE
 10
0.0
 20
0.0
 30
0.0
  9
$PLIMCHECK
 70
     0
  9
$PEXTMIN
 10
1.000000000000000E+20
 20
1.000000000000000E+20
 30
1.000000000000000E+20
  9
$PEXTMAX
 10
-1.000000000000000E+20
 20
-1.000000000000000E+20
 30
-1.000000000000000E+20
  9
$PLIMMIN
 10
0.0
 20
0.0
  9
$PLIMMAX
 10
12.0
 20
9.0
  9
$UNITMODE
 70
     0
  9
$VISRETAIN
 70
     1
  9
$PLINEGEN
 70
     0
  9
$PSLTSCALE
 70
     1
  9
$TREEDEPTH
 70
  3020
  9
$CMLSTYLE
  2
Standard
  9
$CMLJUST
 70
     0
  9
$CMLSCALE
 40
1.0
  9
$PROXYGRAPHICS
 70
     1
  9
$MEASUREMENT
 70
     0
  9
$CELWEIGHT
370
    -1
  9
$ENDCAPS
280
     0
  9
$JOINSTYLE
280
     0
  9
$LWDISPLAY
290
     0
  9
$INSUNITS
 70
     0
  9
$HYPERLINKBASE
  1

  9
$STYLESHEET
  1

  9
$XEDIT
290
     1
  9
$CEPSNTYPE
380
     0
  9
$PSTYLEMODE
290
     1
  9
$FINGERPRINTGUID
  2
{7B7AB9C0-6FB2-11D5-AEFA-0060083AAF35}
  9
$VERSIONGUID
  2
{7B7AB9C2-6FB2-11D5-AEFA-0060083AAF35}
  9
$EXTNAMES
290
     1
  9
$PSVPSCALE
 40
0.0
  9
$OLESTARTUP
290
     0
  0
ENDSEC
  0
SECTION
  2
CLASSES
  0
CLASS
  1
ACDBDICTIONARYWDFLT
  2
AcDbDictionaryWithDefault
  3
AutoCAD 2000
 90
        0
280
     0
281
     0
  0
CLASS
  1
ACDBPLACEHOLDER
  2
AcDbPlaceHolder
  3
AutoCAD 2000
 90
        0
280
     0
281
     0
  0
CLASS
  1
LAYOUT
  2
AcDbLayout
  3
AutoCAD 2000
 90
        0
280
     0
281
     0
  0
ENDSEC
  0
SECTION
  2
TABLES
  0
TABLE
  2
VPORT
  5
8
330
0
100
AcDbSymbolTable
 70
     2
  0
VPORT
  5
229
330
8
100
AcDbSymbolTableRecord
100
AcDbViewportTableRecord
  2
*Active
 70
     0
 10
0.0
 20
0.0
 11
1.0
 21
1.0
 12
-628.7060208476573
 22
-245.0016071014038
 13
0.0
 23
0.0
 14
1.0
 24
1.0
 15
0.0
 25
0.0
 16
0.0
 26
0.0
 36
1.0
 17
0.0
 27
0.0
 37
0.0
 40
8.999999741659802
 41
2.569377990430622
 42
50.0
 43
0.0
 44
0.0
 50
0.0
 51
0.0
 71
     0
 72
   100
 73
     1
 74
     1
 75
     0
 76
     0
 77
     0
 78
     0
281
     0
 65
     1
110
0.0
120
0.0
130
0.0
111
1.0
121
0.0
131
0.0
112
0.0
122
1.0
132
0.0
 79
     0
146
0.0
  0
ENDTAB
  0
TABLE
  2
LTYPE
  5
5
330
0
100
AcDbSymbolTable
 70
     9
  0
LTYPE
  5
13
330
5
100
AcDbSymbolTableRecord
100
AcDbLinetypeTableRecord
  2
ByBlock
 70
     0
  3

 72
    65
 73
     0
 40
0.0
  0
LTYPE
  5
14
330
5
100
AcDbSymbolTableRecord
100
AcDbLinetypeTableRecord
  2
ByLayer
 70
     0
  3

 72
    65
 73
     0
 40
0.0
  0
LTYPE
  5
15
330
5
100
AcDbSymbolTableRecord
100
AcDbLinetypeTableRecord
  2
CONTINUOUS
 70
     0
  3
Solid line
 72
    65
 73
     0
 40
0.0
  0
LTYPE
  5
22
330
5
100
AcDbSymbolTableRecord
100
AcDbLinetypeTableRecord
  2
BORDER
 70
     0
  3
__ __ . __ __ .
 72
    65
 73
     6
 40
15.4833154248018
 49
4.42380440708623
 74
     0
 49
-2.211902203543115
 74
     0
 49
4.42380440708623
 74
     0
 49
-2.211902203543115
 74
     0
 49
0.0
 74
     0
 49
-2.211902203543115
 74
     0
  0
LTYPE
  5
23
330
5
100
AcDbSymbolTableRecord
100
AcDbLinetypeTableRecord
  2
CENTER
 70
     0
  3
____ _ ____ _
 72
    65
 73
     4
 40
17.69521762834492
 49
11.05951101771558
 74
     0
 49
-2.211902203543115
 74
     0
 49
2.211902203543115
 74
     0
 49
-2.211902203543115
 74
     0
  0
LTYPE
  5
24
330
5
100
AcDbSymbolTableRecord
100
AcDbLinetypeTableRecord
  2
DASHDOT
 70
     0
  3
__ . __ . __ .
 72
    65
 73
     4
 40
8.84760881417246
 49
4.42380440708623
 74
     0
 49
-2.211902203543115
 74
     0
 49
0.0
 74
     0
 49
-2.211902203543115
 74
     0
  0
LTYPE
  5
25
330
5
100
AcDbSymbolTableRecord
100
AcDbLinetypeTableRecord
  2
DASHED
 70
     0
  3
__ __ __ __ __
 72
    65
 73
     2
 40
6.635706610629345
 49
4.42380440708623
 74
     0
 49
-2.211902203543115
 74
     0
  0
LTYPE
  5
26
330
5
100
AcDbSymbolTableRecord
100
AcDbLinetypeTableRecord
  2
DIVIDE
 70
     0
  3
__ . . __ . . 
 72
    65
 73
     6
 40
11.05951101771558
 49
4.42380440708623
 74
     0
 49
-2.211902203543115
 74
     0
 49
0.0
 74
     0
 49
-2.211902203543115
 74
     0
 49
0.0
 74
     0
 49
-2.211902203543115
 74
     0
  0
LTYPE
  5
27
330
5
100
AcDbSymbolTableRecord
100
AcDbLinetypeTableRecord
  2
DOT
 70
     0
  3
..............
 72
    65
 73
     4
 40
4.42380440708623
 49
0.0
 74
     0
 49
-2.211902203543115
 74
     0
 49
0.0
 74
     0
 49
-2.211902203543115
 74
     0
  0
LTYPE
  5
28
330
5
100
AcDbSymbolTableRecord
100
AcDbLinetypeTableRecord
  2
HIDDEN
 70
     0
  3
_ _ _ _ _ _ _
 72
    65
 73
     2
 40
3.317853305314673
 49
2.211902203543115
 74
     0
 49
-1.105951101771557
 74
     0
  0
LTYPE
  5
29
330
5
100
AcDbSymbolTableRecord
100
AcDbLinetypeTableRecord
  2
PHANTOM
 70
     0
  3
_____ _ _ _____ _ _ 
 72
    65
 73
     6
 40
22.11902203543114
 49
11.05951101771558
 74
     0
 49
-2.211902203543115
 74
     0
 49
2.211902203543115
 74
     0
 49
-2.211902203543115
 74
     0
 49
2.211902203543115
 74
     0
 49
-2.211902203543115
 74
     0
  0
ENDTAB
  0
TABLE
  2
LAYER
  5
2
330
0
100
AcDbSymbolTable
 70
     2
  0
LAYER
  5
10
330
2
100
AcDbSymbolTableRecord
100
AcDbLayerTableRecord
  2
0
 70
     0
 62
     7
  6
CONTINUOUS
370
    -3
390
F
  0
LAYER
  5
2A
330
2
100
AcDbSymbolTableRecord
100
AcDbLayerTableRecord
  2
1
 70
     0
 62
     7
  6
CONTINUOUS
370
    -3
390
F
  0
ENDTAB
  0
TABLE
  2
STYLE
  5
3
330
0
100
AcDbSymbolTable
 70
     4
  0
STYLE
  5
11
330
3
100
AcDbSymbolTableRecord
100
AcDbTextStyleTableRecord
  2
STANDARD
 70
     0
 40
0.0
 41
1.0
 50
0.0
 71
     0
 42
3.5
  3
txt
  4

  0
STYLE
  5
2B
330
3
100
AcDbSymbolTableRecord
100
AcDbTextStyleTableRecord
  2
SIMPLEX
 70
     0
 40
0.0
 41
1.0
 50
0.0
 71
     0
 42
3.5
  3
simplex
  4

  0
STYLE
  5
2C
330
3
100
AcDbSymbolTableRecord
100
AcDbTextStyleTableRecord
  2
COMPLEX
 70
     0
 40
0.0
 41
1.0
 50
0.0
 71
     0
 42
3.5
  3
complex
  4

  0
STYLE
  5
2D
330
3
100
AcDbSymbolTableRecord
100
AcDbTextStyleTableRecord
  2
ITALIC
 70
     0
 40
0.0
 41
1.0
 50
0.0
 71
     0
 42
3.5
  3
italic
  4

  0
ENDTAB
  0
TABLE
  2
VIEW
  5
6
330
0
100
AcDbSymbolTable
 70
     0
  0
ENDTAB
  0
TABLE
  2
UCS
  5
7
330
0
100
AcDbSymbolTable
 70
     0
  0
ENDTAB
  0
TABLE
  2
APPID
  5
9
330
0
100
AcDbSymbolTable
 70
     1
  0
APPID
  5
12
330
9
100
AcDbSymbolTableRecord
100
AcDbRegAppTableRecord
  2
ACAD
 70
     0
  0
ENDTAB
  0
TABLE
  2
DIMSTYLE
  5
A
330
0
100
AcDbSymbolTable
 70
     1
100
AcDbDimStyleTable
 71
     0
  0
DIMSTYLE
105
227
330
A
100
AcDbSymbolTableRecord
100
AcDbDimStyleTableRecord
  2
Standard
 70
     0
340
11
  0
ENDTAB
  0
TABLE
  2
BLOCK_RECORD
  5
1
330
0
100
AcDbSymbolTable
 70
     0
  0
BLOCK_RECORD
  5
1E
330
1
100
AcDbSymbolTableRecord
100
AcDbBlockTableRecord
  2
*Model_Space
340
21
  0
BLOCK_RECORD
  5
1A
330
1
100
AcDbSymbolTableRecord
100
AcDbBlockTableRecord
  2
*Paper_Space
340
1D
  0
ENDTAB
  0
ENDSEC
  0
SECTION
  2
BLOCKS
  0
BLOCK
  5
1F
330
1E
100
AcDbEntity
  8
0
100
AcDbBlockBegin
  2
*Model_Space
 70
     0
 10
0.0
 20
0.0
 30
0.0
  3
*Model_Space
  1

  0
ENDBLK
  5
20
330
1E
100
AcDbEntity
  8
0
100
AcDbBlockEnd
  0
BLOCK
  5
1B
330
1A
100
AcDbEntity
 67
     1
  8
0
100
AcDbBlockBegin
  2
*Paper_Space
 70
     0
 10
0.0
 20
0.0
 30
0.0
  3
*Paper_Space
  1

  0
ENDBLK
  5
1C
330
1A
100
AcDbEntity
 67
     1
  8
0
100
AcDbBlockEnd
  0
ENDSEC
  0
SECTION
  2
ENTITIES
  0
LINE
  5
33
330
1E
100
AcDbEntity
  8
1
  6
DASHDOT
 62
     3
100
AcDbLine
 10
-591.1986844144756
 20
-259.503348525227
 30
0.0
 11
-591.1986844144756
 21
-266.503348525227
 31
0.0
  0
LINE
  5
34
330
1E
100
AcDbEntity
  8
1
  6
DASHDOT
 62
     3
100
AcDbLine
 10
-348.1986844144756
 20
-259.6107531527629
 30
0.0
 11
-348.1986844144756
 21
-266.6107531527629
 31
0.0
  0
LINE
  5
35
330
1E
100
AcDbEntity
  8
1
  6
DASHDOT
 62
     3
100
AcDbLine
 10
-461.146258234597
 20
-314.8411221866978
 30
0.0
 11
-457.9988618304711
 21
-314.8411221866978
 31
0.0
  0
LINE
  5
36
330
1E
100
AcDbEntity
  8
1
  6
DASHDOT
 62
     3
100
AcDbLine
 10
-407.9988618304711
 20
-314.8411221866978
 30
0.0
 11
-405.6542023129028
 21
-314.8411221866978
 31
0.0
  0
LINE
  5
37
330
1E
100
AcDbEntity
  8
1
  6
DASHDOT
 62
     3
100
AcDbLine
 10
-531.014129436593
 20
-314.8411221866978
 30
0.0
 11
-527.9988618304712
 21
-314.8411221866978
 31
0.0
  0
LINE
  5
38
330
1E
100
AcDbEntity
  8
1
  6
DASHDOT
 62
     3
100
AcDbLine
 10
-477.9988618304711
 20
-314.8411221866978
 30
0.0
 11
-475.6542023129028
 21
-314.8411221866978
 31
0.0
  0
LINE
  5
39
330
1E
100
AcDbEntity
  8
1
  6
DASHDOT
 62
     3
100
AcDbLine
 10
-591.1986844144756
 20
-307.8411221866979
 30
0.0
 11
-591.1986844144756
 21
-321.8411221866978
 31
0.0
  0
LINE
  5
3A
330
1E
100
AcDbEntity
  8
1
  6
DASHDOT
 62
     3
100
AcDbLine
 10
-598.1986844144756
 20
-314.8411221866978
 30
0.0
 11
-584.1986844144757
 21
-314.8411221866978
 31
0.0
  0
LINE
  5
3B
330
1E
100
AcDbEntity
  8
1
  6
DASHDOT
 62
     3
100
AcDbLine
 10
-355.1986844144756
 20
-314.8411221866978
 30
0.0
 11
-341.1986844144756
 21
-314.8411221866978
 31
0.0
  0
LINE
  5
3C
330
1E
100
AcDbEntity
  8
1
  6
DASHDOT
 62
     3
100
AcDbLine
 10
-348.1986844144756
 20
-307.8411221866979
 30
0.0
 11
-348.1986844144756
 21
-321.8411221866978
 31
0.0
  0
LINE
  5
3D
330
1E
100
AcDbEntity
  8
1
 62
     7
100
AcDbLine
 10
-602.1986844144756
 20
-276.8411221866979
 30
0.0
 11
-602.1986844144756
 21
-281.8411221866978
 31
0.0
  0
LINE
  5
3E
330
1E
100
AcDbEntity
  8
1
 62
     7
100
AcDbLine
 10
-580.1986844144757
 20
-276.8411221866979
 30
0.0
 11
-580.1986844144757
 21
-281.8411221866978
 31
0.0
  0
LINE
  5
3F
330
1E
100
AcDbEntity
  8
1
 62
     7
100
AcDbLine
 10
-602.1986844144756
 20
-281.8411221866978
 30
0.0
 11
-580.1986844144757
 21
-281.8411221866978
 31
0.0
  0
LINE
  5
40
330
1E
100
AcDbEntity
  8
1
 62
     7
100
AcDbLine
 10
-593.6986844144756
 20
-305.3411221866978
 30
0.0
 11
-593.6986844144756
 21
-307.7700543748324
 31
0.0
  0
LINE
  5
41
330
1E
100
AcDbEntity
  8
1
 62
     7
100
AcDbLine
 10
-588.6986844144757
 20
-305.3411221866978
 30
0.0
 11
-588.6986844144757
 21
-307.7700543748324
 31
0.0
  0
LINE
  5
42
330
1E
100
AcDbEntity
  8
1
 62
     7
100
AcDbLine
 10
-593.6986844144756
 20
-305.3411221866978
 30
0.0
 11
-588.6986844144757
 21
-305.3411221866978
 31
0.0
  0
LINE
  5
43
330
1E
100
AcDbEntity
  8
1
 62
     7
100
AcDbLine
 10
-593.6986844144756
 20
-330.8385709006138
 30
0.0
 11
-596.0320177478088
 21
-330.8385709006138
 31
0.0
  0
LINE
  5
44
330
1E
100
AcDbEntity
  8
1
 62
     7
100
AcDbLine
 10
-593.6986844144756
 20
-327.0885709006138
 30
0.0
 11
-593.6986844144756
 21
-330.8385709006138
 31
0.0
  0
LINE
  5
45
330
1E
100
AcDbEntity
  8
1
 62
     7
100
AcDbLine
 10
-588.6986844144757
 20
-330.8385709006138
 30
0.0
 11
-586.3653510811423
 21
-330.8385709006138
 31
0.0
  0
LINE
  5
46
330
1E
100
AcDbEntity
  8
1
 62
     7
100
AcDbLine
 10
-588.6986844144757
 20
-327.0885709006138
 30
0.0
 11
-588.6986844144757
 21
-330.8385709006138
 31
0.0
  0
LINE
  5
47
330
1E
100
AcDbEntity
  8
1
 62
     7
100
AcDbLine
 10
-598.0320177478088
 20
-328.8385709006138
 30
0.0
 11
-598.0320177478088
 21
-328.0974691206453
 31
0.0
  0
LINE
  5
48
330
1E
100
AcDbEntity
  8
1
 62
     7
100
AcDbLine
 10
-584.3653510811423
 20
-328.8385709006138
 30
0.0
 11
-584.3653510811423
 21
-328.0974691206453
 31
0.0
  0
LINE
  5
49
330
1E
100
AcDbEntity
  8
1
 62
     7
100
AcDbLine
 10
-571.8912815629677
 20
-248.5804687404059
 30
0.0
 11
-571.1148244276602
 21
-245.6826912615387
 31
0.0
  0
LINE
  5
4A
330
1E
100
AcDbEntity
  8
1
 62
     7
100
AcDbLine
 10
-572.3742444761123
 20
-248.4510592178546
 30
0.0
 11
-571.5977873408047
 21
-245.5532817389875
 31
0.0
  0
LINE
  5
4B
330
1E
100
AcDbEntity
  8
1
 62
     7
100
AcDbLine
 10
-572.8572073892569
 20
-248.3216496953034
 30
0.0
 11
-572.0807502539493
 21
-245.4238722164361
 31
0.0
  0
LINE
  5
4C
330
1E
100
AcDbEntity
  8
1
 62
     7
100
AcDbLine
 10
-573.823133215546
 20
-248.0628306502008
 30
0.0
 11
-573.0466760802384
 21
-245.1650531713336
 31
0.0
  0
LINE
  5
4D
330
1E
100
AcDbEntity
  8
1
 62
     7
100
AcDbLine
 10
-574.3060961286906
 20
-247.9334211276496
 30
0.0
 11
-573.529638993383
 21
-245.0356436487824
 31
0.0
  0
LINE
  5
4E
330
1E
100
AcDbEntity
  8
1
 62
     7
100
AcDbLine
 10
-574.7890590418351
 20
-247.8040116050984
 30
0.0
 11
-574.0126019065274
 21
-244.906234126231
 31
0.0
  0
LINE
  5
4F
330
1E
100
AcDbEntity
  8
1
 62
     7
100
AcDbLine
 10
-573.3401703024012
 20
-248.1922401727521
 30
0.0
 11
-580.1859340453631
 21
-273.7409782780981
 31
0.0
  0
LINE
  5
50
330
1E
100
AcDbEntity
  8
1
 62
     7
100
AcDbLine
 10
-578.2662545270974
 20
-274.3040433919939
 30
0.0
 11
-571.4083186498231
 21
-248.7098782629572
 31
0.0
  0
LINE
  5
51
330
1E
100
AcDbEntity
  8
1
 62
     7
100
AcDbLine
 10
-582.1299578322538
 20
-273.2687672115836
 30
0.0
 11
-575.2720219549797
 21
-247.6746020825471
 31
0.0
  0
LINE
  5
52
330
1E
100
AcDbEntity
  8
1
 62
     7
100
AcDbLine
 10
-575.2720219549797
 20
-247.6746020825471
 30
0.0
 11
-571.4083186498231
 21
-248.7098782629572
 31
0.0
  0
LINE
  5
53
330
1E
100
AcDbEntity
  8
1
  6
DASHDOT
 62
     3
100
AcDbLine
 10
-594.3197244263318
 20
-262.8411221866979
 30
0.0
 11
-588.0231973168787
 21
-262.8411221866979
 31
0.0
  0
LINE
  5
54
330
1E
100
AcDbEntity
  8
1
 62
     7
100
AcDbLine
 10
-584.1986844144757
 20
-259.8411221866979
 30
0.0
 11
-584.1986844144757
 21
-272.8411221866979
 31
0.0
  0
LINE
  5
55
330
1E
100
AcDbEntity
  8
1
 62
     7
100
AcDbLine
 10
-591.1986844144756
 20
-257.8411221866979
 30
0.0
 11
-586.1986844144756
 21
-257.8411221866979
 31
0.0
  0
LINE
  5
56
330
1E
100
AcDbEntity
  8
1
 62
     7
100
AcDbLine
 10
-596.1986844144757
 20
-257.8411221866979
 30
0.0
 11
-591.1986844144756
 21
-257.8411221866979
 31
0.0
  0
LINE
  5
57
330
1E
100
AcDbEntity
  8
1
 62
     7
100
AcDbLine
 10
-598.1986844144756
 20
-272.8411221866979
 30
0.0
 11
-598.1986844144756
 21
-259.8411221866979
 31
0.0
  0
LINE
  5
58
330
1E
100
AcDbEntity
  8
1
 62
     7
100
AcDbLine
 10
-485.1988618304711
 20
-288.1661221866978
 30
0.0
 11
-486.4988618304711
 21
-288.1661221866978
 31
0.0
  0
LINE
  5
59
330
1E
100
AcDbEntity
  8
1
 62
     7
100
AcDbLine
 10
-489.5988618304712
 20
-283.3411221866978
 30
0.0
 11
-488.2199779921069
 21
-283.3411221866978
 31
0.0
  0
LINE
  5
5A
330
1E
100
AcDbEntity
  8
1
 62
     7
100
AcDbLine
 10
-486.4988618304711
 20
-341.5161221866978
 30
0.0
 11
-485.1988618304711
 21
-341.5161221866978
 31
0.0
  0
LINE
  5
5B
330
1E
100
AcDbEntity
  8
1
 62
     7
100
AcDbLine
 10
-486.4037841692238
 20
-281.8411221866978
 30
0.0
 11
-485.1988618304711
 21
-281.8411221866978
 31
0.0
  0
LINE
  5
5C
330
1E
100
AcDbEntity
  8
1
 62
     7
100
AcDbLine
 10
-486.2640115338069
 20
-273.8411221866979
 30
0.0
 11
-487.1988618304711
 21
-327.3480361188207
 31
0.0
  0
LINE
  5
5D
330
1E
100
AcDbEntity
  8
1
 62
     7
100
AcDbLine
 10
-487.9988618304712
 20
-329.3411221866978
 30
0.0
 11
-487.0641249883658
 21
-273.8411221866979
 31
0.0
  0
LINE
  5
5E
330
1E
100
AcDbEntity
  8
1
 62
     7
100
AcDbLine
 10
-487.2988618304711
 20
-337.3411221866978
 30
0.0
 11
-487.2988618304711
 21
-355.8411221866979
 31
0.0
  0
LINE
  5
5F
330
1E
100
AcDbEntity
  8
1
 62
     7
100
AcDbLine
 10
-485.1988618304711
 20
-327.3480361188207
 30
0.0
 11
-485.1988618304711
 21
-314.8411221866978
 31
0.0
  0
LINE
  5
60
330
1E
100
AcDbEntity
  8
1
 62
     7
100
AcDbLine
 10
-487.9988618304712
 20
-329.3411221866978
 30
0.0
 11
-487.9988618304712
 21
-337.3411221866978
 31
0.0
  0
LINE
  5
61
330
1E
100
AcDbEntity
  8
1
 62
     7
100
AcDbLine
 10
-488.7988618304712
 20
-329.3411221866978
 30
0.0
 11
-488.7988618304712
 21
-337.3411221866978
 31
0.0
  0
LINE
  5
62
330
1E
100
AcDbEntity
  8
1
 62
     7
100
AcDbLine
 10
-489.5988618304712
 20
-329.3411221866978
 30
0.0
 11
-487.9988618304712
 21
-329.3411221866978
 31
0.0
  0
LINE
  5
63
330
1E
100
AcDbEntity
  8
1
 62
     7
100
AcDbLine
 10
-489.5988618304712
 20
-337.3411221866978
 30
0.0
 11
-487.1988618304711
 21
-337.3411221866978
 31
0.0
  0
LINE
  5
64
330
1E
100
AcDbEntity
  8
1
 62
     7
100
AcDbLine
 10
-487.1988618304711
 20
-339.1246062089143
 30
0.0
 11
-485.1988618304711
 21
-339.1246062089143
 31
0.0
  0
LINE
  5
65
330
1E
100
AcDbEntity
  8
1
 62
     7
100
AcDbLine
 10
-487.1988618304711
 20
-327.3480361188207
 30
0.0
 11
-487.1988618304711
 21
-339.1246062089143
 31
0.0
  0
LINE
  5
66
330
1E
100
AcDbEntity
  8
1
 62
     7
100
AcDbLine
 10
-487.1988618304711
 20
-327.3480361188207
 30
0.0
 11
-485.1988618304711
 21
-327.3480361188207
 31
0.0
  0
LINE
  5
67
330
1E
100
AcDbEntity
  8
1
 62
     7
100
AcDbLine
 10
-479.7988618304712
 20
-288.9661221866978
 30
0.0
 11
-478.4988618304711
 21
-288.9661221866978
 31
0.0
  0
LINE
  5
68
330
1E
100
AcDbEntity
  8
1
 62
     7
100
AcDbLine
 10
-485.1988618304711
 20
-285.8411221866978
 30
0.0
 11
-485.1988618304711
 21
-314.8411221866978
 31
0.0
  0
LINE
  5
69
330
1E
100
AcDbEntity
  8
1
 62
     7
100
AcDbLine
 10
-479.7988618304712
 20
-340.7161221866978
 30
0.0
 11
-478.4988618304711
 21
-340.7161221866978
 31
0.0
  0
LINE
  5
6A
330
1E
100
AcDbEntity
  8
1
 62
     7
100
AcDbLine
 10
-491.5988618304711
 20
-314.8411221866978
 30
0.0
 11
-491.5988618304711
 21
-359.8411221866978
 31
0.0
  0
LINE
  5
6B
330
1E
100
AcDbEntity
  8
1
 62
     7
100
AcDbLine
 10
-492.5988618304712
 20
-314.8411221866978
 30
0.0
 11
-492.5988618304712
 21
-359.8411221866978
 31
0.0
  0
LINE
  5
6C
330
1E
100
AcDbEntity
  8
1
 62
     7
100
AcDbLine
 10
-489.5988618304712
 20
-359.8411221866978
 30
0.0
 11
-491.5988618304711
 21
-359.8411221866978
 31
0.0
  0
LINE
  5
6D
330
1E
100
AcDbEntity
  8
1
 62
     7
100
AcDbLine
 10
-489.5988618304712
 20
-314.8411221866978
 30
0.0
 11
-489.5988618304712
 21
-359.8411221866978
 31
0.0
  0
LINE
  5
6E
330
1E
100
AcDbEntity
  8
1
 62
     7
100
AcDbLine
 10
-492.5988618304712
 20
-359.8411221866978
 30
0.0
 11
-495.6988618304712
 21
-359.8411221866978
 31
0.0
  0
LINE
  5
6F
330
1E
100
AcDbEntity
  8
1
 62
     7
100
AcDbLine
 10
-491.5988618304711
 20
-359.3411221866978
 30
0.0
 11
-492.5988618304712
 21
-359.3411221866978
 31
0.0
  0
LINE
  5
70
330
1E
100
AcDbEntity
  8
1
 62
     7
100
AcDbLine
 10
-495.6988618304712
 20
-314.8411221866978
 30
0.0
 11
-495.6988618304712
 21
-359.8411221866978
 31
0.0
  0
LINE
  5
71
330
1E
100
AcDbEntity
  8
1
 62
     7
100
AcDbLine
 10
-495.9988618304712
 20
-314.8411221866978
 30
0.0
 11
-495.9988618304712
 21
-359.8411221866978
 31
0.0
  0
LINE
  5
72
330
1E
100
AcDbEntity
  8
1
 62
     7
100
AcDbLine
 10
-524.9988618304712
 20
-355.3911221866978
 30
0.0
 11
-524.9988618304712
 21
-314.8411221866978
 31
0.0
  0
LINE
  5
73
330
1E
100
AcDbEntity
  8
1
 62
     7
100
AcDbLine
 10
-507.9988618304711
 20
-359.8411221866978
 30
0.0
 11
-495.9988618304712
 21
-359.8411221866978
 31
0.0
  0
LINE
  5
74
330
1E
100
AcDbEntity
  8
1
 62
     7
100
AcDbLine
 10
-507.9988618304711
 20
-359.8411221866978
 30
0.0
 11
-508.9988618304712
 21
-358.8411221866978
 31
0.0
  0
LINE
  5
75
330
1E
100
AcDbEntity
  8
1
 62
     7
100
AcDbLine
 10
-508.9988618304712
 20
-314.8411221866978
 30
0.0
 11
-508.9988618304712
 21
-358.8411221866978
 31
0.0
  0
LINE
  5
76
330
1E
100
AcDbEntity
  8
1
 62
     7
100
AcDbLine
 10
-508.9988618304712
 20
-357.3911221866978
 30
0.0
 11
-522.9988618304712
 21
-357.3911221866978
 31
0.0
  0
LINE
  5
77
330
1E
100
AcDbEntity
  8
1
 62
     7
100
AcDbLine
 10
-524.9988618304712
 20
-355.3911221866978
 30
0.0
 11
-522.9988618304712
 21
-357.3911221866978
 31
0.0
  0
LINE
  5
78
330
1E
100
AcDbEntity
  8
1
 62
     7
100
AcDbLine
 10
-527.4988618304712
 20
-327.3411221866978
 30
0.0
 11
-526.9988618304712
 21
-327.3411221866978
 31
0.0
  0
LINE
  5
79
330
1E
100
AcDbEntity
  8
1
 62
     7
100
AcDbLine
 10
-527.9988618304712
 20
-326.8411221866978
 30
0.0
 11
-527.9988618304712
 21
-314.8411221866978
 31
0.0
  0
LINE
  5
7A
330
1E
100
AcDbEntity
  8
1
 62
     7
100
AcDbLine
 10
-527.9988618304712
 20
-326.8411221866978
 30
0.0
 11
-527.4988618304712
 21
-327.3411221866978
 31
0.0
  0
LINE
  5
7B
330
1E
100
AcDbEntity
  8
1
 62
     7
100
AcDbLine
 10
-526.9988618304712
 20
-346.8411221866978
 30
0.0
 11
-526.9988618304712
 21
-314.8411221866978
 31
0.0
  0
LINE
  5
7C
330
1E
100
AcDbEntity
  8
1
 62
     7
100
AcDbLine
 10
-526.4988618304712
 20
-347.3411221866978
 30
0.0
 11
-526.9988618304712
 21
-346.8411221866978
 31
0.0
  0
LINE
  5
7D
330
1E
100
AcDbEntity
  8
1
 62
     7
100
AcDbLine
 10
-524.9988618304712
 20
-347.3411221866978
 30
0.0
 11
-526.4988618304712
 21
-347.3411221866978
 31
0.0
  0
LINE
  5
7E
330
1E
100
AcDbEntity
  8
1
 62
     7
100
AcDbLine
 10
-492.5988618304712
 20
-270.3411221866979
 30
0.0
 11
-491.5988618304711
 21
-270.3411221866979
 31
0.0
  0
LINE
  5
7F
330
1E
100
AcDbEntity
  8
1
 62
     7
100
AcDbLine
 10
-495.9988618304712
 20
-269.8411221866979
 30
0.0
 11
-495.9988618304712
 21
-314.8411221866978
 31
0.0
  0
LINE
  5
80
330
1E
100
AcDbEntity
  8
1
 62
     7
100
AcDbLine
 10
-508.9988618304712
 20
-272.0411221866979
 30
0.0
 11
-508.9988618304712
 21
-314.8411221866978
 31
0.0
  0
LINE
  5
81
330
1E
100
AcDbEntity
  8
1
 62
     7
100
AcDbLine
 10
-524.9988618304712
 20
-282.3411221866978
 30
0.0
 11
-524.9988618304712
 21
-314.8411221866978
 31
0.0
  0
LINE
  5
82
330
1E
100
AcDbEntity
  8
1
 62
     7
100
AcDbLine
 10
-526.9988618304712
 20
-302.3411221866978
 30
0.0
 11
-527.4988618304712
 21
-302.3411221866978
 31
0.0
  0
LINE
  5
83
330
1E
100
AcDbEntity
  8
1
 62
     7
100
AcDbLine
 10
-495.6988618304712
 20
-269.8411221866979
 30
0.0
 11
-495.6988618304712
 21
-314.8411221866978
 31
0.0
  0
LINE
  5
84
330
1E
100
AcDbEntity
  8
1
 62
     7
100
AcDbLine
 10
-491.5988618304711
 20
-269.8411221866979
 30
0.0
 11
-489.5988618304712
 21
-269.8411221866979
 31
0.0
  0
LINE
  5
85
330
1E
100
AcDbEntity
  8
1
 62
     7
100
AcDbLine
 10
-491.5988618304711
 20
-274.6411221866979
 30
0.0
 11
-491.5988618304711
 21
-281.0411221866979
 31
0.0
  0
LINE
  5
86
330
1E
100
AcDbEntity
  8
1
 62
     7
100
AcDbLine
 10
-489.5988618304712
 20
-269.8411221866979
 30
0.0
 11
-489.5988618304712
 21
-314.8411221866978
 31
0.0
  0
LINE
  5
87
330
1E
100
AcDbEntity
  8
1
 62
     7
100
AcDbLine
 10
-491.5988618304711
 20
-269.8411221866979
 30
0.0
 11
-491.5988618304711
 21
-314.8411221866978
 31
0.0
  0
LINE
  5
88
330
1E
100
AcDbEntity
  8
1
 62
     7
100
AcDbLine
 10
-492.5988618304712
 20
-269.8411221866979
 30
0.0
 11
-492.5988618304712
 21
-314.8411221866978
 31
0.0
  0
LINE
  5
89
330
1E
100
AcDbEntity
  8
1
 62
     7
100
AcDbLine
 10
-488.7988618304711
 20
-273.8411221866979
 30
0.0
 11
-488.7988618304711
 21
-281.8411221866978
 31
0.0
  0
LINE
  5
8A
330
1E
100
AcDbEntity
  8
1
 62
     7
100
AcDbLine
 10
-478.4988618304711
 20
-288.9661221866978
 30
0.0
 11
-477.9988618304711
 21
-289.4661221866978
 31
0.0
  0
LINE
  5
8B
330
1E
100
AcDbEntity
  8
1
 62
     7
100
AcDbLine
 10
-487.9988618304712
 20
-273.8411221866979
 30
0.0
 11
-487.9988618304712
 21
-281.8411221866978
 31
0.0
  0
LINE
  5
8C
330
1E
100
AcDbEntity
  8
1
 62
     7
100
AcDbLine
 10
-488.2199779921069
 20
-346.3411221866978
 30
0.0
 11
-489.5988618304712
 21
-346.3411221866978
 31
0.0
  0
LINE
  5
8D
330
1E
100
AcDbEntity
  8
1
 62
     7
100
AcDbLine
 10
-477.9988618304711
 20
-340.2161221866979
 30
0.0
 11
-478.4988618304711
 21
-340.7161221866978
 31
0.0
  0
LINE
  5
8E
330
1E
100
AcDbEntity
  8
1
 62
     7
100
AcDbLine
 10
-495.6988618304712
 20
-269.8411221866979
 30
0.0
 11
-492.5988618304712
 21
-269.8411221866979
 31
0.0
  0
LINE
  5
8F
330
1E
100
AcDbEntity
  8
1
 62
     7
100
AcDbLine
 10
-489.5988618304712
 20
-273.8411221866979
 30
0.0
 11
-480.7988618304712
 21
-273.8411221866979
 31
0.0
  0
LINE
  5
90
330
1E
100
AcDbEntity
  8
1
 62
     7
100
AcDbLine
 10
-487.1988618304711
 20
-273.8411221866979
 30
0.0
 11
-487.1988618304711
 21
-281.8411221866978
 31
0.0
  0
LINE
  5
91
330
1E
100
AcDbEntity
  8
1
 62
     7
100
AcDbLine
 10
-479.7988618304712
 20
-274.8411221866979
 30
0.0
 11
-479.7988618304712
 21
-314.8411221866978
 31
0.0
  0
LINE
  5
92
330
1E
100
AcDbEntity
  8
1
 62
     7
100
AcDbLine
 10
-480.7988618304712
 20
-273.8411221866979
 30
0.0
 11
-479.7988618304712
 21
-274.8411221866979
 31
0.0
  0
LINE
  5
93
330
1E
100
AcDbEntity
  8
1
 62
     7
100
AcDbLine
 10
-489.5988618304712
 20
-281.8411221866978
 30
0.0
 11
-487.1988618304711
 21
-281.8411221866978
 31
0.0
  0
LINE
  5
94
330
1E
100
AcDbEntity
  8
1
 62
     7
100
AcDbLine
 10
-485.1988618304711
 20
-281.8411221866978
 30
0.0
 11
-485.1988618304711
 21
-285.8411221866978
 31
0.0
  0
LINE
  5
95
330
1E
100
AcDbEntity
  8
1
 62
     7
100
AcDbLine
 10
-477.9988618304711
 20
-289.4661221866978
 30
0.0
 11
-477.9988618304711
 21
-298.3411221866978
 31
0.0
  0
LINE
  5
96
330
1E
100
AcDbEntity
  8
1
 62
     7
100
AcDbLine
 10
-477.9988618304711
 20
-331.3411221866978
 30
0.0
 11
-477.9988618304711
 21
-340.2161221866979
 31
0.0
  0
LINE
  5
97
330
1E
100
AcDbEntity
  8
1
 62
     7
100
AcDbLine
 10
-479.7988618304712
 20
-347.3411221866978
 30
0.0
 11
-479.7988618304712
 21
-314.8411221866978
 31
0.0
  0
LINE
  5
98
330
1E
100
AcDbEntity
  8
1
 62
     7
100
AcDbLine
 10
-484.1988618304712
 20
-347.3411221866978
 30
0.0
 11
-479.7988618304712
 21
-347.3411221866978
 31
0.0
  0
LINE
  5
99
330
1E
100
AcDbEntity
  8
1
 62
     7
100
AcDbLine
 10
-485.1988618304711
 20
-346.3411221866978
 30
0.0
 11
-485.1988618304711
 21
-339.1246062089143
 31
0.0
  0
LINE
  5
9A
330
1E
100
AcDbEntity
  8
1
 62
     7
100
AcDbLine
 10
-487.2988618304711
 20
-355.8411221866979
 30
0.0
 11
-486.4988618304711
 21
-355.8411221866979
 31
0.0
  0
LINE
  5
9B
330
1E
100
AcDbEntity
  8
1
 62
     7
100
AcDbLine
 10
-486.4988618304711
 20
-355.8411221866979
 30
0.0
 11
-486.4988618304711
 21
-339.1246062089143
 31
0.0
  0
LINE
  5
9C
330
1E
100
AcDbEntity
  8
1
 62
     7
100
AcDbLine
 10
-524.9988618304712
 20
-282.3411221866978
 30
0.0
 11
-524.9988618304712
 21
-257.8411221866979
 31
0.0
  0
LINE
  5
9D
330
1E
100
AcDbEntity
  8
1
 62
     7
100
AcDbLine
 10
-495.9988618304712
 20
-282.8411221866978
 30
0.0
 11
-495.9988618304712
 21
-285.8411221866978
 31
0.0
  0
LINE
  5
9E
330
1E
100
AcDbEntity
  8
1
 62
     7
100
AcDbLine
 10
-495.9988618304712
 20
-269.8411221866979
 30
0.0
 11
-507.9988618304711
 21
-269.8411221866979
 31
0.0
  0
LINE
  5
9F
330
1E
100
AcDbEntity
  8
1
 62
     7
100
AcDbLine
 10
-508.9988618304712
 20
-272.0411221866979
 30
0.0
 11
-508.9988618304712
 21
-270.8411221866979
 31
0.0
  0
LINE
  5
A0
330
1E
100
AcDbEntity
  8
1
 62
     7
100
AcDbLine
 10
-527.9988618304712
 20
-314.8411221866978
 30
0.0
 11
-527.9988618304712
 21
-302.8411221866978
 31
0.0
  0
LINE
  5
A1
330
1E
100
AcDbEntity
  8
1
 62
     7
100
AcDbLine
 10
-508.9988618304712
 20
-270.8411221866979
 30
0.0
 11
-507.9988618304711
 21
-269.8411221866979
 31
0.0
  0
LINE
  5
A2
330
1E
100
AcDbEntity
  8
1
 62
     7
100
AcDbLine
 10
-527.4988618304712
 20
-302.3411221866978
 30
0.0
 11
-527.9988618304712
 21
-302.8411221866978
 31
0.0
  0
LINE
  5
A3
330
1E
100
AcDbEntity
  8
1
 62
     7
100
AcDbLine
 10
-522.9988618304712
 20
-272.2911221866979
 30
0.0
 11
-524.9988618304712
 21
-274.2911221866979
 31
0.0
  0
LINE
  5
A4
330
1E
100
AcDbEntity
  8
1
 62
     7
100
AcDbLine
 10
-526.9988618304712
 20
-314.8411221866978
 30
0.0
 11
-526.9988618304712
 21
-282.8411221866978
 31
0.0
  0
LINE
  5
A5
330
1E
100
AcDbEntity
  8
1
 62
     7
100
AcDbLine
 10
-526.5988618304711
 20
-281.8411221866978
 30
0.0
 11
-526.5988618304711
 21
-257.8411221866979
 31
0.0
  0
LINE
  5
A6
330
1E
100
AcDbEntity
  8
1
 62
     7
100
AcDbLine
 10
-526.5988618304711
 20
-257.8411221866979
 30
0.0
 11
-524.9988618304712
 21
-257.8411221866979
 31
0.0
  0
LINE
  5
A7
330
1E
100
AcDbEntity
  8
1
 62
     3
100
AcDbLine
 10
-527.3474758276541
 20
-262.8411221866979
 30
0.0
 11
-524.2394220112703
 21
-262.8411221866979
 31
0.0
  0
LINE
  5
A8
330
1E
100
AcDbEntity
  8
1
 62
     7
100
AcDbLine
 10
-526.9988618304712
 20
-282.8411221866978
 30
0.0
 11
-526.4988618304712
 21
-282.3411221866978
 31
0.0
  0
LINE
  5
A9
330
1E
100
AcDbEntity
  8
1
 62
     7
100
AcDbLine
 10
-522.9988618304712
 20
-272.2911221866979
 30
0.0
 11
-508.9988618304712
 21
-272.2911221866979
 31
0.0
  0
LINE
  5
AA
330
1E
100
AcDbEntity
  8
1
 62
     7
100
AcDbLine
 10
-526.5988618304711
 20
-281.8411221866978
 30
0.0
 11
-524.9988618304712
 21
-281.8411221866978
 31
0.0
  0
LINE
  5
AB
330
1E
100
AcDbEntity
  8
1
 62
     7
100
AcDbLine
 10
-526.4988618304712
 20
-282.3411221866978
 30
0.0
 11
-524.9988618304712
 21
-282.3411221866978
 31
0.0
  0
LINE
  5
AC
330
1E
100
AcDbEntity
  8
1
 62
     7
100
AcDbLine
 10
-477.9988618304711
 20
-298.3411221866978
 30
0.0
 11
-477.9988618304711
 21
-314.8411221866978
 31
0.0
  0
LINE
  5
AD
330
1E
100
AcDbEntity
  8
1
 62
     7
100
AcDbLine
 10
-477.9988618304711
 20
-314.8411221866978
 30
0.0
 11
-477.9988618304711
 21
-331.3411221866978
 31
0.0
  0
LINE
  5
AE
330
1E
100
AcDbEntity
  8
1
 62
     7
100
AcDbLine
 10
-519.4988618304712
 20
-252.2911221866979
 30
0.0
 11
-517.4988618304712
 21
-252.2911221866979
 31
0.0
  0
LINE
  5
AF
330
1E
100
AcDbEntity
  8
1
 62
     7
100
AcDbLine
 10
-517.4988618304712
 20
-252.2911221866979
 30
0.0
 11
-517.4988618304712
 21
-272.2911221866979
 31
0.0
  0
LINE
  5
B0
330
1E
100
AcDbEntity
  8
1
 62
     7
100
AcDbLine
 10
-519.4988618304712
 20
-252.2911221866979
 30
0.0
 11
-519.4988618304712
 21
-272.2911221866979
 31
0.0
  0
LINE
  5
B1
330
1E
100
AcDbEntity
  8
1
 62
     7
100
AcDbLine
 10
-517.8988618304712
 20
-248.2911221866979
 30
0.0
 11
-517.8988618304712
 21
-252.2911221866979
 31
0.0
  0
LINE
  5
B2
330
1E
100
AcDbEntity
  8
1
 62
     7
100
AcDbLine
 10
-518.1988618304711
 20
-248.2911221866979
 30
0.0
 11
-518.1988618304711
 21
-252.2911221866979
 31
0.0
  0
LINE
  5
B3
330
1E
100
AcDbEntity
  8
1
 62
     7
100
AcDbLine
 10
-518.4988618304712
 20
-248.2911221866979
 30
0.0
 11
-518.4988618304712
 21
-252.2911221866979
 31
0.0
  0
LINE
  5
B4
330
1E
100
AcDbEntity
  8
1
 62
     7
100
AcDbLine
 10
-518.7988618304712
 20
-248.2911221866979
 30
0.0
 11
-518.7988618304712
 21
-252.2911221866979
 31
0.0
  0
LINE
  5
B5
330
1E
100
AcDbEntity
  8
1
 62
     7
100
AcDbLine
 10
-519.0988618304711
 20
-248.2911221866979
 30
0.0
 11
-519.0988618304711
 21
-252.2911221866979
 31
0.0
  0
LINE
  5
B6
330
1E
100
AcDbEntity
  8
1
 62
     7
100
AcDbLine
 10
-368.2825444012908
 20
-245.6826912615387
 30
0.0
 11
-367.5060872659831
 21
-248.5804687404059
 31
0.0
  0
LINE
  5
B7
330
1E
100
AcDbEntity
  8
1
 62
     7
100
AcDbLine
 10
-367.7995814881461
 20
-245.5532817389875
 30
0.0
 11
-367.0231243528385
 21
-248.4510592178546
 31
0.0
  0
LINE
  5
B8
330
1E
100
AcDbEntity
  8
1
 62
     7
100
AcDbLine
 10
-367.3166185750016
 20
-245.4238722164361
 30
0.0
 11
-366.5401614396941
 21
-248.3216496953034
 31
0.0
  0
LINE
  5
B9
330
1E
100
AcDbEntity
  8
1
 62
     7
100
AcDbLine
 10
-366.3506927487126
 20
-245.1650531713336
 30
0.0
 11
-365.5742356134049
 21
-248.0628306502008
 31
0.0
  0
LINE
  5
BA
330
1E
100
AcDbEntity
  8
1
 62
     7
100
AcDbLine
 10
-365.867729835568
 20
-245.0356436487824
 30
0.0
 11
-365.0912727002604
 21
-247.9334211276496
 31
0.0
  0
LINE
  5
BB
330
1E
100
AcDbEntity
  8
1
 62
     7
100
AcDbLine
 10
-365.3847669224234
 20
-244.906234126231
 30
0.0
 11
-364.6083097871158
 21
-247.8040116050984
 31
0.0
  0
LINE
  5
BC
330
1E
100
AcDbEntity
  8
1
 62
     7
100
AcDbLine
 10
-359.8455414440891
 20
-271.3744600036898
 30
0.0
 11
-366.0571985265496
 21
-248.1922401727521
 31
0.0
  0
LINE
  5
BD
330
1E
100
AcDbEntity
  8
1
 62
     7
100
AcDbLine
 10
-367.9890501791276
 20
-248.7098782629572
 30
0.0
 11
-361.7658843418506
 21
-271.9350493516011
 31
0.0
  0
LINE
  5
BE
330
1E
100
AcDbEntity
  8
1
 62
     7
100
AcDbLine
 10
-364.1253468739714
 20
-247.6746020825471
 30
0.0
 11
-357.9021810366945
 21
-270.8997731711909
 31
0.0
  0
LINE
  5
BF
330
1E
100
AcDbEntity
  8
1
 62
     7
100
AcDbLine
 10
-367.9890501791276
 20
-248.7098782629572
 30
0.0
 11
-364.1253468739714
 21
-247.6746020825471
 31
0.0
  0
LINE
  5
C0
330
1E
100
AcDbEntity
  8
1
  6
DASHDOT
 62
     3
100
AcDbLine
 10
-420.0658361241822
 20
-334.8411221866978
 30
0.0
 11
-406.9187431579051
 21
-334.8411221866978
 31
0.0
  0
LINE
  5
C1
330
1E
100
AcDbEntity
  8
1
 62
     7
100
AcDbLine
 10
-419.5988618304712
 20
-279.8411221866979
 30
0.0
 11
-419.5988618304712
 21
-302.8411221866978
 31
0.0
  0
LINE
  5
C2
330
1E
100
AcDbEntity
  8
1
 62
     7
100
AcDbLine
 10
-425.6988618304712
 20
-269.8411221866979
 30
0.0
 11
-425.6988618304712
 21
-302.8411221866978
 31
0.0
  0
LINE
  5
C3
330
1E
100
AcDbEntity
  8
1
 62
     7
100
AcDbLine
 10
-421.5988618304711
 20
-269.8411221866979
 30
0.0
 11
-419.5988618304712
 21
-269.8411221866979
 31
0.0
  0
LINE
  5
C4
330
1E
100
AcDbEntity
  8
1
 62
     7
100
AcDbLine
 10
-413.9988618304712
 20
-314.8411221866978
 30
0.0
 11
-413.9988618304712
 21
-330.8411221866979
 31
0.0
  0
LINE
  5
C5
330
1E
100
AcDbEntity
  8
1
 62
     7
100
AcDbLine
 10
-422.5778861562204
 20
-274.3411221866979
 30
0.0
 11
-421.8988618304711
 21
-274.3411221866979
 31
0.0
  0
LINE
  5
C6
330
1E
100
AcDbEntity
  8
1
 62
     7
100
AcDbLine
 10
-421.5988618304711
 20
-274.6411221866979
 30
0.0
 11
-421.5988618304711
 21
-281.0411221866979
 31
0.0
  0
LINE
  5
C7
330
1E
100
AcDbEntity
  8
1
 62
     7
100
AcDbLine
 10
-422.5778861562204
 20
-281.3411221866979
 30
0.0
 11
-421.8988618304711
 21
-281.3411221866979
 31
0.0
  0
LINE
  5
C8
330
1E
100
AcDbEntity
  8
1
 62
     7
100
AcDbLine
 10
-421.5988618304711
 20
-275.8411221866979
 30
0.0
 11
-409.9988618304712
 21
-275.8411221866979
 31
0.0
  0
LINE
  5
C9
330
1E
100
AcDbEntity
  8
1
 62
     7
100
AcDbLine
 10
-409.9988618304712
 20
-275.8411221866979
 30
0.0
 11
-409.5988618304712
 21
-276.2411221866979
 31
0.0
  0
LINE
  5
CA
330
1E
100
AcDbEntity
  8
1
 62
     7
100
AcDbLine
 10
-409.5988618304712
 20
-276.2411221866979
 30
0.0
 11
-409.5988618304712
 21
-279.441122186698
 31
0.0
  0
LINE
  5
CB
330
1E
100
AcDbEntity
  8
1
 62
     7
100
AcDbLine
 10
-409.5988618304712
 20
-279.441122186698
 30
0.0
 11
-409.9988618304712
 21
-279.8411221866979
 31
0.0
  0
LINE
  5
CC
330
1E
100
AcDbEntity
  8
1
 62
     7
100
AcDbLine
 10
-409.9988618304712
 20
-279.8411221866979
 30
0.0
 11
-421.5988618304711
 21
-279.8411221866979
 31
0.0
  0
LINE
  5
CD
330
1E
100
AcDbEntity
  8
1
 62
     7
100
AcDbLine
 10
-409.9988618304712
 20
-275.8411221866979
 30
0.0
 11
-409.9988618304712
 21
-279.8411221866979
 31
0.0
  0
LINE
  5
CE
330
1E
100
AcDbEntity
  8
1
 62
     3
100
AcDbLine
 10
-409.5988618304712
 20
-276.2411221866979
 30
0.0
 11
-420.4060415074436
 21
-276.2411221866979
 31
0.0
  0
LINE
  5
CF
330
1E
100
AcDbEntity
  8
1
 62
     3
100
AcDbLine
 10
-420.4060415074436
 20
-276.2411221866979
 30
0.0
 11
-421.0988618304711
 21
-275.8411221866979
 31
0.0
  0
LINE
  5
D0
330
1E
100
AcDbEntity
  8
1
 62
     3
100
AcDbLine
 10
-409.5988618304712
 20
-279.441122186698
 30
0.0
 11
-420.4060415074436
 21
-279.441122186698
 31
0.0
  0
LINE
  5
D1
330
1E
100
AcDbEntity
  8
1
 62
     3
100
AcDbLine
 10
-420.4060415074436
 20
-279.441122186698
 30
0.0
 11
-421.0988618304711
 21
-279.8411221866979
 31
0.0
  0
LINE
  5
D2
330
1E
100
AcDbEntity
  8
1
 62
     3
100
AcDbLine
 10
-420.4060415074436
 20
-275.8411221866979
 30
0.0
 11
-420.4060415074436
 21
-279.8411221866979
 31
0.0
  0
LINE
  5
D3
330
1E
100
AcDbEntity
  8
1
 62
     7
100
AcDbLine
 10
-419.5988618304712
 20
-269.8411221866979
 30
0.0
 11
-419.5988618304712
 21
-275.8411221866979
 31
0.0
  0
LINE
  5
D4
330
1E
100
AcDbEntity
  8
1
 62
     7
100
AcDbLine
 10
-421.5988618304711
 20
-269.8411221866979
 30
0.0
 11
-421.5988618304711
 21
-302.8411221866978
 31
0.0
  0
LINE
  5
D5
330
1E
100
AcDbEntity
  8
1
 62
     7
100
AcDbLine
 10
-422.5988618304712
 20
-269.8411221866979
 30
0.0
 11
-422.5988618304712
 21
-274.3411221866979
 31
0.0
  0
LINE
  5
D6
330
1E
100
AcDbEntity
  8
1
 62
     7
100
AcDbLine
 10
-418.7988618304711
 20
-273.8411221866979
 30
0.0
 11
-418.7988618304711
 21
-275.8411221866979
 31
0.0
  0
LINE
  5
D7
330
1E
100
AcDbEntity
  8
1
 62
     7
100
AcDbLine
 10
-413.9988618304712
 20
-298.8411221866978
 30
0.0
 11
-413.9988618304712
 21
-314.8411221866978
 31
0.0
  0
LINE
  5
D8
330
1E
100
AcDbEntity
  8
1
 62
     7
100
AcDbLine
 10
-413.9988618304712
 20
-298.8411221866978
 30
0.0
 11
-407.9988618304711
 21
-298.8411221866978
 31
0.0
  0
LINE
  5
D9
330
1E
100
AcDbEntity
  8
1
 62
     7
100
AcDbLine
 10
-418.9988618304711
 20
-301.8411221866978
 30
0.0
 11
-413.9988618304712
 21
-301.8411221866978
 31
0.0
  0
LINE
  5
DA
330
1E
100
AcDbEntity
  8
1
 62
     7
100
AcDbLine
 10
-418.9988618304711
 20
-291.5911221866979
 30
0.0
 11
-407.9988618304711
 21
-291.5911221866979
 31
0.0
  0
LINE
  5
DB
330
1E
100
AcDbEntity
  8
1
 62
     7
100
AcDbLine
 10
-418.9988618304711
 20
-292.5911221866978
 30
0.0
 11
-407.9988618304711
 21
-292.5911221866978
 31
0.0
  0
LINE
  5
DC
330
1E
100
AcDbEntity
  8
1
 62
     7
100
AcDbLine
 10
-418.9988618304711
 20
-297.0911221866978
 30
0.0
 11
-407.9988618304711
 21
-297.0911221866978
 31
0.0
  0
LINE
  5
DD
330
1E
100
AcDbEntity
  8
1
 62
     7
100
AcDbLine
 10
-418.7988618304711
 20
-279.8411221866979
 30
0.0
 11
-418.7988618304711
 21
-281.8411221866978
 31
0.0
  0
LINE
  5
DE
330
1E
100
AcDbEntity
  8
1
 62
     7
100
AcDbLine
 10
-418.9988618304711
 20
-289.4661221866978
 30
0.0
 11
-418.4988618304712
 21
-288.9661221866978
 31
0.0
  0
LINE
  5
DF
330
1E
100
AcDbEntity
  8
1
 62
     7
100
AcDbLine
 10
-408.4988618304711
 20
-288.9661221866978
 30
0.0
 11
-407.9988618304711
 21
-289.4661221866978
 31
0.0
  0
LINE
  5
E0
330
1E
100
AcDbEntity
  8
1
 62
     7
100
AcDbLine
 10
-417.9988618304712
 20
-273.8411221866979
 30
0.0
 11
-417.9988618304712
 21
-275.8411221866979
 31
0.0
  0
LINE
  5
E1
330
1E
100
AcDbEntity
  8
1
 62
     7
100
AcDbLine
 10
-417.9988618304712
 20
-279.8411221866979
 30
0.0
 11
-417.9988618304712
 21
-281.8411221866978
 31
0.0
  0
LINE
  5
E2
330
1E
100
AcDbEntity
  8
1
 62
     7
100
AcDbLine
 10
-419.5988618304712
 20
-283.3411221866978
 30
0.0
 11
-418.2199779921068
 21
-283.3411221866978
 31
0.0
  0
LINE
  5
E3
330
1E
100
AcDbEntity
  8
1
 62
     7
100
AcDbLine
 10
-417.058150938265
 20
-288.1661221866978
 30
0.0
 11
-414.5988618304712
 21
-288.1661221866978
 31
0.0
  0
LINE
  5
E4
330
1E
100
AcDbEntity
  8
1
 62
     7
100
AcDbLine
 10
-414.5988618304712
 20
-288.1661221866978
 30
0.0
 11
-414.5988618304712
 21
-288.9661221866978
 31
0.0
  0
LINE
  5
E5
330
1E
100
AcDbEntity
  8
1
 62
     7
100
AcDbLine
 10
-418.0988618304712
 20
-284.2655945017207
 30
0.0
 11
-418.0988618304712
 21
-287.9718973076043
 31
0.0
  0
LINE
  5
E6
330
1E
100
AcDbEntity
  8
1
 62
     7
100
AcDbLine
 10
-421.5988618304711
 20
-285.8411221866978
 30
0.0
 11
-419.5988618304712
 21
-285.8411221866978
 31
0.0
  0
LINE
  5
E7
330
1E
100
AcDbEntity
  8
1
 62
     7
100
AcDbLine
 10
-417.2988618304711
 20
-284.8411221866978
 30
0.0
 11
-416.4988618304711
 21
-284.8411221866978
 31
0.0
  0
LINE
  5
E8
330
1E
100
AcDbEntity
  8
1
 62
     7
100
AcDbLine
 10
-417.2988618304711
 20
-287.8411221866978
 30
0.0
 11
-416.4988618304711
 21
-287.8411221866978
 31
0.0
  0
LINE
  5
E9
330
1E
100
AcDbEntity
  8
1
 62
     7
100
AcDbLine
 10
-419.5988618304712
 20
-343.8411221866978
 30
0.0
 11
-421.5988618304711
 21
-343.8411221866978
 31
0.0
  0
LINE
  5
EA
330
1E
100
AcDbEntity
  8
1
 62
     7
100
AcDbLine
 10
-418.0988618304712
 20
-341.7103470657913
 30
0.0
 11
-418.0988618304712
 21
-345.4166498716751
 31
0.0
  0
LINE
  5
EB
330
1E
100
AcDbEntity
  8
1
 62
     7
100
AcDbLine
 10
-414.5988618304712
 20
-340.7161221866978
 30
0.0
 11
-414.5988618304712
 21
-341.5161221866978
 31
0.0
  0
LINE
  5
EC
330
1E
100
AcDbEntity
  8
1
 62
     7
100
AcDbLine
 10
-414.5988618304712
 20
-341.5161221866978
 30
0.0
 11
-417.058150938265
 21
-341.5161221866978
 31
0.0
  0
LINE
  5
ED
330
1E
100
AcDbEntity
  8
1
 62
     7
100
AcDbLine
 10
-417.2988618304711
 20
-341.6613694988163
 30
0.0
 11
-417.2988618304711
 21
-355.8411221866979
 31
0.0
  0
LINE
  5
EE
330
1E
100
AcDbEntity
  8
1
 62
     7
100
AcDbLine
 10
-418.2199779921068
 20
-346.3411221866978
 30
0.0
 11
-419.5988618304712
 21
-346.3411221866978
 31
0.0
  0
LINE
  5
EF
330
1E
100
AcDbEntity
  8
1
 62
     7
100
AcDbLine
 10
-407.9988618304711
 20
-340.2161221866979
 30
0.0
 11
-408.4988618304711
 21
-340.7161221866978
 31
0.0
  0
LINE
  5
F0
330
1E
100
AcDbEntity
  8
1
 62
     7
100
AcDbLine
 10
-418.4988618304712
 20
-340.7161221866978
 30
0.0
 11
-418.9988618304711
 21
-340.2161221866979
 31
0.0
  0
LINE
  5
F1
330
1E
100
AcDbEntity
  8
1
 62
     3
100
AcDbLine
 10
-407.9988618304711
 20
-332.5911221866978
 30
0.0
 11
-418.9988618304711
 21
-332.5911221866978
 31
0.0
  0
LINE
  5
F2
330
1E
100
AcDbEntity
  8
1
 62
     3
100
AcDbLine
 10
-407.9988618304711
 20
-337.0911221866979
 30
0.0
 11
-418.9988618304711
 21
-337.0911221866979
 31
0.0
  0
LINE
  5
F3
330
1E
100
AcDbEntity
  8
1
 62
     7
100
AcDbLine
 10
-407.9988618304711
 20
-338.0911221866978
 30
0.0
 11
-418.9988618304711
 21
-338.0911221866978
 31
0.0
  0
LINE
  5
F4
330
1E
100
AcDbEntity
  8
1
 62
     7
100
AcDbLine
 10
-413.9988618304712
 20
-327.8411221866978
 30
0.0
 11
-418.9988618304711
 21
-327.8411221866978
 31
0.0
  0
LINE
  5
F5
330
1E
100
AcDbEntity
  8
1
 62
     7
100
AcDbLine
 10
-407.9988618304711
 20
-330.8411221866979
 30
0.0
 11
-413.9988618304712
 21
-330.8411221866979
 31
0.0
  0
LINE
  5
F6
330
1E
100
AcDbEntity
  8
1
 62
     7
100
AcDbLine
 10
-422.5988618304712
 20
-343.8411221866978
 30
0.0
 11
-425.6988618304712
 21
-343.8411221866978
 31
0.0
  0
LINE
  5
F7
330
1E
100
AcDbEntity
  8
1
 62
     7
100
AcDbLine
 10
-419.5988618304712
 20
-359.8411221866978
 30
0.0
 11
-421.5988618304711
 21
-359.8411221866978
 31
0.0
  0
LINE
  5
F8
330
1E
100
AcDbEntity
  8
1
 62
     7
100
AcDbLine
 10
-418.9988618304711
 20
-333.1911221866978
 30
0.0
 11
-407.9988618304711
 21
-333.1911221866978
 31
0.0
  0
LINE
  5
F9
330
1E
100
AcDbEntity
  8
1
 62
     7
100
AcDbLine
 10
-418.9988618304711
 20
-336.4911221866979
 30
0.0
 11
-407.9988618304711
 21
-336.4911221866979
 31
0.0
  0
LINE
  5
FA
330
1E
100
AcDbEntity
  8
1
 62
     7
100
AcDbLine
 10
-420.948861830471
 20
-346.4911221866978
 30
0.0
 11
-419.5988618304712
 21
-345.1411221866978
 31
0.0
  0
LINE
  5
FB
330
1E
100
AcDbEntity
  8
1
 62
     7
100
AcDbLine
 10
-419.5988618304712
 20
-350.5411221866978
 30
0.0
 11
-420.948861830471
 21
-349.1911221866978
 31
0.0
  0
LINE
  5
FC
330
1E
100
AcDbEntity
  8
1
 62
     7
100
AcDbLine
 10
-420.948861830471
 20
-354.4911221866978
 30
0.0
 11
-419.5988618304712
 21
-353.1411221866978
 31
0.0
  0
LINE
  5
FD
330
1E
100
AcDbEntity
  8
1
 62
     7
100
AcDbLine
 10
-419.5988618304712
 20
-358.5411221866978
 30
0.0
 11
-420.948861830471
 21
-357.1911221866978
 31
0.0
  0
LINE
  5
FE
330
1E
100
AcDbEntity
  8
1
 62
     7
100
AcDbLine
 10
-420.948861830471
 20
-346.4911221866978
 30
0.0
 11
-420.948861830471
 21
-349.1911221866978
 31
0.0
  0
LINE
  5
FF
330
1E
100
AcDbEntity
  8
1
 62
     7
100
AcDbLine
 10
-420.948861830471
 20
-354.4911221866978
 30
0.0
 11
-420.948861830471
 21
-357.1911221866978
 31
0.0
  0
LINE
  5
100
330
1E
100
AcDbEntity
  8
1
 62
     7
100
AcDbLine
 10
-421.5988618304711
 20
-357.1911221866978
 30
0.0
 11
-421.5988618304711
 21
-359.8411221866978
 31
0.0
  0
LINE
  5
101
330
1E
100
AcDbEntity
  8
1
 62
     7
100
AcDbLine
 10
-421.5988618304711
 20
-349.1911221866978
 30
0.0
 11
-421.5988618304711
 21
-354.4911221866978
 31
0.0
  0
LINE
  5
102
330
1E
100
AcDbEntity
  8
1
 62
     7
100
AcDbLine
 10
-422.5778861562204
 20
-344.3411221866978
 30
0.0
 11
-421.5988618304711
 21
-344.3411221866978
 31
0.0
  0
LINE
  5
103
330
1E
100
AcDbEntity
  8
1
 62
     7
100
AcDbLine
 10
-422.5778861562204
 20
-359.3411221866978
 30
0.0
 11
-421.5988618304711
 21
-359.3411221866978
 31
0.0
  0
LINE
  5
104
330
1E
100
AcDbEntity
  8
1
  6
DASHDOT
 62
     3
100
AcDbLine
 10
-420.5702811540867
 20
-294.8411221866978
 30
0.0
 11
-405.5702811540866
 21
-294.8411221866978
 31
0.0
  0
LINE
  5
105
330
1E
100
AcDbEntity
  8
1
 62
     7
100
AcDbLine
 10
-425.6988618304712
 20
-269.8411221866979
 30
0.0
 11
-422.5988618304712
 21
-269.8411221866979
 31
0.0
  0
LINE
  5
106
330
1E
100
AcDbEntity
  8
1
 62
     7
100
AcDbLine
 10
-425.6988618304712
 20
-273.8411221866979
 30
0.0
 11
-422.5988618304712
 21
-273.8411221866979
 31
0.0
  0
LINE
  5
107
330
1E
100
AcDbEntity
  8
1
 62
     7
100
AcDbLine
 10
-425.6988618304712
 20
-281.8411221866978
 30
0.0
 11
-422.5988618304712
 21
-281.8411221866978
 31
0.0
  0
LINE
  5
108
330
1E
100
AcDbEntity
  8
1
 62
     7
100
AcDbLine
 10
-425.6988618304712
 20
-285.8411221866978
 30
0.0
 11
-422.5988618304712
 21
-285.8411221866978
 31
0.0
  0
LINE
  5
109
330
1E
100
AcDbEntity
  8
1
 62
     7
100
AcDbLine
 10
-422.5988618304712
 20
-281.3411221866979
 30
0.0
 11
-422.5988618304712
 21
-302.8411221866978
 31
0.0
  0
LINE
  5
10A
330
1E
100
AcDbEntity
  8
1
 62
     7
100
AcDbLine
 10
-419.5988618304712
 20
-273.8411221866979
 30
0.0
 11
-410.7988618304712
 21
-273.8411221866979
 31
0.0
  0
LINE
  5
10B
330
1E
100
AcDbEntity
  8
1
 62
     7
100
AcDbLine
 10
-417.1988618304712
 20
-273.8411221866979
 30
0.0
 11
-417.1988618304712
 21
-275.8411221866979
 31
0.0
  0
LINE
  5
10C
330
1E
100
AcDbEntity
  8
1
 62
     7
100
AcDbLine
 10
-409.7988618304712
 20
-274.8411221866979
 30
0.0
 11
-409.7988618304712
 21
-276.0411221866979
 31
0.0
  0
LINE
  5
10D
330
1E
100
AcDbEntity
  8
1
 62
     7
100
AcDbLine
 10
-410.7988618304712
 20
-273.8411221866979
 30
0.0
 11
-409.7988618304712
 21
-274.8411221866979
 31
0.0
  0
LINE
  5
10E
330
1E
100
AcDbEntity
  8
1
 62
     7
100
AcDbLine
 10
-409.7988618304712
 20
-279.6411221866979
 30
0.0
 11
-409.7988618304712
 21
-291.5911221866979
 31
0.0
  0
LINE
  5
10F
330
1E
100
AcDbEntity
  8
1
 62
     7
100
AcDbLine
 10
-419.5988618304712
 20
-281.8411221866978
 30
0.0
 11
-417.1988618304712
 21
-281.8411221866978
 31
0.0
  0
LINE
  5
110
330
1E
100
AcDbEntity
  8
1
 62
     7
100
AcDbLine
 10
-417.1988618304712
 20
-281.8411221866978
 30
0.0
 11
-417.1988618304712
 21
-279.8411221866979
 31
0.0
  0
LINE
  5
111
330
1E
100
AcDbEntity
  8
1
 62
     7
100
AcDbLine
 10
-417.1988618304712
 20
-281.8411221866978
 30
0.0
 11
-415.1988618304711
 21
-281.8411221866978
 31
0.0
  0
LINE
  5
112
330
1E
100
AcDbEntity
  8
1
 62
     7
100
AcDbLine
 10
-415.1988618304711
 20
-281.8411221866978
 30
0.0
 11
-415.1988618304711
 21
-285.8411221866978
 31
0.0
  0
LINE
  5
113
330
1E
100
AcDbEntity
  8
1
 62
     7
100
AcDbLine
 10
-415.1988618304711
 20
-285.8411221866978
 30
0.0
 11
-414.2988618304712
 21
-285.8411221866978
 31
0.0
  0
LINE
  5
114
330
1E
100
AcDbEntity
  8
1
 62
     7
100
AcDbLine
 10
-414.2988618304712
 20
-285.8411221866978
 30
0.0
 11
-414.2988618304712
 21
-291.5911221866979
 31
0.0
  0
LINE
  5
115
330
1E
100
AcDbEntity
  8
1
 62
     7
100
AcDbLine
 10
-416.4988618304711
 20
-287.8411221866978
 30
0.0
 11
-416.4988618304711
 21
-281.8411221866978
 31
0.0
  0
LINE
  5
116
330
1E
100
AcDbEntity
  8
1
 62
     7
100
AcDbLine
 10
-417.2988618304711
 20
-288.0208748745795
 30
0.0
 11
-417.2988618304711
 21
-281.8411221866978
 31
0.0
  0
LINE
  5
117
330
1E
100
AcDbEntity
  8
1
 62
     7
100
AcDbLine
 10
-418.2034679641594
 20
-284.1411221866978
 30
0.0
 11
-419.5988618304712
 21
-284.1411221866978
 31
0.0
  0
LINE
  5
118
330
1E
100
AcDbEntity
  8
1
 62
     7
100
AcDbLine
 10
-418.4988618304712
 20
-288.9661221866978
 30
0.0
 11
-408.4988618304711
 21
-288.9661221866978
 31
0.0
  0
LINE
  5
119
330
1E
100
AcDbEntity
  8
1
 62
     7
100
AcDbLine
 10
-407.9988618304711
 20
-289.4661221866978
 30
0.0
 11
-407.9988618304711
 21
-298.3411221866978
 31
0.0
  0
LINE
  5
11A
330
1E
100
AcDbEntity
  8
1
 62
     7
100
AcDbLine
 10
-407.9988618304711
 20
-331.3411221866978
 30
0.0
 11
-407.9988618304711
 21
-340.2161221866979
 31
0.0
  0
LINE
  5
11B
330
1E
100
AcDbEntity
  8
1
 62
     7
100
AcDbLine
 10
-418.4988618304712
 20
-340.7161221866978
 30
0.0
 11
-408.4988618304711
 21
-340.7161221866978
 31
0.0
  0
LINE
  5
11C
330
1E
100
AcDbEntity
  8
1
 62
     7
100
AcDbLine
 10
-409.7988618304712
 20
-347.3411221866978
 30
0.0
 11
-409.7988618304712
 21
-338.0911221866978
 31
0.0
  0
LINE
  5
11D
330
1E
100
AcDbEntity
  8
1
 62
     7
100
AcDbLine
 10
-414.1988618304711
 20
-347.3411221866978
 30
0.0
 11
-409.7988618304712
 21
-347.3411221866978
 31
0.0
  0
LINE
  5
11E
330
1E
100
AcDbEntity
  8
1
 62
     7
100
AcDbLine
 10
-415.1988618304711
 20
-346.3411221866978
 30
0.0
 11
-415.1988618304711
 21
-343.8411221866978
 31
0.0
  0
LINE
  5
11F
330
1E
100
AcDbEntity
  8
1
 62
     7
100
AcDbLine
 10
-415.1988618304711
 20
-343.8411221866978
 30
0.0
 11
-414.2988618304712
 21
-343.8411221866978
 31
0.0
  0
LINE
  5
120
330
1E
100
AcDbEntity
  8
1
 62
     7
100
AcDbLine
 10
-414.2988618304712
 20
-343.8411221866978
 30
0.0
 11
-414.2988618304712
 21
-338.0911221866978
 31
0.0
  0
LINE
  5
121
330
1E
100
AcDbEntity
  8
1
 62
     7
100
AcDbLine
 10
-418.2034679641594
 20
-345.5411221866978
 30
0.0
 11
-419.5988618304712
 21
-345.5411221866978
 31
0.0
  0
LINE
  5
122
330
1E
100
AcDbEntity
  8
1
 62
     7
100
AcDbLine
 10
-417.2988618304711
 20
-355.8411221866979
 30
0.0
 11
-416.4988618304711
 21
-355.8411221866979
 31
0.0
  0
LINE
  5
123
330
1E
100
AcDbEntity
  8
1
 62
     7
100
AcDbLine
 10
-416.4988618304711
 20
-355.8411221866979
 30
0.0
 11
-416.4988618304711
 21
-341.5161221866978
 31
0.0
  0
LINE
  5
124
330
1E
100
AcDbEntity
  8
1
 62
     7
100
AcDbLine
 10
-424.4988618304711
 20
-346.4911221866978
 30
0.0
 11
-420.948861830471
 21
-346.4911221866978
 31
0.0
  0
LINE
  5
125
330
1E
100
AcDbEntity
  8
1
 62
     7
100
AcDbLine
 10
-424.4988618304711
 20
-349.191122186698
 30
0.0
 11
-420.948861830471
 21
-349.1911221866978
 31
0.0
  0
LINE
  5
126
330
1E
100
AcDbEntity
  8
1
 62
     7
100
AcDbLine
 10
-425.6988618304712
 20
-345.4911221866978
 30
0.0
 11
-424.4988618304711
 21
-345.4911221866978
 31
0.0
  0
LINE
  5
127
330
1E
100
AcDbEntity
  8
1
 62
     7
100
AcDbLine
 10
-425.6988618304712
 20
-350.191122186698
 30
0.0
 11
-424.4988618304711
 21
-350.191122186698
 31
0.0
  0
LINE
  5
128
330
1E
100
AcDbEntity
  8
1
 62
     7
100
AcDbLine
 10
-424.4988618304711
 20
-345.4911221866978
 30
0.0
 11
-424.4988618304711
 21
-350.191122186698
 31
0.0
  0
LINE
  5
129
330
1E
100
AcDbEntity
  8
1
 62
     7
100
AcDbLine
 10
-425.6988618304712
 20
-359.8411221866978
 30
0.0
 11
-422.5988618304712
 21
-359.8411221866978
 31
0.0
  0
LINE
  5
12A
330
1E
100
AcDbEntity
  8
1
 62
     7
100
AcDbLine
 10
-425.6988618304712
 20
-358.191122186698
 30
0.0
 11
-424.4988618304711
 21
-358.191122186698
 31
0.0
  0
LINE
  5
12B
330
1E
100
AcDbEntity
  8
1
 62
     7
100
AcDbLine
 10
-425.6988618304712
 20
-353.4911221866978
 30
0.0
 11
-424.4988618304711
 21
-353.4911221866978
 31
0.0
  0
LINE
  5
12C
330
1E
100
AcDbEntity
  8
1
 62
     7
100
AcDbLine
 10
-424.4988618304711
 20
-353.4911221866978
 30
0.0
 11
-424.4988618304711
 21
-358.191122186698
 31
0.0
  0
LINE
  5
12D
330
1E
100
AcDbEntity
  8
1
 62
     7
100
AcDbLine
 10
-424.4988618304711
 20
-354.4911221866978
 30
0.0
 11
-420.948861830471
 21
-354.4911221866978
 31
0.0
  0
LINE
  5
12E
330
1E
100
AcDbEntity
  8
1
 62
     7
100
AcDbLine
 10
-424.4988618304711
 20
-357.1911221866979
 30
0.0
 11
-420.948861830471
 21
-357.1911221866978
 31
0.0
  0
LINE
  5
12F
330
1E
100
AcDbEntity
  8
1
 62
     7
100
AcDbLine
 10
-422.5988618304712
 20
-349.191122186698
 30
0.0
 11
-422.5988618304712
 21
-354.4911221866978
 31
0.0
  0
LINE
  5
130
330
1E
100
AcDbEntity
  8
1
 62
     7
100
AcDbLine
 10
-422.5988618304712
 20
-357.1911221866978
 30
0.0
 11
-422.5988618304712
 21
-359.8411221866978
 31
0.0
  0
LINE
  5
131
330
1E
100
AcDbEntity
  8
1
 62
     7
100
AcDbLine
 10
-421.5988618304711
 20
-346.4911221866978
 30
0.0
 11
-421.5988618304711
 21
-326.8411221866978
 31
0.0
  0
LINE
  5
132
330
1E
100
AcDbEntity
  8
1
  6
DASHDOT
 62
     3
100
AcDbLine
 10
-351.3197244263318
 20
-262.8411221866979
 30
0.0
 11
-345.0231973168787
 21
-262.8411221866979
 31
0.0
  0
LINE
  5
133
330
1E
100
AcDbEntity
  8
1
 62
     7
100
AcDbLine
 10
-341.1986844144756
 20
-259.8411221866979
 30
0.0
 11
-341.1986844144756
 21
-270.3889006449122
 31
0.0
  0
LINE
  5
134
330
1E
100
AcDbEntity
  8
1
 62
     7
100
AcDbLine
 10
-348.1986844144756
 20
-257.8411221866979
 30
0.0
 11
-343.1986844144756
 21
-257.8411221866979
 31
0.0
  0
LINE
  5
135
330
1E
100
AcDbEntity
  8
1
 62
     7
100
AcDbLine
 10
-353.1986844144756
 20
-257.8411221866979
 30
0.0
 11
-348.1986844144756
 21
-257.8411221866979
 31
0.0
  0
LINE
  5
136
330
1E
100
AcDbEntity
  8
1
 62
     7
100
AcDbLine
 10
-355.1986844144756
 20
-270.3889006449122
 30
0.0
 11
-355.1986844144756
 21
-259.8411221866979
 31
0.0
  0
LINE
  5
137
330
1E
100
AcDbEntity
  8
1
 62
     7
100
AcDbLine
 10
-308.5957255366237
 20
-325.4527030359012
 30
0.0
 11
-315.3767933255978
 21
-323.7137466772218
 31
0.0
  0
LINE
  5
138
330
1E
100
AcDbEntity
  8
1
 62
     7
100
AcDbLine
 10
-377.1900624431241
 20
-343.8325002153462
 30
0.0
 11
-372.2935481659484
 21
-338.82940142465
 31
0.0
  0
LINE
  5
139
330
1E
100
AcDbEntity
  8
1
 62
     7
100
AcDbLine
 10
-358.8102652636789
 20
-275.238163308846
 30
0.0
 11
-356.9257117518806
 21
-281.9802184582215
 31
0.0
  0
LINE
  5
13A
330
1E
100
AcDbEntity
  8
1
 62
     7
100
AcDbLine
 10
-353.8422501886508
 20
-346.8473741595946
 30
0.0
 11
-354.1027224551513
 21
-348.324585789113
 31
0.0
  0
LINE
  5
13B
330
1E
100
AcDbEntity
  8
1
 62
     7
100
AcDbLine
 10
-373.0951288158423
 20
-293.9505248718853
 30
0.0
 11
-374.2441954805209
 21
-292.9863434573555
 31
0.0
  0
LINE
  5
13C
330
1E
100
AcDbEntity
  8
1
 62
     7
100
AcDbLine
 10
-317.6586742389336
 20
-303.7254675286137
 30
0.0
 11
-316.2491353077546
 21
-303.2124373136251
 31
0.0
  0
LINE
  5
13D
330
1E
100
AcDbEntity
  8
1
  6
DASHDOT
 62
     3
100
AcDbLine
 10
-333.325025648413
 20
-306.2538112942768
 30
0.0
 11
-328.0635937764873
 21
-303.2161221866978
 31
0.0
  0
LINE
  5
13E
330
1E
100
AcDbEntity
  8
1
  6
DASHDOT
 62
     3
100
AcDbLine
 10
-362.7875101371627
 20
-323.2639846448518
 30
0.0
 11
-368.3337750524638
 21
-326.4661221866978
 31
0.0
  0
LINE
  5
13F
330
1E
100
AcDbEntity
  8
1
  6
DASHDOT
 62
     3
100
AcDbLine
 10
-333.6098586917884
 20
-323.2639846448518
 30
0.0
 11
-328.0635937764873
 21
-326.4661221866978
 31
0.0
  0
LINE
  5
140
330
1E
100
AcDbEntity
  8
1
  6
DASHDOT
 62
     3
100
AcDbLine
 10
-363.0723431805381
 20
-306.2538112942768
 30
0.0
 11
-368.3337750524638
 21
-303.2161221866978
 31
0.0
  0
LINE
  5
141
330
1E
100
AcDbEntity
  8
1
 62
     7
100
AcDbLine
 10
-454.9988618304712
 20
-282.3411221866978
 30
0.0
 11
-454.9988618304712
 21
-257.8411221866979
 31
0.0
  0
LINE
  5
142
330
1E
100
AcDbEntity
  8
1
 62
     7
100
AcDbLine
 10
-433.4988618304712
 20
-272.2911221866979
 30
0.0
 11
-433.4988618304712
 21
-291.3411221866978
 31
0.0
  0
LINE
  5
143
330
1E
100
AcDbEntity
  8
1
 62
     7
100
AcDbLine
 10
-456.9988618304711
 20
-294.8411221866978
 30
0.0
 11
-454.9988618304712
 21
-294.8411221866978
 31
0.0
  0
LINE
  5
144
330
1E
100
AcDbEntity
  8
1
 62
     7
100
AcDbLine
 10
-425.9988618304712
 20
-282.8411221866978
 30
0.0
 11
-425.9988618304712
 21
-285.8411221866978
 31
0.0
  0
LINE
  5
145
330
1E
100
AcDbEntity
  8
1
 62
     7
100
AcDbLine
 10
-425.9988618304712
 20
-285.8411221866978
 30
0.0
 11
-427.9988618304711
 21
-285.8411221866978
 31
0.0
  0
LINE
  5
146
330
1E
100
AcDbEntity
  8
1
 62
     7
100
AcDbLine
 10
-427.9988618304711
 20
-285.8411221866978
 30
0.0
 11
-427.9988618304711
 21
-294.8411221866978
 31
0.0
  0
LINE
  5
147
330
1E
100
AcDbEntity
  8
1
 62
     7
100
AcDbLine
 10
-425.9988618304712
 20
-269.8411221866979
 30
0.0
 11
-425.9988618304712
 21
-302.8411221866978
 31
0.0
  0
LINE
  5
148
330
1E
100
AcDbEntity
  8
1
 62
     7
100
AcDbLine
 10
-432.9988618304711
 20
-295.8411221866978
 30
0.0
 11
-432.9988618304711
 21
-314.8411221866978
 31
0.0
  0
LINE
  5
149
330
1E
100
AcDbEntity
  8
1
 62
     7
100
AcDbLine
 10
-425.9988618304712
 20
-269.8411221866979
 30
0.0
 11
-437.9988618304712
 21
-269.8411221866979
 31
0.0
  0
LINE
  5
14A
330
1E
100
AcDbEntity
  8
1
 62
     7
100
AcDbLine
 10
-438.9988618304712
 20
-272.0411221866979
 30
0.0
 11
-438.9988618304712
 21
-270.8411221866979
 31
0.0
  0
LINE
  5
14B
330
1E
100
AcDbEntity
  8
1
 62
     7
100
AcDbLine
 10
-438.9988618304712
 20
-272.0411221866979
 30
0.0
 11
-431.4988618304711
 21
-272.0411221866979
 31
0.0
  0
LINE
  5
14C
330
1E
100
AcDbEntity
  8
1
 62
     7
100
AcDbLine
 10
-431.4988618304711
 20
-272.0411221866979
 30
0.0
 11
-431.4988618304711
 21
-291.5911221866979
 31
0.0
  0
LINE
  5
14D
330
1E
100
AcDbEntity
  8
1
 62
     7
100
AcDbLine
 10
-431.4988618304711
 20
-291.5911221866979
 30
0.0
 11
-439.9988618304711
 21
-291.5911221866979
 31
0.0
  0
LINE
  5
14E
330
1E
100
AcDbEntity
  8
1
 62
     7
100
AcDbLine
 10
-457.9988618304711
 20
-314.8411221866978
 30
0.0
 11
-457.9988618304711
 21
-302.8411221866978
 31
0.0
  0
LINE
  5
14F
330
1E
100
AcDbEntity
  8
1
 62
     7
100
AcDbLine
 10
-438.9988618304712
 20
-270.8411221866979
 30
0.0
 11
-437.9988618304712
 21
-269.8411221866979
 31
0.0
  0
LINE
  5
150
330
1E
100
AcDbEntity
  8
1
 62
     7
100
AcDbLine
 10
-457.4988618304711
 20
-302.3411221866978
 30
0.0
 11
-457.9988618304711
 21
-302.8411221866978
 31
0.0
  0
LINE
  5
151
330
1E
100
AcDbEntity
  8
1
 62
     7
100
AcDbLine
 10
-428.9988618304711
 20
-295.8411221866978
 30
0.0
 11
-427.9988618304711
 21
-294.8411221866978
 31
0.0
  0
LINE
  5
152
330
1E
100
AcDbEntity
  8
1
 62
     7
100
AcDbLine
 10
-428.9988618304711
 20
-295.8411221866978
 30
0.0
 11
-432.9988618304711
 21
-295.8411221866978
 31
0.0
  0
LINE
  5
153
330
1E
100
AcDbEntity
  8
1
 62
     7
100
AcDbLine
 10
-427.9988618304711
 20
-294.8411221866978
 30
0.0
 11
-427.9988618304711
 21
-302.8411221866978
 31
0.0
  0
LINE
  5
154
330
1E
100
AcDbEntity
  8
1
 62
     7
100
AcDbLine
 10
-428.9988618304711
 20
-295.8411221866978
 30
0.0
 11
-428.9988618304711
 21
-302.8411221866978
 31
0.0
  0
LINE
  5
155
330
1E
100
AcDbEntity
  8
1
 62
     7
100
AcDbLine
 10
-452.9988618304711
 20
-272.2911221866979
 30
0.0
 11
-454.9988618304712
 21
-274.2911221866979
 31
0.0
  0
LINE
  5
156
330
1E
100
AcDbEntity
  8
1
 62
     7
100
AcDbLine
 10
-456.9988618304711
 20
-299.3771158724423
 30
0.0
 11
-456.9988618304711
 21
-282.8411221866978
 31
0.0
  0
LINE
  5
157
330
1E
100
AcDbEntity
  8
1
 62
     7
100
AcDbLine
 10
-456.5988618304712
 20
-281.8411221866978
 30
0.0
 11
-456.5988618304712
 21
-257.8411221866979
 31
0.0
  0
LINE
  5
158
330
1E
100
AcDbEntity
  8
1
 62
     7
100
AcDbLine
 10
-456.5988618304712
 20
-257.8411221866979
 30
0.0
 11
-454.9988618304712
 21
-257.8411221866979
 31
0.0
  0
LINE
  5
159
330
1E
100
AcDbEntity
  8
1
 62
     7
100
AcDbLine
 10
-456.5988618304712
 20
-260.5911221866979
 30
0.0
 11
-454.9988618304712
 21
-260.5911221866979
 31
0.0
  0
LINE
  5
15A
330
1E
100
AcDbEntity
  8
1
  6
DASHDOT
 62
     3
100
AcDbLine
 10
-457.347475827654
 20
-262.8411221866979
 30
0.0
 11
-454.2394220112702
 21
-262.8411221866979
 31
0.0
  0
LINE
  5
15B
330
1E
100
AcDbEntity
  8
1
 62
     7
100
AcDbLine
 10
-456.5988618304712
 20
-265.0911221866979
 30
0.0
 11
-454.9988618304712
 21
-265.0911221866979
 31
0.0
  0
LINE
  5
15C
330
1E
100
AcDbEntity
  8
1
 62
     7
100
AcDbLine
 10
-456.9988618304711
 20
-282.8411221866978
 30
0.0
 11
-456.4988618304711
 21
-282.3411221866978
 31
0.0
  0
LINE
  5
15D
330
1E
100
AcDbEntity
  8
1
 62
     7
100
AcDbLine
 10
-452.9988618304711
 20
-272.2911221866979
 30
0.0
 11
-433.4988618304712
 21
-272.2911221866979
 31
0.0
  0
LINE
  5
15E
330
1E
100
AcDbEntity
  8
1
 62
     7
100
AcDbLine
 10
-456.5988618304712
 20
-281.8411221866978
 30
0.0
 11
-454.9988618304712
 21
-281.8411221866978
 31
0.0
  0
LINE
  5
15F
330
1E
100
AcDbEntity
  8
1
 62
     7
100
AcDbLine
 10
-450.7372446996918
 20
-299.6461221866979
 30
0.0
 11
-454.9988618304712
 21
-299.6461221866979
 31
0.0
  0
LINE
  5
160
330
1E
100
AcDbEntity
  8
1
 62
     7
100
AcDbLine
 10
-447.2604789612505
 20
-299.6461221866979
 30
0.0
 11
-442.9988618304712
 21
-299.6461221866979
 31
0.0
  0
LINE
  5
161
330
1E
100
AcDbEntity
  8
1
 62
     7
100
AcDbLine
 10
-450.7372446996918
 20
-294.0361221866978
 30
0.0
 11
-454.9988618304712
 21
-294.0361221866978
 31
0.0
  0
LINE
  5
162
330
1E
100
AcDbEntity
  8
1
 62
     7
100
AcDbLine
 10
-447.2604789612505
 20
-294.0361221866978
 30
0.0
 11
-442.9988618304712
 21
-294.0361221866978
 31
0.0
  0
LINE
  5
163
330
1E
100
AcDbEntity
  8
1
 62
     7
100
AcDbLine
 10
-444.3488618304711
 20
-293.3623721866979
 30
0.0
 11
-444.3488618304711
 21
-300.3198721866978
 31
0.0
  0
LINE
  5
164
330
1E
100
AcDbEntity
  8
1
 62
     7
100
AcDbLine
 10
-453.6488618304712
 20
-293.3623721866979
 30
0.0
 11
-453.6488618304712
 21
-300.3198721866978
 31
0.0
  0
LINE
  5
165
330
1E
100
AcDbEntity
  8
1
 62
     7
100
AcDbLine
 10
-441.1988618304711
 20
-290.0911221866978
 30
0.0
 11
-442.9988618304712
 21
-290.0911221866978
 31
0.0
  0
LINE
  5
166
330
1E
100
AcDbEntity
  8
1
 62
     7
100
AcDbLine
 10
-442.9988618304712
 20
-294.5911221866978
 30
0.0
 11
-441.1988618304711
 21
-294.5911221866978
 31
0.0
  0
LINE
  5
167
330
1E
100
AcDbEntity
  8
1
 62
     7
100
AcDbLine
 10
-441.1988618304711
 20
-291.3411221866978
 30
0.0
 11
-433.4988618304712
 21
-291.3411221866978
 31
0.0
  0
LINE
  5
168
330
1E
100
AcDbEntity
  8
1
 62
     7
100
AcDbLine
 10
-441.1988618304711
 20
-296.5911221866978
 30
0.0
 11
-441.1988618304711
 21
-290.0911221866978
 31
0.0
  0
LINE
  5
169
330
1E
100
AcDbEntity
  8
1
 62
     7
100
AcDbLine
 10
-442.9988618304712
 20
-290.0911221866978
 30
0.0
 11
-442.9988618304712
 21
-302.3411221866978
 31
0.0
  0
LINE
  5
16A
330
1E
100
AcDbEntity
  8
1
 62
     7
100
AcDbLine
 10
-454.9988618304712
 20
-291.3411221866978
 30
0.0
 11
-442.9988618304712
 21
-291.3411221866978
 31
0.0
  0
LINE
  5
16B
330
1E
100
AcDbEntity
  8
1
 62
     7
100
AcDbLine
 10
-456.1988618304711
 20
-299.7911221866978
 30
0.0
 11
-454.9988618304712
 21
-299.7911221866978
 31
0.0
  0
LINE
  5
16C
330
1E
100
AcDbEntity
  8
1
 62
     7
100
AcDbLine
 10
-454.9988618304712
 20
-302.8911221866978
 30
0.0
 11
-456.1988618304711
 21
-302.8911221866978
 31
0.0
  0
LINE
  5
16D
330
1E
100
AcDbEntity
  8
1
 62
     7
100
AcDbLine
 10
-454.9988618304712
 20
-302.8911221866978
 30
0.0
 11
-454.9988618304712
 21
-291.3411221866978
 31
0.0
  0
LINE
  5
16E
330
1E
100
AcDbEntity
  8
1
 62
     7
100
AcDbLine
 10
-456.1988618304711
 20
-302.8911221866978
 30
0.0
 11
-456.1988618304711
 21
-299.7911221866978
 31
0.0
  0
LINE
  5
16F
330
1E
100
AcDbEntity
  8
1
 62
     7
100
AcDbLine
 10
-439.9988618304711
 20
-291.5911221866979
 30
0.0
 11
-439.9988618304711
 21
-296.8411221866978
 31
0.0
  0
LINE
  5
170
330
1E
100
AcDbEntity
  8
1
 62
     7
100
AcDbLine
 10
-439.9988618304711
 20
-296.8411221866978
 30
0.0
 11
-442.9988618304712
 21
-299.7911221866978
 31
0.0
  0
LINE
  5
171
330
1E
100
AcDbEntity
  8
1
 62
     7
100
AcDbLine
 10
-442.9988618304712
 20
-302.3411221866978
 30
0.0
 11
-454.9988618304712
 21
-302.3411221866978
 31
0.0
  0
LINE
  5
172
330
1E
100
AcDbEntity
  8
1
 62
     7
100
AcDbLine
 10
-456.1988618304711
 20
-302.3411221866978
 30
0.0
 11
-457.4988618304711
 21
-302.3411221866978
 31
0.0
  0
LINE
  5
173
330
1E
100
AcDbEntity
  8
1
 62
     7
100
AcDbLine
 10
-433.4988618304712
 20
-338.3411221866978
 30
0.0
 11
-433.4988618304712
 21
-357.3911221866978
 31
0.0
  0
LINE
  5
174
330
1E
100
AcDbEntity
  8
1
 62
     7
100
AcDbLine
 10
-454.9988618304712
 20
-334.8411221866978
 30
0.0
 11
-456.9988618304711
 21
-334.8411221866978
 31
0.0
  0
LINE
  5
175
330
1E
100
AcDbEntity
  8
1
 62
     7
100
AcDbLine
 10
-427.9988618304711
 20
-334.8411221866978
 30
0.0
 11
-427.9988618304711
 21
-343.8411221866978
 31
0.0
  0
LINE
  5
176
330
1E
100
AcDbEntity
  8
1
 62
     7
100
AcDbLine
 10
-431.4988618304711
 20
-357.6411221866978
 30
0.0
 11
-438.9988618304712
 21
-357.6411221866978
 31
0.0
  0
LINE
  5
177
330
1E
100
AcDbEntity
  8
1
 62
     7
100
AcDbLine
 10
-431.4988618304711
 20
-338.0911221866978
 30
0.0
 11
-431.4988618304711
 21
-357.6411221866978
 31
0.0
  0
LINE
  5
178
330
1E
100
AcDbEntity
  8
1
 62
     7
100
AcDbLine
 10
-439.9988618304711
 20
-338.0911221866978
 30
0.0
 11
-431.4988618304711
 21
-338.0911221866978
 31
0.0
  0
LINE
  5
179
330
1E
100
AcDbEntity
  8
1
 62
     7
100
AcDbLine
 10
-457.9988618304711
 20
-326.8411221866978
 30
0.0
 11
-457.9988618304711
 21
-314.8411221866978
 31
0.0
  0
LINE
  5
17A
330
1E
100
AcDbEntity
  8
1
 62
     7
100
AcDbLine
 10
-457.9988618304711
 20
-326.8411221866978
 30
0.0
 11
-457.4988618304711
 21
-327.3411221866978
 31
0.0
  0
LINE
  5
17B
330
1E
100
AcDbEntity
  8
1
 62
     7
100
AcDbLine
 10
-427.9988618304711
 20
-334.8411221866978
 30
0.0
 11
-428.9988618304711
 21
-333.8411221866978
 31
0.0
  0
LINE
  5
17C
330
1E
100
AcDbEntity
  8
1
 62
     7
100
AcDbLine
 10
-432.9988618304711
 20
-333.8411221866978
 30
0.0
 11
-428.9988618304711
 21
-333.8411221866978
 31
0.0
  0
LINE
  5
17D
330
1E
100
AcDbEntity
  8
1
 62
     7
100
AcDbLine
 10
-454.9988618304712
 20
-355.3911221866978
 30
0.0
 11
-452.9988618304711
 21
-357.3911221866978
 31
0.0
  0
LINE
  5
17E
330
1E
100
AcDbEntity
  8
1
 62
     7
100
AcDbLine
 10
-432.9988618304711
 20
-314.8411221866978
 30
0.0
 11
-432.9988618304711
 21
-321.8411221866978
 31
0.0
  0
LINE
  5
17F
330
1E
100
AcDbEntity
  8
1
 62
     7
100
AcDbLine
 10
-456.4988618304711
 20
-347.3411221866978
 30
0.0
 11
-456.9988618304711
 21
-346.8411221866978
 31
0.0
  0
LINE
  5
180
330
1E
100
AcDbEntity
  8
1
 62
     7
100
AcDbLine
 10
-433.4988618304712
 20
-357.3911221866978
 30
0.0
 11
-452.9988618304711
 21
-357.3911221866978
 31
0.0
  0
LINE
  5
181
330
1E
100
AcDbEntity
  8
1
 62
     7
100
AcDbLine
 10
-454.9988618304712
 20
-330.0361221866978
 30
0.0
 11
-450.7372446996918
 21
-330.0361221866978
 31
0.0
  0
LINE
  5
182
330
1E
100
AcDbEntity
  8
1
 62
     7
100
AcDbLine
 10
-442.9988618304712
 20
-330.0361221866978
 30
0.0
 11
-447.2604789612505
 21
-330.0361221866978
 31
0.0
  0
LINE
  5
183
330
1E
100
AcDbEntity
  8
1
 62
     7
100
AcDbLine
 10
-454.9988618304712
 20
-335.6461221866978
 30
0.0
 11
-450.7372446996918
 21
-335.6461221866978
 31
0.0
  0
LINE
  5
184
330
1E
100
AcDbEntity
  8
1
 62
     7
100
AcDbLine
 10
-442.9988618304712
 20
-335.6461221866978
 30
0.0
 11
-447.2604789612505
 21
-335.6461221866978
 31
0.0
  0
LINE
  5
185
330
1E
100
AcDbEntity
  8
1
 62
     7
100
AcDbLine
 10
-444.3488618304711
 20
-329.3623721866978
 30
0.0
 11
-444.3488618304711
 21
-336.3198721866978
 31
0.0
  0
LINE
  5
186
330
1E
100
AcDbEntity
  8
1
 62
     7
100
AcDbLine
 10
-453.6488618304712
 20
-329.3623721866978
 30
0.0
 11
-453.6488618304712
 21
-336.3198721866978
 31
0.0
  0
LINE
  5
187
330
1E
100
AcDbEntity
  8
1
 62
     7
100
AcDbLine
 10
-442.9988618304712
 20
-339.5911221866978
 30
0.0
 11
-441.1988618304711
 21
-339.5911221866978
 31
0.0
  0
LINE
  5
188
330
1E
100
AcDbEntity
  8
1
 62
     7
100
AcDbLine
 10
-441.1988618304711
 20
-335.0911221866978
 30
0.0
 11
-442.9988618304712
 21
-335.0911221866978
 31
0.0
  0
LINE
  5
189
330
1E
100
AcDbEntity
  8
1
 62
     7
100
AcDbLine
 10
-433.4988618304712
 20
-338.3411221866978
 30
0.0
 11
-441.1988618304711
 21
-338.3411221866978
 31
0.0
  0
LINE
  5
18A
330
1E
100
AcDbEntity
  8
1
 62
     7
100
AcDbLine
 10
-441.1988618304711
 20
-339.5911221866978
 30
0.0
 11
-441.1988618304711
 21
-333.0911221866978
 31
0.0
  0
LINE
  5
18B
330
1E
100
AcDbEntity
  8
1
 62
     7
100
AcDbLine
 10
-442.9988618304712
 20
-327.3411221866978
 30
0.0
 11
-442.9988618304712
 21
-339.5911221866978
 31
0.0
  0
LINE
  5
18C
330
1E
100
AcDbEntity
  8
1
 62
     7
100
AcDbLine
 10
-442.9988618304712
 20
-338.3411221866978
 30
0.0
 11
-454.9988618304712
 21
-338.3411221866978
 31
0.0
  0
LINE
  5
18D
330
1E
100
AcDbEntity
  8
1
 62
     7
100
AcDbLine
 10
-454.9988618304712
 20
-329.8911221866978
 30
0.0
 11
-456.1988618304711
 21
-329.8911221866978
 31
0.0
  0
LINE
  5
18E
330
1E
100
AcDbEntity
  8
1
 62
     7
100
AcDbLine
 10
-456.1988618304711
 20
-326.7911221866978
 30
0.0
 11
-454.9988618304712
 21
-326.7911221866978
 31
0.0
  0
LINE
  5
18F
330
1E
100
AcDbEntity
  8
1
 62
     7
100
AcDbLine
 10
-454.9988618304712
 20
-338.3411221866978
 30
0.0
 11
-454.9988618304712
 21
-326.7911221866978
 31
0.0
  0
LINE
  5
190
330
1E
100
AcDbEntity
  8
1
 62
     7
100
AcDbLine
 10
-456.1988618304711
 20
-329.8911221866978
 30
0.0
 11
-456.1988618304711
 21
-326.7911221866978
 31
0.0
  0
LINE
  5
191
330
1E
100
AcDbEntity
  8
1
 62
     7
100
AcDbLine
 10
-439.9988618304711
 20
-332.8411221866979
 30
0.0
 11
-439.9988618304711
 21
-338.0911221866978
 31
0.0
  0
LINE
  5
192
330
1E
100
AcDbEntity
  8
1
 62
     7
100
AcDbLine
 10
-442.9988618304712
 20
-329.8911221866978
 30
0.0
 11
-439.9988618304711
 21
-332.8411221866979
 31
0.0
  0
LINE
  5
193
330
1E
100
AcDbEntity
  8
1
 62
     7
100
AcDbLine
 10
-454.9988618304712
 20
-327.3411221866978
 30
0.0
 11
-442.9988618304712
 21
-327.3411221866978
 31
0.0
  0
LINE
  5
194
330
1E
100
AcDbEntity
  8
1
 62
     7
100
AcDbLine
 10
-457.4988618304711
 20
-327.3411221866978
 30
0.0
 11
-456.1988618304711
 21
-327.3411221866978
 31
0.0
  0
LINE
  5
195
330
1E
100
AcDbEntity
  8
1
 62
     7
100
AcDbLine
 10
-438.9988618304712
 20
-358.8411221866978
 30
0.0
 11
-438.9988618304712
 21
-357.6411221866978
 31
0.0
  0
LINE
  5
196
330
1E
100
AcDbEntity
  8
1
 62
     7
100
AcDbLine
 10
-437.9988618304712
 20
-359.8411221866978
 30
0.0
 11
-438.9988618304712
 21
-358.8411221866978
 31
0.0
  0
LINE
  5
197
330
1E
100
AcDbEntity
  8
1
 62
     7
100
AcDbLine
 10
-437.9988618304712
 20
-359.8411221866978
 30
0.0
 11
-425.9988618304712
 21
-359.8411221866978
 31
0.0
  0
LINE
  5
198
330
1E
100
AcDbEntity
  8
1
 62
     7
100
AcDbLine
 10
-427.9988618304711
 20
-343.8411221866978
 30
0.0
 11
-425.9988618304712
 21
-343.8411221866978
 31
0.0
  0
LINE
  5
199
330
1E
100
AcDbEntity
  8
1
 62
     7
100
AcDbLine
 10
-427.9988618304711
 20
-334.8411221866978
 30
0.0
 11
-427.9988618304711
 21
-343.8411221866978
 31
0.0
  0
LINE
  5
19A
330
1E
100
AcDbEntity
  8
1
 62
     7
100
AcDbLine
 10
-454.9988618304712
 20
-355.3911221866978
 30
0.0
 11
-454.9988618304712
 21
-347.3411221866978
 31
0.0
  0
LINE
  5
19B
330
1E
100
AcDbEntity
  8
1
 62
     7
100
AcDbLine
 10
-456.4988618304711
 20
-282.3411221866978
 30
0.0
 11
-454.9988618304712
 21
-282.3411221866978
 31
0.0
  0
LINE
  5
19C
330
1E
100
AcDbEntity
  8
1
 62
     7
100
AcDbLine
 10
-456.4988618304711
 20
-347.3411221866978
 30
0.0
 11
-454.9988618304712
 21
-347.3411221866978
 31
0.0
  0
LINE
  5
19D
330
1E
100
AcDbEntity
  8
1
 62
     7
100
AcDbLine
 10
-456.9988618304711
 20
-346.8411221866978
 30
0.0
 11
-456.9988618304711
 21
-330.3051285009534
 31
0.0
  0
LINE
  5
19E
330
1E
100
AcDbEntity
  8
1
 62
     7
100
AcDbLine
 10
-425.9988618304712
 20
-359.8411221866978
 30
0.0
 11
-425.9988618304712
 21
-326.8411221866978
 31
0.0
  0
LINE
  5
19F
330
1E
100
AcDbEntity
  8
1
 62
     7
100
AcDbLine
 10
-407.9988618304711
 20
-298.3411221866978
 30
0.0
 11
-407.9988618304711
 21
-314.8411221866978
 31
0.0
  0
LINE
  5
1A0
330
1E
100
AcDbEntity
  8
1
 62
     7
100
AcDbLine
 10
-407.9988618304711
 20
-314.8411221866978
 30
0.0
 11
-407.9988618304711
 21
-331.3411221866978
 31
0.0
  0
LINE
  5
1A1
330
1E
100
AcDbEntity
  8
1
 62
     7
100
AcDbLine
 10
-428.9988618304711
 20
-326.8411221866978
 30
0.0
 11
-428.9988618304711
 21
-333.8411221866978
 31
0.0
  0
LINE
  5
1A2
330
1E
100
AcDbEntity
  8
1
 62
     7
100
AcDbLine
 10
-427.9988618304711
 20
-326.8411221866978
 30
0.0
 11
-427.9988618304711
 21
-334.8411221866978
 31
0.0
  0
LINE
  5
1A3
330
1E
100
AcDbEntity
  8
1
 62
     7
100
AcDbLine
 10
-425.6988618304712
 20
-326.8411221866978
 30
0.0
 11
-425.6988618304712
 21
-359.8411221866978
 31
0.0
  0
LINE
  5
1A4
330
1E
100
AcDbEntity
  8
1
 62
     7
100
AcDbLine
 10
-422.5988618304712
 20
-326.8411221866978
 30
0.0
 11
-422.5988618304712
 21
-346.4911221866978
 31
0.0
  0
LINE
  5
1A5
330
1E
100
AcDbEntity
  8
1
 62
     7
100
AcDbLine
 10
-419.5988618304712
 20
-326.8411221866978
 30
0.0
 11
-419.5988618304712
 21
-359.8411221866978
 31
0.0
  0
LINE
  5
1A6
330
1E
100
AcDbEntity
  8
1
 62
     7
100
AcDbLine
 10
-418.9988618304711
 20
-289.4661221866978
 30
0.0
 11
-418.9988618304711
 21
-302.8411221866978
 31
0.0
  0
LINE
  5
1A7
330
1E
100
AcDbEntity
  8
1
 62
     7
100
AcDbLine
 10
-418.9988618304711
 20
-340.2161221866979
 30
0.0
 11
-418.9988618304711
 21
-326.8411221866978
 31
0.0
  0
LINE
  5
1A8
330
1E
100
AcDbEntity
  8
1
 62
     7
100
AcDbLine
 10
-432.9988618304711
 20
-321.8411221866978
 30
0.0
 11
-432.9988618304711
 21
-333.8411221866978
 31
0.0
  0
LINE
  5
1A9
330
1E
100
AcDbEntity
  8
1
 62
     7
100
AcDbLine
 10
-457.9988618304711
 20
-322.3411221866978
 30
0.0
 11
-432.9988618304711
 21
-322.3411221866978
 31
0.0
  0
LINE
  5
1AA
330
1E
100
AcDbEntity
  8
1
 62
     7
100
AcDbLine
 10
-457.9988618304711
 20
-305.3411221866978
 30
0.0
 11
-432.9988618304711
 21
-305.3411221866978
 31
0.0
  0
LINE
  5
1AB
330
1E
100
AcDbEntity
  8
1
 62
     7
100
AcDbLine
 10
-457.9988618304711
 20
-307.3411221866978
 30
0.0
 11
-432.9988618304711
 21
-307.3411221866978
 31
0.0
  0
LINE
  5
1AC
330
1E
100
AcDbEntity
  8
1
 62
     7
100
AcDbLine
 10
-432.9988618304711
 20
-304.8411221866978
 30
0.0
 11
-413.9988618304712
 21
-304.8411221866978
 31
0.0
  0
LINE
  5
1AD
330
1E
100
AcDbEntity
  8
1
 62
     7
100
AcDbLine
 10
-432.9988618304711
 20
-307.3411221866978
 30
0.0
 11
-413.9988618304712
 21
-307.3411221866978
 31
0.0
  0
LINE
  5
1AE
330
1E
100
AcDbEntity
  8
1
 62
     7
100
AcDbLine
 10
-432.9988618304711
 20
-322.3411221866978
 30
0.0
 11
-413.9988618304712
 21
-322.3411221866978
 31
0.0
  0
LINE
  5
1AF
330
1E
100
AcDbEntity
  8
1
 62
     7
100
AcDbLine
 10
-432.9988618304711
 20
-324.8411221866978
 30
0.0
 11
-413.9988618304712
 21
-324.8411221866978
 31
0.0
  0
LINE
  5
1B0
330
1E
100
AcDbEntity
  8
1
 62
     7
100
AcDbLine
 10
-449.4988618304711
 20
-252.2911221866979
 30
0.0
 11
-447.4988618304712
 21
-252.2911221866979
 31
0.0
  0
LINE
  5
1B1
330
1E
100
AcDbEntity
  8
1
 62
     7
100
AcDbLine
 10
-447.4988618304712
 20
-252.2911221866979
 30
0.0
 11
-447.4988618304712
 21
-272.2911221866979
 31
0.0
  0
LINE
  5
1B2
330
1E
100
AcDbEntity
  8
1
 62
     7
100
AcDbLine
 10
-449.4988618304711
 20
-252.2911221866979
 30
0.0
 11
-449.4988618304711
 21
-272.2911221866979
 31
0.0
  0
LINE
  5
1B3
330
1E
100
AcDbEntity
  8
1
 62
     7
100
AcDbLine
 10
-447.8988618304712
 20
-248.2911221866979
 30
0.0
 11
-447.8988618304712
 21
-252.2911221866979
 31
0.0
  0
LINE
  5
1B4
330
1E
100
AcDbEntity
  8
1
 62
     7
100
AcDbLine
 10
-448.1988618304711
 20
-248.2911221866979
 30
0.0
 11
-448.1988618304711
 21
-252.2911221866979
 31
0.0
  0
LINE
  5
1B5
330
1E
100
AcDbEntity
  8
1
 62
     7
100
AcDbLine
 10
-448.4988618304711
 20
-248.2911221866979
 30
0.0
 11
-448.4988618304711
 21
-252.2911221866979
 31
0.0
  0
LINE
  5
1B6
330
1E
100
AcDbEntity
  8
1
 62
     7
100
AcDbLine
 10
-448.7988618304711
 20
-248.2911221866979
 30
0.0
 11
-448.7988618304711
 21
-252.2911221866979
 31
0.0
  0
LINE
  5
1B7
330
1E
100
AcDbEntity
  8
1
 62
     7
100
AcDbLine
 10
-449.0988618304712
 20
-248.2911221866979
 30
0.0
 11
-449.0988618304712
 21
-252.2911221866979
 31
0.0
  0
LINE
  5
1B8
330
1E
100
AcDbEntity
  8
1
 62
     7
100
AcDbLine
 10
-417.2988618304711
 20
-348.8411221866978
 30
0.0
 11
-416.4988618304711
 21
-348.8411221866978
 31
0.0
  0
LINE
  5
1B9
330
1E
100
AcDbEntity
  8
1
  6
DASHDOT
 62
     3
100
AcDbLine
 10
-348.1986844144756
 20
-291.861298199865
 30
0.0
 11
-348.1986844144756
 21
-297.861298199865
 31
0.0
  0
LINE
  5
1BA
330
1E
100
AcDbEntity
  8
1
  6
DASHDOT
 62
     3
100
AcDbLine
 10
-348.1986844144756
 20
-331.6130073100379
 30
0.0
 11
-348.1986844144756
 21
-337.6130073100379
 31
0.0
  0
ARC
  5
1BB
330
1E
100
AcDbEntity
  8
1
 62
     7
100
AcDbCircle
 10
-591.1986844144756
 20
-314.8411221866978
 30
0.0
 40
42.54999999999988
100
AcDbArc
 50
99.46920907656812
 51
0.0
  0
ARC
  5
1BC
330
1E
100
AcDbEntity
  8
1
 62
     7
100
AcDbCircle
 10
-591.1986844144756
 20
-314.8411221866978
 30
0.0
 40
42.54999999999996
100
AcDbArc
 50
0.0
 51
80.53079092343187
  0
ARC
  5
1BD
330
1E
100
AcDbEntity
  8
1
 62
     7
100
AcDbCircle
 10
-591.1986844144756
 20
-314.8411221866978
 30
0.0
 40
45.00000000000005
100
AcDbArc
 50
77.54731818257031
 51
81.05098193467076
  0
ARC
  5
1BE
330
1E
100
AcDbEntity
  8
1
 62
     7
100
AcDbCircle
 10
-591.1986844144756
 20
-314.8411221866978
 30
0.0
 40
7.5
100
AcDbArc
 50
109.4712206344907
 51
0.0
  0
ARC
  5
1BF
330
1E
100
AcDbEntity
  8
1
 62
     7
100
AcDbCircle
 10
-591.1986844144756
 20
-314.8411221866978
 30
0.0
 40
7.5
100
AcDbArc
 50
0.0
 51
70.52877936550931
  0
ARC
  5
1C0
330
1E
100
AcDbEntity
  8
1
 62
     7
100
AcDbCircle
 10
-591.1986844144756
 20
-313.9886221866979
 30
0.0
 40
14.19750000000006
100
AcDbArc
 50
304.875040152219
 51
235.124959847781
  0
ARC
  5
1C1
330
1E
100
AcDbEntity
  8
1
 62
     7
100
AcDbCircle
 10
-586.1986844144756
 20
-259.8411221866979
 30
0.0
 40
2.0
100
AcDbArc
 50
0.0
 51
90.0
  0
ARC
  5
1C2
330
1E
100
AcDbEntity
  8
1
 62
     7
100
AcDbCircle
 10
-596.1986844144757
 20
-259.8411221866979
 30
0.0
 40
2.0
100
AcDbArc
 50
90.0
 51
180.0
  0
ARC
  5
1C3
330
1E
100
AcDbEntity
  8
1
 62
     7
100
AcDbCircle
 10
-591.1986844144756
 20
-314.8411221866978
 30
0.0
 40
44.99999999999992
100
AcDbArc
 50
98.94901806532928
 51
180.0
  0
ARC
  5
1C4
330
1E
100
AcDbEntity
  8
1
 62
     7
100
AcDbCircle
 10
-591.1986844144756
 20
-314.8411221866978
 30
0.0
 40
45.0
100
AcDbArc
 50
180.0
 51
0.0
  0
ARC
  5
1C5
330
1E
100
AcDbEntity
  8
1
 62
     7
100
AcDbCircle
 10
-591.1986844144756
 20
-262.8411221866979
 30
0.0
 40
2.25
100
AcDbArc
 50
0.0
 51
180.0
  0
ARC
  5
1C6
330
1E
100
AcDbEntity
  8
1
 62
     7
100
AcDbCircle
 10
-591.1986844144756
 20
-262.8411221866979
 30
0.0
 40
2.25
100
AcDbArc
 50
180.0
 51
0.0
  0
ARC
  5
1C7
330
1E
100
AcDbEntity
  8
1
 62
     7
100
AcDbCircle
 10
-488.3963633050432
 20
-284.4285264234451
 30
0.0
 40
1.101616881096002
100
AcDbArc
 50
4.954091291045375
 51
80.78643260498603
  0
ARC
  5
1C8
330
1E
100
AcDbEntity
  8
1
 62
     7
100
AcDbCircle
 10
-488.3963633050432
 20
-345.2537179499507
 30
0.0
 40
1.101616881095821
100
AcDbArc
 50
279.2135673950153
 51
355.0459087089547
  0
ARC
  5
1C9
330
1E
100
AcDbEntity
  8
1
 62
     7
100
AcDbCircle
 10
-415.1988618304711
 20
-277.8411221866979
 30
0.0
 40
8.999999999999976
100
AcDbArc
 50
163.3984504009801
 51
196.6015495990204
  0
ARC
  5
1CA
330
1E
100
AcDbEntity
  8
1
 62
     7
100
AcDbCircle
 10
-418.3963633050431
 20
-284.4285264234451
 30
0.0
 40
1.101616881096002
100
AcDbArc
 50
4.954091291045375
 51
80.78643260498603
  0
ARC
  5
1CB
330
1E
100
AcDbEntity
  8
1
 62
     7
100
AcDbCircle
 10
-417.0982338690505
 20
-287.960467023894
 30
0.0
 40
0.2095249086104577
100
AcDbArc
 50
196.7567264685098
 51
281.0288877084478
  0
ARC
  5
1CC
330
1E
100
AcDbEntity
  8
1
 62
     7
100
AcDbCircle
 10
-418.2363061870483
 20
-284.2749108105916
 30
0.0
 40
0.1377597356482101
100
AcDbArc
 50
3.877714258474451
 51
76.2094574416313
  0
ARC
  5
1CD
330
1E
100
AcDbEntity
  8
1
 62
     7
100
AcDbCircle
 10
-417.0522872385734
 20
-287.9226364643465
 30
0.0
 40
1.047733270963819
100
AcDbArc
 50
182.6948455196573
 51
264.8390664032171
  0
ARC
  5
1CE
330
1E
100
AcDbEntity
  8
1
 62
     7
100
AcDbCircle
 10
-417.0522872385734
 20
-341.7596079090492
 30
0.0
 40
1.047733270963769
100
AcDbArc
 50
95.16093359678256
 51
177.3051544803426
  0
ARC
  5
1CF
330
1E
100
AcDbEntity
  8
1
 62
     7
100
AcDbCircle
 10
-418.2363061870483
 20
-345.4073335628041
 30
0.0
 40
0.1377597356482604
100
AcDbArc
 50
283.7905425583743
 51
356.1222857415255
  0
ARC
  5
1D0
330
1E
100
AcDbEntity
  8
1
 62
     7
100
AcDbCircle
 10
-417.0982338690505
 20
-341.7217773495018
 30
0.0
 40
0.2095249086105444
100
AcDbArc
 50
78.9711122915522
 51
163.2432735314903
  0
ARC
  5
1D1
330
1E
100
AcDbEntity
  8
1
 62
     7
100
AcDbCircle
 10
-418.3963633050431
 20
-345.2537179499507
 30
0.0
 40
1.101616881095821
100
AcDbArc
 50
279.2135673950153
 51
355.0459087089547
  0
ARC
  5
1D2
330
1E
100
AcDbEntity
  8
1
 62
     7
100
AcDbCircle
 10
-343.1986844144756
 20
-259.8411221866979
 30
0.0
 40
2.0
100
AcDbArc
 50
0.0
 51
90.0
  0
ARC
  5
1D3
330
1E
100
AcDbEntity
  8
1
 62
     7
100
AcDbCircle
 10
-353.1986844144756
 20
-259.8411221866979
 30
0.0
 40
2.0
100
AcDbArc
 50
90.0
 51
180.0
  0
ARC
  5
1D4
330
1E
100
AcDbEntity
  8
1
 62
     7
100
AcDbCircle
 10
-348.1986844144756
 20
-314.8411221866978
 30
0.0
 40
34.00000000000003
100
AcDbArc
 50
259.9999999999999
 51
315.1270056906491
  0
ARC
  5
1D5
330
1E
100
AcDbEntity
  8
1
 62
     7
100
AcDbCircle
 10
-348.1986844144756
 20
-314.8411221866978
 30
0.0
 40
33.99999999999998
100
AcDbArc
 50
140.0
 51
195.1270056906489
  0
ARC
  5
1D6
330
1E
100
AcDbEntity
  8
1
 62
     7
100
AcDbCircle
 10
-348.1986844144756
 20
-314.8411221866978
 30
0.0
 40
33.99999999999999
100
AcDbArc
 50
19.99999999999993
 51
75.12700569064915
  0
ARC
  5
1D7
330
1E
100
AcDbEntity
  8
1
 62
     7
100
AcDbCircle
 10
-348.1986844144756
 20
-314.8411221866978
 30
0.0
 40
41.0
100
AcDbArc
 50
105.0000000000001
 51
210.0
  0
ARC
  5
1D8
330
1E
100
AcDbEntity
  8
1
 62
     7
100
AcDbCircle
 10
-348.1986844144756
 20
-314.8411221866978
 30
0.0
 40
40.99999999999996
100
AcDbArc
 50
225.0
 51
329.9999999999998
  0
ARC
  5
1D9
330
1E
100
AcDbEntity
  8
1
 62
     7
100
AcDbCircle
 10
-348.1986844144756
 20
-314.8411221866978
 30
0.0
 40
41.0
100
AcDbArc
 50
0.0
 51
90.0
  0
ARC
  5
1DA
330
1E
100
AcDbEntity
  8
1
 62
     7
100
AcDbCircle
 10
-348.1986844144756
 20
-314.8411221866978
 30
0.0
 40
41.00000000000004
100
AcDbArc
 50
345.0
 51
0.0
  0
ARC
  5
1DB
330
1E
100
AcDbEntity
  8
1
 62
     7
100
AcDbCircle
 10
-348.1986844144756
 20
-314.8411221866978
 30
0.0
 40
32.49999999999999
100
AcDbArc
 50
350.3212591651498
 51
0.0
  0
ARC
  5
1DC
330
1E
100
AcDbEntity
  8
1
 62
     7
100
AcDbCircle
 10
-323.6270869074036
 20
-346.3533066808315
 30
0.0
 40
7.538993658156405
100
AcDbArc
 50
74.32707392497298
 51
120.4523326122554
  0
ARC
  5
1DD
330
1E
100
AcDbEntity
  8
1
 62
     7
100
AcDbCircle
 10
-387.7748354686734
 20
-320.3646575923217
 30
0.0
 40
7.538993658156557
100
AcDbArc
 50
314.3270739249729
 51
0.4523326122542264
  0
ARC
  5
1DE
330
1E
100
AcDbEntity
  8
1
 62
     7
100
AcDbCircle
 10
-308.6225333602778
 20
-320.3646575923217
 30
0.0
 40
7.538993658156446
100
AcDbArc
 50
179.5476673877458
 51
225.6729260750276
  0
ARC
  5
1DF
330
1E
100
AcDbEntity
  8
1
 62
     7
100
AcDbCircle
 10
-372.7702819215476
 20
-346.3533066808315
 30
0.0
 40
7.538993658156394
100
AcDbArc
 50
59.54766738774464
 51
105.6729260750269
  0
ARC
  5
1E0
330
1E
100
AcDbEntity
  8
1
 62
     7
100
AcDbCircle
 10
-319.6198460895891
 20
-331.3411221866978
 30
0.0
 40
8.000000000000055
100
AcDbArc
 50
255.7397349260865
 51
330.0000000000001
  0
ARC
  5
1E1
330
1E
100
AcDbEntity
  8
1
 62
     7
100
AcDbCircle
 10
-319.6198460895891
 20
-331.3411221866978
 30
0.0
 40
8.000000000000017
100
AcDbArc
 50
330.0000000000001
 51
44.26026507391342
  0
ARC
  5
1E2
330
1E
100
AcDbEntity
  8
1
 62
     7
100
AcDbCircle
 10
-376.7775227393621
 20
-331.3411221866978
 30
0.0
 40
7.999999999999962
100
AcDbArc
 50
135.739734926086
 51
209.9999999999999
  0
ARC
  5
1E3
330
1E
100
AcDbEntity
  8
1
 62
     7
100
AcDbCircle
 10
-376.7775227393621
 20
-331.3411221866978
 30
0.0
 40
8.000000000000017
100
AcDbArc
 50
209.9999999999999
 51
284.2602650739133
  0
ARC
  5
1E4
330
1E
100
AcDbEntity
  8
1
 62
     7
100
AcDbCircle
 10
-363.2032379616014
 20
-277.8054022869404
 30
0.0
 40
7.538993658156492
100
AcDbArc
 50
299.5476673877457
 51
345.6729260750276
  0
ARC
  5
1E5
330
1E
100
AcDbEntity
  8
1
 62
     7
100
AcDbCircle
 10
-348.1986844144756
 20
-281.8411221866978
 30
0.0
 40
8.0
100
AcDbArc
 50
90.0
 51
164.2602650739135
  0
ARC
  5
1E6
330
1E
100
AcDbEntity
  8
1
 62
     7
100
AcDbCircle
 10
-348.1986844144756
 20
-281.8411221866978
 30
0.0
 40
7.999999999999924
100
AcDbArc
 50
15.73973492608649
 51
90.0
  0
ARC
  5
1E7
330
1E
100
AcDbEntity
  8
1
 62
     7
100
AcDbCircle
 10
-333.1941308673498
 20
-277.8054022869404
 30
0.0
 40
7.538993658156498
100
AcDbArc
 50
194.3270739249724
 51
240.452332612255
  0
ARC
  5
1E8
330
1E
100
AcDbEntity
  8
1
 62
     7
100
AcDbCircle
 10
-348.1986844144756
 20
-314.8411221866978
 30
0.0
 40
45.0
100
AcDbArc
 50
0.0
 51
180.0
  0
ARC
  5
1E9
330
1E
100
AcDbEntity
  8
1
 62
     7
100
AcDbCircle
 10
-348.1986844144756
 20
-314.8411221866978
 30
0.0
 40
45.0
100
AcDbArc
 50
180.0
 51
0.0
  0
ARC
  5
1EA
330
1E
100
AcDbEntity
  8
1
 62
     7
100
AcDbCircle
 10
-348.1986844144756
 20
-262.8411221866979
 30
0.0
 40
2.25
100
AcDbArc
 50
0.0
 51
180.0
  0
ARC
  5
1EB
330
1E
100
AcDbEntity
  8
1
 62
     7
100
AcDbCircle
 10
-348.1986844144756
 20
-262.8411221866979
 30
0.0
 40
2.25
100
AcDbArc
 50
180.0
 51
0.0
  0
ARC
  5
1EC
330
1E
100
AcDbEntity
  8
1
 62
     7
100
AcDbCircle
 10
-453.9988618304711
 20
-328.3411221866978
 30
0.0
 40
1.0
100
AcDbArc
 50
90.0
 51
180.0
  0
ARC
  5
1ED
330
1E
100
AcDbEntity
  8
1
 62
     7
100
AcDbCircle
 10
-453.9988618304711
 20
-337.3411221866978
 30
0.0
 40
1.0
100
AcDbArc
 50
180.0
 51
270.0
  0
ARC
  5
1EE
330
1E
100
AcDbEntity
  8
1
 62
     7
100
AcDbCircle
 10
-443.9988618304711
 20
-337.3411221866978
 30
0.0
 40
1.0
100
AcDbArc
 50
270.0
 51
0.0
  0
ARC
  5
1EF
330
1E
100
AcDbEntity
  8
1
 62
     7
100
AcDbCircle
 10
-443.9988618304711
 20
-328.3411221866978
 30
0.0
 40
1.0
100
AcDbArc
 50
0.0
 51
90.0
  0
ARC
  5
1F0
330
1E
100
AcDbEntity
  8
1
 62
     7
100
AcDbCircle
 10
-348.1986844144756
 20
-314.8411221866978
 30
0.0
 40
32.5
100
AcDbArc
 50
0.0
 51
69.67874083485009
  0
ARC
  5
1F1
330
1E
100
AcDbEntity
  8
1
 62
     7
100
AcDbCircle
 10
-348.1986844144756
 20
-314.8411221866978
 30
0.0
 40
32.5000000000001
100
AcDbArc
 50
230.32125916515
 51
309.6787408348499
  0
ARC
  5
1F2
330
1E
100
AcDbEntity
  8
1
 62
     7
100
AcDbCircle
 10
-348.1986844144756
 20
-314.8411221866978
 30
0.0
 40
32.49999999999994
100
AcDbArc
 50
110.3212591651498
 51
189.6787408348502
  0
ARC
  5
1F3
330
1E
100
AcDbEntity
  8
1
 62
     7
100
AcDbCircle
 10
-591.1986844144756
 20
-314.8411221866978
 30
0.0
 40
45.0
100
AcDbArc
 50
0.0
 51
72.45268181742956
  0
ARC
  5
1F4
330
1E
100
AcDbEntity
  8
1
  6
DASHDOT
 62
     3
100
AcDbCircle
 10
-348.1986844144756
 20
-314.8411221866978
 30
0.0
 40
20.00000000000006
100
AcDbArc
 50
21.37307344132163
 51
38.62692655867846
  0
ARC
  5
1F5
330
1E
100
AcDbEntity
  8
1
  6
DASHDOT
 62
     3
100
AcDbCircle
 10
-348.1986844144756
 20
-314.8411221866978
 30
0.0
 40
19.99999999999999
100
AcDbArc
 50
81.37307344132137
 51
98.62692655867864
  0
ARC
  5
1F6
330
1E
100
AcDbEntity
  8
1
  6
DASHDOT
 62
     3
100
AcDbCircle
 10
-348.1986844144756
 20
-314.8411221866978
 30
0.0
 40
20.00000000000001
100
AcDbArc
 50
141.3730734413211
 51
158.6269265586783
  0
ARC
  5
1F7
330
1E
100
AcDbEntity
  8
1
  6
DASHDOT
 62
     3
100
AcDbCircle
 10
-348.1986844144756
 20
-314.8411221866978
 30
0.0
 40
19.99999999999992
100
AcDbArc
 50
201.3730734413196
 51
218.6269265586767
  0
ARC
  5
1F8
330
1E
100
AcDbEntity
  8
1
  6
DASHDOT
 62
     3
100
AcDbCircle
 10
-348.1986844144756
 20
-314.8411221866978
 30
0.0
 40
20.00000000000004
100
AcDbArc
 50
261.3730734413214
 51
278.6269265586786
  0
ARC
  5
1F9
330
1E
100
AcDbEntity
  8
1
  6
DASHDOT
 62
     3
100
AcDbCircle
 10
-348.1986844144756
 20
-314.8411221866978
 30
0.0
 40
20.00000000000001
100
AcDbArc
 50
321.3730734413213
 51
338.6269265586786
  0
CIRCLE
  5
1FA
330
1E
100
AcDbEntity
  8
1
 62
     7
100
AcDbCircle
 10
-591.1986844144756
 20
-314.8411221866978
 30
0.0
 40
20.0
  0
CIRCLE
  5
1FB
330
1E
100
AcDbEntity
  8
1
 62
     7
100
AcDbCircle
 10
-595.8653510811423
 20
-328.9635709006138
 30
0.0
 40
1.0
  0
CIRCLE
  5
1FC
330
1E
100
AcDbEntity
  8
1
 62
     7
100
AcDbCircle
 10
-586.5320177478088
 20
-328.9635709006138
 30
0.0
 40
1.0
  0
CIRCLE
  5
1FD
330
1E
100
AcDbEntity
  8
1
 62
     7
100
AcDbCircle
 10
-591.1986844144756
 20
-314.8411221866978
 30
0.0
 40
12.5
  0
CIRCLE
  5
1FE
330
1E
100
AcDbEntity
  8
1
 62
     7
100
AcDbCircle
 10
-591.1986844144756
 20
-314.8411221866978
 30
0.0
 40
32.5
  0
CIRCLE
  5
1FF
330
1E
100
AcDbEntity
  8
1
 62
     7
100
AcDbCircle
 10
-316.1557444744513
 20
-333.3411221866978
 30
0.0
 40
2.000000000000065
  0
CIRCLE
  5
200
330
1E
100
AcDbEntity
  8
1
 62
     7
100
AcDbCircle
 10
-348.1986844144756
 20
-277.8411221866979
 30
0.0
 40
2.0
  0
CIRCLE
  5
201
330
1E
100
AcDbEntity
  8
1
 62
     7
100
AcDbCircle
 10
-348.1986844144756
 20
-314.8411221866978
 30
0.0
 40
7.5
  0
CIRCLE
  5
202
330
1E
100
AcDbEntity
  8
1
 62
     7
100
AcDbCircle
 10
-348.1986844144756
 20
-314.8411221866978
 30
0.0
 40
10.0
  0
CIRCLE
  5
203
330
1E
100
AcDbEntity
  8
1
 62
     7
100
AcDbCircle
 10
-348.1986844144756
 20
-314.8411221866978
 30
0.0
 40
13.0
  0
CIRCLE
  5
204
330
1E
100
AcDbEntity
  8
1
 62
     7
100
AcDbCircle
 10
-348.1986844144756
 20
-314.8411221866978
 30
0.0
 40
16.0
  0
CIRCLE
  5
205
330
1E
100
AcDbEntity
  8
1
 62
     7
100
AcDbCircle
 10
-348.1986844144756
 20
-314.8411221866978
 30
0.0
 40
25.875
  0
CIRCLE
  5
206
330
1E
100
AcDbEntity
  8
1
  6
DASHDOT
 62
     3
100
AcDbCircle
 10
-348.1986844144756
 20
-314.8411221866978
 30
0.0
 40
24.75
  0
CIRCLE
  5
207
330
1E
100
AcDbEntity
  8
1
 62
     3
100
AcDbCircle
 10
-348.1986844144756
 20
-314.8411221866978
 30
0.0
 40
23.25
  0
CIRCLE
  5
208
330
1E
100
AcDbEntity
  8
1
 62
     7
100
AcDbCircle
 10
-348.1986844144756
 20
-294.8411221866978
 30
0.0
 40
2.25
  0
CIRCLE
  5
209
330
1E
100
AcDbEntity
  8
1
 62
     7
100
AcDbCircle
 10
-365.5191924901643
 20
-324.8411221866978
 30
0.0
 40
2.250000000000085
  0
CIRCLE
  5
20A
330
1E
100
AcDbEntity
  8
1
 62
     7
100
AcDbCircle
 10
-330.8781763387869
 20
-324.8411221866978
 30
0.0
 40
2.250000000000037
  0
CIRCLE
  5
20B
330
1E
100
AcDbEntity
  8
1
 62
     7
100
AcDbCircle
 10
-448.9988618304711
 20
-296.8411221866978
 30
0.0
 40
3.300000000000011
  0
CIRCLE
  5
20C
330
1E
100
AcDbEntity
  8
1
 62
     7
100
AcDbCircle
 10
-448.9988618304711
 20
-332.8411221866979
 30
0.0
 40
3.300000000000011
  0
CIRCLE
  5
20D
330
1E
100
AcDbEntity
  8
1
 62
     7
100
AcDbCircle
 10
-348.1986844144756
 20
-334.8411221866978
 30
0.0
 40
1.399999999999977
  0
CIRCLE
  5
20E
330
1E
100
AcDbEntity
  8
1
 62
     3
100
AcDbCircle
 10
-348.1986844144756
 20
-334.8411221866978
 30
0.0
 40
2.0
  0
CIRCLE
  5
20F
330
1E
100
AcDbEntity
  8
1
 62
     7
100
AcDbCircle
 10
-330.8781763387869
 20
-304.8411221866978
 30
0.0
 40
1.400000000000034
  0
CIRCLE
  5
210
330
1E
100
AcDbEntity
  8
1
 62
     3
100
AcDbCircle
 10
-330.8781763387869
 20
-304.8411221866978
 30
0.0
 40
2.0
  0
CIRCLE
  5
211
330
1E
100
AcDbEntity
  8
1
 62
     7
100
AcDbCircle
 10
-365.5191924901643
 20
-304.8411221866978
 30
0.0
 40
1.399999999999864
  0
CIRCLE
  5
212
330
1E
100
AcDbEntity
  8
1
 62
     3
100
AcDbCircle
 10
-365.5191924901643
 20
-304.8411221866978
 30
0.0
 40
2.0
  0
CIRCLE
  5
213
330
1E
100
AcDbEntity
  8
1
 62
     3
100
AcDbCircle
 10
-380.2416243544998
 20
-333.3411221866978
 30
0.0
 40
1.400000000000034
  0
CIRCLE
  5
214
330
1E
100
AcDbEntity
  8
1
 62
     7
100
AcDbCircle
 10
-380.2416243544998
 20
-333.3411221866978
 30
0.0
 40
2.0
  0
CIRCLE
  5
215
330
1E
100
AcDbEntity
  8
1
 62
     3
100
AcDbCircle
 10
-348.1986844144756
 20
-277.8411221866979
 30
0.0
 40
1.399999999999977
  0
CIRCLE
  5
216
330
1E
100
AcDbEntity
  8
1
 62
     3
100
AcDbCircle
 10
-316.1557444744513
 20
-333.3411221866978
 30
0.0
 40
1.399999999999864
  0
ARC
  5
217
330
1E
100
AcDbEntity
  8
1
 62
     7
100
AcDbCircle
 10
-582.1986844144756
 20
-276.8411221866979
 30
0.0
 40
2.0
100
AcDbArc
 50
0.0
 51
90.0
  0
ARC
  5
218
330
1E
100
AcDbEntity
  8
1
 62
     7
100
AcDbCircle
 10
-582.1986844144756
 20
-272.8411221866979
 30
0.0
 40
2.0
100
AcDbArc
 50
180.0
 51
270.0
  0
ARC
  5
219
330
1E
100
AcDbEntity
  8
1
 62
     7
100
AcDbCircle
 10
-600.1986844144757
 20
-272.8411221866979
 30
0.0
 40
2.0
100
AcDbArc
 50
270.0
 51
0.0
  0
ARC
  5
21A
330
1E
100
AcDbEntity
  8
1
 62
     7
100
AcDbCircle
 10
-600.1986844144757
 20
-276.8411221866979
 30
0.0
 40
2.0
100
AcDbArc
 50
90.0
 51
180.0
  0
ARC
  5
21B
330
1E
100
AcDbEntity
  8
1
 62
     7
100
AcDbCircle
 10
-601.0320177478088
 20
-328.0974691206453
 30
0.0
 40
3.0
100
AcDbArc
 50
0.0
 51
55.1249598477819
  0
ARC
  5
21C
330
1E
100
AcDbEntity
  8
1
 62
     7
100
AcDbCircle
 10
-581.3653510811422
 20
-328.0974691206453
 30
0.0
 40
2.999999999999995
100
AcDbArc
 50
124.875040152218
 51
180.0
  0
ARC
  5
21D
330
1E
100
AcDbEntity
  8
1
 62
     7
100
AcDbCircle
 10
-596.0320177478088
 20
-328.8385709006138
 30
0.0
 40
2.0
100
AcDbArc
 50
180.0
 51
270.0
  0
ARC
  5
21E
330
1E
100
AcDbEntity
  8
1
 62
     7
100
AcDbCircle
 10
-586.3653510811423
 20
-328.8385709006138
 30
0.0
 40
2.0
100
AcDbArc
 50
270.0
 51
0.0
  0
ARC
  5
21F
330
1E
100
AcDbEntity
  8
1
 62
     7
100
AcDbCircle
 10
-484.1988618304712
 20
-346.3411221866978
 30
0.0
 40
1.0
100
AcDbArc
 50
180.0
 51
270.0
  0
ARC
  5
220
330
1E
100
AcDbEntity
  8
1
 62
     7
100
AcDbCircle
 10
-422.5778861562204
 20
-275.6411221866979
 30
0.0
 40
1.30000000000001
100
AcDbArc
 50
90.0
 51
163.3984504009816
  0
ARC
  5
221
330
1E
100
AcDbEntity
  8
1
 62
     7
100
AcDbCircle
 10
-422.5778861562204
 20
-280.0411221866979
 30
0.0
 40
1.299999999999948
100
AcDbArc
 50
196.6015495990206
 51
270.0
  0
ARC
  5
222
330
1E
100
AcDbEntity
  8
1
 62
     7
100
AcDbCircle
 10
-421.8988618304711
 20
-274.6411221866979
 30
0.0
 40
0.3000000000000114
100
AcDbArc
 50
0.0
 51
90.0
  0
ARC
  5
223
330
1E
100
AcDbEntity
  8
1
 62
     7
100
AcDbCircle
 10
-421.8988618304711
 20
-281.0411221866979
 30
0.0
 40
0.2999999999999545
100
AcDbArc
 50
270.0
 51
0.0
  0
ARC
  5
224
330
1E
100
AcDbEntity
  8
1
 62
     7
100
AcDbCircle
 10
-414.1988618304711
 20
-346.3411221866978
 30
0.0
 40
1.0
100
AcDbArc
 50
180.0
 51
270.0
  0
TEXT
  5
225
330
1E
100
AcDbEntity
  8
1
 62
     7
100
AcDbText
 10
-639.0506764958862
 20
-241.251247584088
 30
0.0
 40
4.0
  1
MSC 1.2T
 41
0.9
  7
SIMPLEX
 72
     1
 11
-626.7078193530291
 21
-241.251247584088
 31
0.0
100
AcDbText
  0
ENDSEC
  0
SECTION
  2
OBJECTS
  0
DICTIONARY
  5
C
330
0
100
AcDbDictionary
281
     1
  3
ACAD_GROUP
350
D
  3
ACAD_PLOTSTYLENAME
350
E
  3
ACAD_MLINESTYLE
350
16
  3
ACAD_PLOTSETTINGS
350
18
  3
ACAD_LAYOUT
350
19
  0
DICTIONARY
  5
D
102
{ACAD_REACTORS
330
C
102
}
330
C
100
AcDbDictionary
281
     1
  0
ACDBDICTIONARYWDFLT
  5
E
102
{ACAD_REACTORS
330
C
102
}
330
C
100
AcDbDictionary
281
     1
  3
Normal
350
F
100
AcDbDictionaryWithDefault
340
F
  0
DICTIONARY
  5
16
102
{ACAD_REACTORS
330
C
102
}
330
C
100
AcDbDictionary
281
     1
  3
Standard
350
17
  0
DICTIONARY
  5
18
102
{ACAD_REACTORS
330
C
102
}
330
C
100
AcDbDictionary
281
     1
  0
DICTIONARY
  5
19
102
{ACAD_REACTORS
330
C
102
}
330
C
100
AcDbDictionary
281
     1
  3
ﾚｲｱｳﾄ1
350
1D
  3
Model
350
21
  0
ACDBPLACEHOLDER
  5
F
102
{ACAD_REACTORS
330
E
102
}
330
E
  0
MLINESTYLE
  5
17
102
{ACAD_REACTORS
330
16
102
}
330
16
100
AcDbMlineStyle
  2
STANDARD
 70
     0
  3

 62
   256
 51
90.0
 52
90.0
 71
     2
 49
0.5
 62
   256
  6
BYLAYER
 49
-0.5
 62
   256
  6
BYLAYER
  0
LAYOUT
  5
1D
102
{ACAD_REACTORS
330
19
102
}
330
19
100
AcDbPlotSettings
  1

  2
Canon BJ F100
  4

  6

 40
0.0
 41
0.0
 42
0.0
 43
0.0
 44
0.0
 45
0.0
 46
0.0
 47
0.0
 48
0.0
 49
0.0
140
0.0
141
0.0
142
1.0
143
1.0
 70
   688
 72
     0
 73
     0
 74
     5
  7

 75
    16
147
1.0
148
0.0
149
0.0
100
AcDbLayout
  1
ﾚｲｱｳﾄ1
 70
     1
 71
     1
 10
0.0
 20
0.0
 11
12.0
 21
9.0
 12
0.0
 22
0.0
 32
0.0
 14
1.000000000000000E+20
 24
1.000000000000000E+20
 34
1.000000000000000E+20
 15
-1.000000000000000E+20
 25
-1.000000000000000E+20
 35
-1.000000000000000E+20
146
0.0
 13
0.0
 23
0.0
 33
0.0
 16
1.0
 26
0.0
 36
0.0
 17
0.0
 27
1.0
 37
0.0
 76
     0
330
1A
  0
LAYOUT
  5
21
102
{ACAD_REACTORS
330
19
102
}
330
19
100
AcDbPlotSettings
  1

  2
Canon BJ F100
  4

  6

 40
0.0
 41
0.0
 42
0.0
 43
0.0
 44
0.0
 45
0.0
 46
0.0
 47
0.0
 48
0.0
 49
0.0
140
0.0
141
0.0
142
1.0
143
1.0
 70
  1712
 72
     0
 73
     0
 74
     0
  7

 75
     0
147
1.0
148
0.0
149
0.0
100
AcDbLayout
  1
Model
 70
     1
 71
     0
 10
0.0
 20
0.0
 11
12.0
 21
9.0
 12
0.0
 22
0.0
 32
0.0
 14
0.0
 24
0.0
 34
0.0
 15
0.0
 25
0.0
 35
0.0
146
0.0
 13
0.0
 23
0.0
 33
0.0
 16
1.0
 26
0.0
 36
0.0
 17
0.0
 27
1.0
 37
0.0
 76
     0
330
1E
  0
ENDSEC
  0
EOF
