  0
SECTION
  2
HEADER
  9
$ACADVER
  1
AC1009
  9
$INSBASE
 10
0.0
 20
0.0
 30
0.0
  9
$EXTMIN
 10
-532.50700260524275
 20
-610.40539664711696
 30
0.0
  9
$EXTMAX
 10
317.33121862455408
 20
-306.13207452626699
 30
0.0
  9
$LIMMIN
 10
-514.28060088363088
 20
-609.83941360760809
  9
$LIMMAX
 10
317.33121862455408
 20
-306.13207452626699
  9
$ORTHOMODE
 70
     0
  9
$REGENMODE
 70
     1
  9
$FILLMODE
 70
     1
  9
$QTEXTMODE
 70
     0
  9
$MIRRTEXT
 70
     1
  9
$DRAGMODE
 70
     2
  9
$LTSCALE
 40
1.0
  9
$OSMODE
 70
    37
  9
$ATTMODE
 70
     1
  9
$TEXTSIZE
 40
3.5
  9
$TRACEWID
 40
0.5
  9
$TEXTSTYLE
  7
STANDARD
  9
$CLAYER
  8
0
  9
$CELTYPE
  6
BYLAYER
  9
$CECOLOR
 62
   256
  9
$DIMSCALE
 40
1.0
  9
$DIMASZ
 40
0.18
  9
$DIMEXO
 40
0.0625
  9
$DIMDLI
 40
0.38
  9
$DIMRND
 40
0.0
  9
$DIMDLE
 40
0.0
  9
$DIMEXE
 40
0.18
  9
$DIMTP
 40
0.0
  9
$DIMTM
 40
0.0
  9
$DIMTXT
 40
0.18
  9
$DIMCEN
 40
0.09
  9
$DIMTSZ
 40
0.0
  9
$DIMTOL
 70
     0
  9
$DIMLIM
 70
     0
  9
$DIMTIH
 70
     1
  9
$DIMTOH
 70
     1
  9
$DIMSE1
 70
     0
  9
$DIMSE2
 70
     0
  9
$DIMTAD
 70
     0
  9
$DIMZIN
 70
     0
  9
$DIMBLK
  1

  9
$DIMASO
 70
     1
  9
$DIMSHO
 70
     1
  9
$DIMPOST
  1

  9
$DIMAPOST
  1

  9
$DIMALT
 70
     0
  9
$DIMALTD
 70
     2
  9
$DIMALTF
 40
25.399999999999999
  9
$DIMLFAC
 40
1.0
  9
$DIMTOFL
 70
     0
  9
$DIMTVP
 40
0.0
  9
$DIMTIX
 70
     0
  9
$DIMSOXD
 70
     0
  9
$DIMSAH
 70
     0
  9
$DIMBLK1
  1

  9
$DIMBLK2
  1

  9
$DIMSTYLE
  2
STANDARD
  9
$DIMCLRD
 70
     0
  9
$DIMCLRE
 70
     0
  9
$DIMCLRT
 70
     0
  9
$DIMTFAC
 40
1.0
  9
$DIMGAP
 40
0.09
  9
$LUNITS
 70
     2
  9
$LUPREC
 70
     4
  9
$SKETCHINC
 40
0.1
  9
$FILLETRAD
 40
2.0
  9
$AUNITS
 70
     0
  9
$AUPREC
 70
     0
  9
$MENU
  1
ACAD
  9
$ELEVATION
 40
0.0
  9
$PELEVATION
 40
0.0
  9
$THICKNESS
 40
0.0
  9
$LIMCHECK
 70
     0
  9
$BLIPMODE
 70
     0
  9
$CHAMFERA
 40
0.0
  9
$CHAMFERB
 40
0.0
  9
$SKPOLY
 70
     0
  9
$TDCREATE
 40
2452094.5467495359
  9
$TDUPDATE
 40
2452094.5484068282
  9
$TDINDWG
 40
0.0016605324
  9
$TDUSRTIMER
 40
0.0016605324
  9
$USRTIMER
 70
     1
  9
$ANGBASE
 50
0.0
  9
$ANGDIR
 70
     0
  9
$PDMODE
 70
     0
  9
$PDSIZE
 40
0.0
  9
$PLINEWID
 40
0.0
  9
$COORDS
 70
     1
  9
$SPLFRAME
 70
     0
  9
$SPLINETYPE
 70
     6
  9
$SPLINESEGS
 70
     8
  9
$ATTDIA
 70
     0
  9
$ATTREQ
 70
     1
  9
$HANDLING
 70
 10241
  9
$HANDSEED
  5
278
  9
$SURFTAB1
 70
     6
  9
$SURFTAB2
 70
     6
  9
$SURFTYPE
 70
     6
  9
$SURFU
 70
     6
  9
$SURFV
 70
     6
  9
$UCSNAME
  2

  9
$UCSORG
 10
0.0
 20
0.0
 30
0.0
  9
$UCSXDIR
 10
1.0
 20
0.0
 30
0.0
  9
$UCSYDIR
 10
0.0
 20
1.0
 30
0.0
  9
$PUCSNAME
  2

  9
$PUCSORG
 10
0.0
 20
0.0
 30
0.0
  9
$PUCSXDIR
 10
1.0
 20
0.0
 30
0.0
  9
$PUCSYDIR
 10
0.0
 20
1.0
 30
0.0
  9
$USERI1
 70
     0
  9
$USERI2
 70
     0
  9
$USERI3
 70
     0
  9
$USERI4
 70
     0
  9
$USERI5
 70
     0
  9
$USERR1
 40
0.0
  9
$USERR2
 40
0.0
  9
$USERR3
 40
0.0
  9
$USERR4
 40
0.0
  9
$USERR5
 40
0.0
  9
$WORLDVIEW
 70
     1
  9
$SHADEDGE
 70
     3
  9
$SHADEDIF
 70
    70
  9
$TILEMODE
 70
     1
  9
$MAXACTVP
 70
    64
  9
$PLIMCHECK
 70
     0
  9
$PEXTMIN
 10
1.0000000000000000E+020
 20
1.0000000000000000E+020
 30
1.0000000000000000E+020
  9
$PEXTMAX
 10
-1.0000000000000000E+020
 20
-1.0000000000000000E+020
 30
-1.0000000000000000E+020
  9
$PLIMMIN
 10
0.0
 20
0.0
  9
$PLIMMAX
 10
12.0
 20
9.0
  9
$UNITMODE
 70
     0
  9
$VISRETAIN
 70
     1
  9
$PLINEGEN
 70
     0
  9
$PSLTSCALE
 70
     1
  0
ENDSEC
  0
SECTION
  2
TABLES
  0
TABLE
  2
VPORT
 70
     2
  0
VPORT
  2
*ACTIVE
 70
     0
 10
0.0
 20
0.0
 11
1.0
 21
1.0
 12
-499.2345898031349
 22
-330.9508039448238
 13
0.0
 23
0.0
 14
1.0
 24
1.0
 15
0.0
 25
0.0
 16
0.0
 26
0.0
 36
1.0
 17
0.0
 27
0.0
 37
0.0
 40
8.9999992570008835
 41
2.5693779904306222
 42
50.0
 43
0.0
 44
0.0
 50
0.0
 51
0.0
 71
     0
 72
   100
 73
     1
 74
     1
 75
     0
 76
     0
 77
     0
 78
     0
  0
ENDTAB
  0
TABLE
  2
LTYPE
 70
     9
  0
LTYPE
  2
CONTINUOUS
 70
     0
  3
Solid line
 72
    65
 73
     0
 40
0.0
  0
LTYPE
  2
BORDER
 70
     0
  3
__ __ . __ __ .
 72
    65
 73
     6
 40
38.297912740508522
 49
10.94226078300243
 49
-5.4711303915012168
 49
10.94226078300243
 49
-5.4711303915012168
 49
0.0
 49
-5.4711303915012168
  0
LTYPE
  2
CENTER
 70
     0
  3
____ _ ____ _
 72
    65
 73
     4
 40
43.769043132009742
 49
27.35565195750609
 49
-5.4711303915012168
 49
5.4711303915012168
 49
-5.4711303915012168
  0
LTYPE
  2
DASHDOT
 70
     0
  3
__ . __ . __ .
 72
    65
 73
     4
 40
21.884521566004871
 49
10.94226078300243
 49
-5.4711303915012168
 49
0.0
 49
-5.4711303915012168
  0
LTYPE
  2
DASHED
 70
     0
  3
__ __ __ __ __
 72
    65
 73
     2
 40
16.413391174503651
 49
10.94226078300243
 49
-5.4711303915012168
  0
LTYPE
  2
DIVIDE
 70
     0
  3
__ . . __ . . 
 72
    65
 73
     6
 40
27.35565195750609
 49
10.94226078300243
 49
-5.4711303915012168
 49
0.0
 49
-5.4711303915012168
 49
0.0
 49
-5.4711303915012168
  0
LTYPE
  2
DOT
 70
     0
  3
..............
 72
    65
 73
     4
 40
10.94226078300243
 49
0.0
 49
-5.4711303915012168
 49
0.0
 49
-5.4711303915012168
  0
LTYPE
  2
HIDDEN
 70
     0
  3
_ _ _ _ _ _ _
 72
    65
 73
     2
 40
8.2066955872518257
 49
5.4711303915012168
 49
-2.735565195750608
  0
LTYPE
  2
PHANTOM
 70
     0
  3
_____ _ _ _____ _ _ 
 72
    65
 73
     6
 40
54.711303915012181
 49
27.35565195750609
 49
-5.4711303915012168
 49
5.4711303915012168
 49
-5.4711303915012168
 49
5.4711303915012168
 49
-5.4711303915012168
  0
ENDTAB
  0
TABLE
  2
LAYER
 70
     2
  0
LAYER
  2
0
 70
     0
 62
     7
  6
CONTINUOUS
  0
LAYER
  2
1
 70
     0
 62
     7
  6
CONTINUOUS
  0
ENDTAB
  0
TABLE
  2
STYLE
 70
     4
  0
STYLE
  2
STANDARD
 70
     0
 40
0.0
 41
1.0
 50
0.0
 71
     0
 42
3.5
  3
txt
  4

  0
STYLE
  2
SIMPLEX
 70
     0
 40
0.0
 41
1.0
 50
0.0
 71
     0
 42
3.5
  3
simplex
  4

  0
STYLE
  2
COMPLEX
 70
     0
 40
0.0
 41
1.0
 50
0.0
 71
     0
 42
3.5
  3
complex
  4

  0
STYLE
  2
ITALIC
 70
     0
 40
0.0
 41
1.0
 50
0.0
 71
     0
 42
3.5
  3
italic
  4

  0
ENDTAB
  0
TABLE
  2
VIEW
 70
     0
  0
ENDTAB
  0
TABLE
  2
UCS
 70
     0
  0
ENDTAB
  0
TABLE
  2
APPID
 70
     1
  0
APPID
  2
ACAD
 70
     0
  0
ENDTAB
  0
TABLE
  2
DIMSTYLE
 70
     1
  0
DIMSTYLE
  2
STANDARD
 70
     0
  3

  4

  5

  6

  7

 40
1.0
 41
0.18
 42
0.0625
 43
0.38
 44
0.18
 45
0.0
 46
0.0
 47
0.0
 48
0.0
140
0.18
141
0.09
142
0.0
143
25.399999999999999
144
1.0
145
0.0
146
1.0
147
0.09
 71
     0
 72
     0
 73
     1
 74
     1
 75
     0
 76
     0
 77
     0
 78
     0
170
     0
171
     2
172
     0
173
     0
174
     0
175
     0
176
     0
177
     0
178
     0
  0
ENDTAB
  0
ENDSEC
  0
SECTION
  2
BLOCKS
  0
BLOCK
  8
0
  2
$MODEL_SPACE
 70
     0
 10
0.0
 20
0.0
 30
0.0
  3
$MODEL_SPACE
  1

  0
ENDBLK
  5
20
  8
0
  0
BLOCK
 67
     1
  8
0
  2
$PAPER_SPACE
 70
     0
 10
0.0
 20
0.0
 30
0.0
  3
$PAPER_SPACE
  1

  0
ENDBLK
  5
1C
 67
     1
  8
0
  0
ENDSEC
  0
SECTION
  2
ENTITIES
  0
POINT
  5
33
  8
1
  6
DOT
 62
     7
 10
-401.59241294015311
 20
-519.83941360760809
 30
0.0
  0
LINE
  5
34
  8
1
 62
     7
 10
29.266246548312509
 20
-559.83941360760809
 30
0.0
 11
30.094532234020999
 21
-559.83941360760809
 31
0.0
  0
LINE
  5
35
  8
1
 62
     7
 10
48.694532234021111
 20
-557.78941360760825
 30
0.0
 11
22.6945322340211
 21
-557.78941360760825
 31
0.0
  0
LINE
  5
36
  8
1
 62
     7
 10
48.694532234021111
 20
-441.88941360760811
 30
0.0
 11
22.6945322340211
 21
-441.88941360760811
 31
0.0
  0
LINE
  5
37
  8
1
 62
     7
 10
28.694532234020901
 20
-429.83941360760821
 30
0.0
 11
28.69453223402105
 21
-438.43941360760812
 31
0.0
  0
LINE
  5
38
  8
1
 62
     7
 10
27.294532234020981
 20
-433.34130222164129
 30
0.0
 11
27.294532234020981
 21
-438.48941360760818
 31
0.0
  0
LINE
  5
39
  8
1
 62
     7
 10
-210.906614123585
 20
-420.83941360760821
 30
0.0
 11
-210.906614123585
 21
-398.83941360760809
 31
0.0
  0
LINE
  5
3A
  8
1
 62
     7
 10
-213.906614123585
 20
-420.83941360760821
 30
0.0
 11
-213.906614123585
 21
-453.46983961649119
 31
0.0
  0
LINE
  5
3B
  8
1
 62
     7
 10
-213.80661412358489
 20
-419.83941360760821
 30
0.0
 11
-210.906614123585
 21
-419.83941360760821
 31
0.0
  0
LINE
  5
3C
  8
1
 62
     7
 10
-213.80661412358489
 20
-419.83941360760821
 30
0.0
 11
-213.80661412358489
 21
-369.83941360760821
 31
0.0
  0
LINE
  5
3D
  8
1
 62
     7
 10
-213.906614123585
 20
-420.83941360760821
 30
0.0
 11
-210.906614123585
 21
-420.83941360760821
 31
0.0
  0
LINE
  5
3E
  8
1
  6
DASHDOT
 62
     3
 10
-217.42393411836301
 20
-379.83941360760821
 30
0.0
 11
-207.63410596465499
 21
-379.83941360760821
 31
0.0
  0
LINE
  5
3F
  8
1
  6
DASHDOT
 62
     3
 10
-401.59241294015311
 20
-372.20382423095901
 30
0.0
 11
-401.59241294015311
 21
-387.47500298425729
 31
0.0
  0
LINE
  5
40
  8
1
  6
DASHDOT
 62
     3
 10
-393.95682356350397
 20
-379.83941360760821
 30
0.0
 11
-409.22800231680208
 21
-379.83941360760821
 31
0.0
  0
LINE
  5
41
  8
1
  6
DASHDOT
 62
     3
 10
-401.59241294015311
 20
-490.2167799027311
 30
0.0
 11
-401.59241294015311
 21
-509.4620473124852
 31
0.0
  0
LINE
  5
42
  8
1
  6
DASHDOT
 62
     3
 10
-391.96977923527601
 20
-499.83941360760821
 30
0.0
 11
-411.21504664503021
 21
-499.83941360760821
 31
0.0
  0
LINE
  5
43
  8
1
 62
     7
 10
-182.906614123585
 20
-603.43941360760823
 30
0.0
 11
-208.906614123585
 21
-603.43941360760823
 31
0.0
  0
LINE
  5
44
  8
1
 62
     7
 10
-213.906614123585
 20
-467.33941360760821
 30
0.0
 11
-215.906614123585
 21
-467.33941360760821
 31
0.0
  0
LINE
  5
45
  8
1
 62
     7
 10
-182.906614123585
 20
-395.83941360760821
 30
0.0
 11
-182.906614123585
 21
-603.83941360760809
 31
0.0
  0
LINE
  5
46
  8
1
 62
     7
 10
-213.906614123585
 20
-453.46983961649119
 30
0.0
 11
-213.906614123585
 21
-552.29519533399275
 31
0.0
  0
LINE
  5
47
  8
1
 62
     7
 10
-210.906614123585
 20
-398.23941360760813
 30
0.0
 11
-210.906614123585
 21
-413.01466980616527
 31
0.0
  0
LINE
  5
48
  8
1
 62
     7
 10
-208.906614123585
 20
-396.23941360760818
 30
0.0
 11
-210.906614123585
 21
-398.23941360760813
 31
0.0
  0
LINE
  5
49
  8
1
 62
     7
 10
-182.906614123585
 20
-395.83941360760821
 30
0.0
 11
-182.906614123585
 21
-391.83941360760821
 31
0.0
  0
LINE
  5
4A
  8
1
 62
     7
 10
-208.906614123585
 20
-603.43941360760823
 30
0.0
 11
-210.906614123585
 21
-601.43941360760823
 31
0.0
  0
LINE
  5
4B
  8
1
 62
     7
 10
-210.906614123585
 20
-600.83941360760809
 30
0.0
 11
-210.906614123585
 21
-601.43941360760823
 31
0.0
  0
LINE
  5
4C
  8
1
 62
     7
 10
-216.906614123585
 20
-499.83941360760821
 30
0.0
 11
-216.906614123585
 21
-468.33941360760809
 31
0.0
  0
LINE
  5
4D
  8
1
 62
     7
 10
-159.906614123585
 20
-389.83941360760821
 30
0.0
 11
-180.906614123585
 21
-389.83941360760821
 31
0.0
  0
LINE
  5
4E
  8
1
 62
     7
 10
-180.906614123585
 20
-389.83941360760821
 30
0.0
 11
-182.906614123585
 21
-391.83941360760821
 31
0.0
  0
LINE
  5
4F
  8
1
 62
     7
 10
-215.906614123585
 20
-467.33941360760821
 30
0.0
 11
-216.906614123585
 21
-468.33941360760809
 31
0.0
  0
LINE
  5
50
  8
1
 62
     7
 10
-213.80661412358489
 20
-369.83941360760821
 30
0.0
 11
-210.906614123585
 21
-369.83941360760821
 31
0.0
  0
LINE
  5
51
  8
1
 62
     7
 10
-210.906614123585
 20
-600.83941360760809
 30
0.0
 11
-210.906614123585
 21
-578.79284154090749
 31
0.0
  0
LINE
  5
52
  8
1
 62
     7
 10
-215.906614123585
 20
-532.33941360760809
 30
0.0
 11
-213.906614123585
 21
-532.33941360760809
 31
0.0
  0
LINE
  5
53
  8
1
 62
     7
 10
-216.906614123585
 20
-531.33941360760798
 30
0.0
 11
-215.906614123585
 21
-532.33941360760809
 31
0.0
  0
LINE
  5
54
  8
1
 62
     7
 10
-182.906614123585
 20
-607.83941360760809
 30
0.0
 11
-180.906614123585
 21
-609.83941360760798
 31
0.0
  0
LINE
  5
55
  8
1
 62
     7
 10
-180.906614123585
 20
-609.83941360760798
 30
0.0
 11
-159.906614123585
 21
-609.83941360760798
 31
0.0
  0
LINE
  5
56
  8
1
 62
     7
 10
-182.906614123585
 20
-607.83941360760809
 30
0.0
 11
-182.906614123585
 21
-603.83941360760809
 31
0.0
  0
LINE
  5
57
  8
1
 62
     7
 10
-216.906614123585
 20
-531.33941360760798
 30
0.0
 11
-216.906614123585
 21
-499.83941360760821
 31
0.0
  0
LINE
  5
58
  8
1
 62
     7
 10
-159.906614123585
 20
-609.83941360760798
 30
0.0
 11
-159.906614123585
 21
-389.83941360760821
 31
0.0
  0
LINE
  5
59
  8
1
 62
     7
 10
-208.906614123585
 20
-396.23941360760818
 30
0.0
 11
-182.906614123585
 21
-396.23941360760818
 31
0.0
  0
LINE
  5
5A
  8
1
 62
     7
 10
-210.906614123585
 20
-578.79284154090749
 30
0.0
 11
-213.906614123585
 21
-578.79284154090749
 31
0.0
  0
LINE
  5
5B
  8
1
 62
     7
 10
-213.906614123585
 20
-552.29519533399275
 30
0.0
 11
-213.906614123585
 21
-578.79284154090749
 31
0.0
  0
LINE
  5
5C
  8
1
 62
     7
 10
-408.092412940153
 20
-537.58278026378946
 30
0.0
 11
-410.59241294015311
 21
-537.58278026378946
 31
0.0
  0
LINE
  5
5D
  8
1
 62
     7
 10
-408.092412940153
 20
-531.68278026378937
 30
0.0
 11
-408.092412940153
 21
-537.58278026378946
 31
0.0
  0
LINE
  5
5E
  8
1
 62
     7
 10
-395.09241294015311
 20
-537.58278026378946
 30
0.0
 11
-392.59241294015311
 21
-537.58278026378946
 31
0.0
  0
LINE
  5
5F
  8
1
 62
     7
 10
-395.09241294015311
 20
-531.68278026378937
 30
0.0
 11
-395.09241294015311
 21
-537.58278026378946
 31
0.0
  0
LINE
  5
60
  8
1
 62
     7
 10
-413.09241294015311
 20
-531.81307039130138
 30
0.0
 11
-413.09241294015311
 21
-535.08278026378946
 31
0.0
  0
LINE
  5
61
  8
1
 62
     7
 10
-390.09241294015311
 20
-531.81307039130138
 30
0.0
 11
-390.09241294015311
 21
-535.08278026378946
 31
0.0
  0
LINE
  5
62
  8
1
 62
     7
 10
-381.59241294015311
 20
-419.83941360760821
 30
0.0
 11
-421.59241294015311
 21
-419.83941360760821
 31
0.0
  0
LINE
  5
63
  8
1
 62
     7
 10
-381.59241294015311
 20
-419.83941360760821
 30
0.0
 11
-381.59241294015311
 21
-407.83941360760821
 31
0.0
  0
LINE
  5
64
  8
1
 62
     7
 10
-386.59241294015311
 20
-404.83941360760821
 30
0.0
 11
-384.59241294015311
 21
-404.83941360760821
 31
0.0
  0
LINE
  5
65
  8
1
 62
     7
 10
-389.59241294015311
 20
-372.83941360760821
 30
0.0
 11
-389.59241294015311
 21
-401.83941360760809
 31
0.0
  0
LINE
  5
66
  8
1
 62
     7
 10
-410.59241294015311
 20
-369.83941360760821
 30
0.0
 11
-392.59241294015311
 21
-369.83941360760821
 31
0.0
  0
LINE
  5
67
  8
1
 62
     7
 10
-413.59241294015311
 20
-372.83941360760821
 30
0.0
 11
-413.59241294015311
 21
-401.83941360760809
 31
0.0
  0
LINE
  5
68
  8
1
 62
     7
 10
-418.59241294015311
 20
-404.83941360760821
 30
0.0
 11
-416.592412940153
 21
-404.83941360760821
 31
0.0
  0
LINE
  5
69
  8
1
 62
     7
 10
-421.59241294015311
 20
-419.83941360760821
 30
0.0
 11
-421.59241294015311
 21
-407.83941360760821
 31
0.0
  0
LINE
  5
6A
  8
1
 62
     7
 10
-396.592412940153
 20
-476.33941360760809
 30
0.0
 11
-396.592412940153
 21
-480.47449687657121
 31
0.0
  0
LINE
  5
6B
  8
1
 62
     7
 10
-406.59241294015311
 20
-476.33941360760809
 30
0.0
 11
-396.592412940153
 21
-476.33941360760809
 31
0.0
  0
LINE
  5
6C
  8
1
 62
     7
 10
-406.59241294015311
 20
-480.47449687657121
 30
0.0
 11
-406.59241294015311
 21
-476.33941360760809
 31
0.0
  0
LINE
  5
6D
  8
1
 62
     7
 10
-414.09241294015311
 20
-410.5300125308496
 30
0.0
 11
-416.092412940153
 21
-411.68471306922879
 31
0.0
  0
LINE
  5
6E
  8
1
 62
     7
 10
-416.092412940153
 20
-411.68471306922879
 30
0.0
 11
-416.092412940153
 21
-413.9941141459874
 31
0.0
  0
LINE
  5
6F
  8
1
 62
     7
 10
-416.092412940153
 20
-413.9941141459874
 30
0.0
 11
-414.09241294015311
 21
-415.14881468436658
 31
0.0
  0
LINE
  5
70
  8
1
 62
     7
 10
-414.09241294015311
 20
-415.14881468436658
 30
0.0
 11
-412.092412940153
 21
-413.9941141459874
 31
0.0
  0
LINE
  5
71
  8
1
 62
     7
 10
-412.092412940153
 20
-413.9941141459874
 30
0.0
 11
-412.092412940153
 21
-411.68471306922879
 31
0.0
  0
LINE
  5
72
  8
1
 62
     7
 10
-412.092412940153
 20
-411.68471306922879
 30
0.0
 11
-414.09241294015311
 21
-410.5300125308496
 31
0.0
  0
LINE
  5
73
  8
1
 62
     7
 10
-389.09241294015311
 20
-410.5300125308496
 30
0.0
 11
-391.09241294015311
 21
-411.68471306922879
 31
0.0
  0
LINE
  5
74
  8
1
 62
     7
 10
-391.09241294015311
 20
-411.68471306922879
 30
0.0
 11
-391.09241294015311
 21
-413.9941141459874
 31
0.0
  0
LINE
  5
75
  8
1
 62
     7
 10
-391.09241294015311
 20
-413.9941141459874
 30
0.0
 11
-389.09241294015311
 21
-415.14881468436658
 31
0.0
  0
LINE
  5
76
  8
1
 62
     7
 10
-389.09241294015311
 20
-415.14881468436658
 30
0.0
 11
-387.09241294015311
 21
-413.9941141459874
 31
0.0
  0
LINE
  5
77
  8
1
 62
     7
 10
-387.09241294015311
 20
-413.9941141459874
 30
0.0
 11
-387.09241294015311
 21
-411.68471306922879
 31
0.0
  0
LINE
  5
78
  8
1
 62
     7
 10
-387.09241294015311
 20
-411.68471306922879
 30
0.0
 11
-389.09241294015311
 21
-410.5300125308496
 31
0.0
  0
LINE
  5
79
  8
1
 62
     7
 10
-210.906614123585
 20
-369.83941360760821
 30
0.0
 11
-210.906614123585
 21
-398.23941360760813
 31
0.0
  0
LINE
  5
7A
  8
1
 62
     7
 10
-140.506614123585
 20
-569.83941360760821
 30
0.0
 11
-137.506614123585
 21
-518.13561905827362
 31
0.0
  0
LINE
  5
7B
  8
1
 62
     7
 10
-138.906614123585
 20
-518.13561905827362
 30
0.0
 11
-141.906614123585
 21
-569.83941360760821
 31
0.0
  0
LINE
  5
7C
  8
1
 62
     7
 10
-138.906614123585
 20
-518.13561905827362
 30
0.0
 11
-137.506614123585
 21
-518.13561905827362
 31
0.0
  0
LINE
  5
7D
  8
1
 62
     7
 10
-140.506614123585
 20
-569.83941360760821
 30
0.0
 11
-137.906614123585
 21
-569.83941360760821
 31
0.0
  0
LINE
  5
7E
  8
1
 62
     7
 10
-141.906614123585
 20
-585.83941360760821
 30
0.0
 11
-141.906614123585
 21
-569.83941360760821
 31
0.0
  0
LINE
  5
7F
  8
1
 62
     7
 10
-139.48760391561899
 20
-429.83941360760821
 30
0.0
 11
-143.906614123585
 21
-429.83941360760821
 31
0.0
  0
LINE
  5
80
  8
1
 62
     7
 10
-138.906614123585
 20
-414.9484606932873
 30
0.0
 11
-137.506614123585
 21
-414.9484606932873
 31
0.0
  0
LINE
  5
81
  8
1
 62
     7
 10
-140.506614123585
 20
-491.83941360760821
 30
0.0
 11
-137.506614123585
 21
-414.9484606932873
 31
0.0
  0
LINE
  5
82
  8
1
 62
     7
 10
-138.906614123585
 20
-414.9484606932873
 30
0.0
 11
-141.906614123585
 21
-491.83941360760821
 31
0.0
  0
LINE
  5
83
  8
1
 62
     7
 10
-140.506614123585
 20
-491.83941360760821
 30
0.0
 11
-137.906614123585
 21
-491.83941360760821
 31
0.0
  0
LINE
  5
84
  8
1
 62
     7
 10
-141.906614123585
 20
-491.83941360760821
 30
0.0
 11
-141.906614123585
 21
-507.83941360760821
 31
0.0
  0
LINE
  5
85
  8
1
 62
     7
 10
-140.506614123585
 20
-491.83941360760821
 30
0.0
 11
-140.506614123585
 21
-507.83941360760821
 31
0.0
  0
LINE
  5
86
  8
1
 62
     7
 10
-143.906614123585
 20
-491.83941360760821
 30
0.0
 11
-141.906614123585
 21
-491.83941360760821
 31
0.0
  0
LINE
  5
87
  8
1
 62
     7
 10
168.71646136966149
 20
-362.48865839443278
 30
0.0
 11
170.01055659517411
 21
-367.31828752587819
 31
0.0
  0
LINE
  5
88
  8
1
 62
     7
 10
169.00623911754801
 20
-362.4110126809021
 30
0.0
 11
170.3003343430606
 21
-367.24064181234741
 31
0.0
  0
LINE
  5
89
  8
1
 62
     7
 10
169.8755723612081
 20
-362.17807554030992
 30
0.0
 11
171.16966758672081
 21
-367.00770467175522
 31
0.0
  0
LINE
  5
8A
  8
1
 62
     7
 10
169.5857946133215
 20
-362.25572125384059
 30
0.0
 11
170.879889838834
 21
-367.08535038528601
 31
0.0
  0
LINE
  5
8B
  8
1
 62
     7
 10
172.09720176167301
 20
-361.58279173657411
 30
0.0
 11
173.3912969871856
 21
-366.41242086801941
 31
0.0
  0
LINE
  5
8C
  8
1
 62
     7
 10
170.93809077012631
 20
-361.89337459069708
 30
0.0
 11
172.2321859956389
 21
-366.72300372214238
 31
0.0
  0
LINE
  5
8D
  8
1
 62
     7
 10
171.22786851801291
 20
-361.81572887716629
 30
0.0
 11
172.5219637435255
 21
-366.64535800861159
 31
0.0
  0
LINE
  5
8E
  8
1
 62
     7
 10
171.80742401378629
 20
-361.66043745010478
 30
0.0
 11
173.10151923929891
 21
-366.4900665815502
 31
0.0
  0
LINE
  5
8F
  8
1
 62
     7
 10
169.29601686543481
 20
-362.33336696737132
 30
0.0
 11
170.5901120909474
 21
-367.16299609881662
 31
0.0
  0
LINE
  5
90
  8
1
 62
     7
 10
171.5176462658996
 20
-361.73808316363562
 30
0.0
 11
172.81174149141211
 21
-366.56771229508081
 31
0.0
  0
LINE
  5
91
  8
1
 62
     7
 10
173.9225561916445
 20
-366.2700703932129
 30
0.0
 11
181.08897716567949
 21
-393.0155175767382
 31
0.0
  0
LINE
  5
92
  8
1
 62
     7
 10
171.7009267911798
 20
-366.86535419694872
 30
0.0
 11
178.86112366327691
 21
-393.58757271581072
 31
0.0
  0
LINE
  5
93
  8
1
 62
     7
 10
169.479297390715
 20
-367.46063800068458
 30
0.0
 11
176.6457183647498
 21
-394.20608518420983
 31
0.0
  0
LINE
  5
94
  8
1
 62
     7
 10
233.6883668105651
 20
-416.9280106554167
 30
0.0
 11
232.39281795047111
 21
-421.76306482497608
 31
0.0
  0
LINE
  5
95
  8
1
 62
     7
 10
271.61288000104651
 20
-441.21460648060793
 30
0.0
 11
268.07337469158108
 21
-444.75411179007313
 31
0.0
  0
LINE
  5
96
  8
1
 62
     7
 10
292.31317393756558
 20
-481.20967203190912
 30
0.0
 11
287.4781197680062
 21
-482.50522089200342
 31
0.0
  0
LINE
  5
97
  8
1
 62
     7
 10
290.24262157674542
 20
-526.19656179361925
 30
0.0
 11
285.40756740718609
 21
-524.90101293352518
 31
0.0
  0
LINE
  5
98
  8
1
 62
     7
 10
265.95602575155419
 20
-564.12107498410035
 30
0.0
 11
262.41652044208922
 21
-560.58156967463503
 31
0.0
  0
LINE
  5
99
  8
1
 62
     7
 10
225.96096020025311
 20
-584.82136892061919
 30
0.0
 11
224.66541134015921
 21
-579.98631475105992
 31
0.0
  0
LINE
  5
9A
  8
1
 62
     7
 10
180.97407043854309
 20
-582.75081655979932
 30
0.0
 11
182.26961929863731
 21
-577.91576239023959
 31
0.0
  0
LINE
  5
9B
  8
1
 62
     7
 10
143.0495572480622
 20
-558.46422073460769
 30
0.0
 11
146.589062557527
 21
-554.92471542514284
 31
0.0
  0
LINE
  5
9C
  8
1
 62
     7
 10
122.3492633115432
 20
-518.46915518330661
 30
0.0
 11
127.1843174811021
 21
-517.17360632321254
 31
0.0
  0
LINE
  5
9D
  8
1
 62
     7
 10
124.4198156723633
 20
-473.48226542159671
 30
0.0
 11
129.25486984192199
 21
-474.77781428169072
 31
0.0
  0
LINE
  5
9E
  8
1
 62
     7
 10
148.70641149755409
 20
-435.55775223111573
 30
0.0
 11
152.24591680701931
 21
-439.09725754058093
 31
0.0
  0
LINE
  5
9F
  8
1
 62
     7
 10
225.9609602002522
 20
-414.85745829459643
 30
0.0
 11
224.6654113401581
 21
-419.6925124641557
 31
0.0
  0
LINE
  5
A0
  8
1
 62
     7
 10
265.95602575155419
 20
-435.5577522311151
 30
0.0
 11
262.41652044208922
 21
-439.09725754058047
 31
0.0
  0
LINE
  5
A1
  8
1
 62
     7
 10
290.24262157674531
 20
-473.48226542159648
 30
0.0
 11
285.40756740718598
 21
-474.77781428169072
 31
0.0
  0
LINE
  5
A2
  8
1
 62
     7
 10
292.31317393756558
 20
-518.4691551833065
 30
0.0
 11
287.47811976800631
 21
-517.17360632321254
 31
0.0
  0
LINE
  5
A3
  8
1
 62
     7
 10
271.61288000104662
 20
-558.46422073460769
 30
0.0
 11
268.07337469158108
 21
-554.92471542514261
 31
0.0
  0
LINE
  5
A4
  8
1
 62
     7
 10
233.68836681056601
 20
-582.75081655979909
 30
0.0
 11
232.39281795047111
 21
-577.91576239023959
 31
0.0
  0
LINE
  5
A5
  8
1
 62
     7
 10
188.70147704885599
 20
-584.82136892061919
 30
0.0
 11
189.99702590895029
 21
-579.98631475106026
 31
0.0
  0
LINE
  5
A6
  8
1
 62
     7
 10
148.70641149755409
 20
-564.12107498410069
 30
0.0
 11
152.24591680702011
 21
-560.58156967463538
 31
0.0
  0
LINE
  5
A7
  8
1
 62
     7
 10
124.4198156723633
 20
-526.19656179361959
 30
0.0
 11
129.25486984192199
 21
-524.90101293352518
 31
0.0
  0
LINE
  5
A8
  8
1
 62
     7
 10
122.3492633115432
 20
-481.20967203190941
 30
0.0
 11
127.1843174811021
 21
-482.50522089200342
 31
0.0
  0
LINE
  5
A9
  8
1
 62
     7
 10
143.04955724806101
 20
-441.21460648060793
 30
0.0
 11
146.589062557527
 21
-444.7541117900733
 31
0.0
  0
LINE
  5
AA
  8
1
 62
     7
 10
188.70147704885511
 20
-414.85745829459671
 30
0.0
 11
189.99702590894901
 21
-419.69251246415598
 31
0.0
  0
LINE
  5
AB
  8
1
 62
     7
 10
180.9740704385421
 20
-416.92801065541681
 30
0.0
 11
182.26961929863731
 21
-421.76306482497608
 31
0.0
  0
LINE
  5
AC
  8
1
 62
     3
 10
-120.906614123585
 20
-499.83941360760821
 30
0.0
 11
-117.906614123585
 21
-499.83941360760821
 31
0.0
  0
LINE
  5
AD
  8
1
 62
     7
 10
-137.906614123585
 20
-429.83941360760821
 30
0.0
 11
-138.08760391561921
 21
-429.83941360760821
 31
0.0
  0
LINE
  5
AE
  8
1
 62
     7
 10
-159.40661412358509
 20
-389.83941360760821
 30
0.0
 11
-159.40661412358509
 21
-609.83941360760798
 31
0.0
  0
LINE
  5
AF
  8
1
 62
     7
 10
-159.40661412358509
 20
-389.83941360760821
 30
0.0
 11
-152.10661412358499
 21
-389.83941360760821
 31
0.0
  0
LINE
  5
B0
  8
1
 62
     7
 10
-141.906614123585
 20
-413.83941360760809
 30
0.0
 11
-141.906614123585
 21
-429.83941360760821
 31
0.0
  0
LINE
  5
B1
  8
1
 62
     7
 10
-135.906614123585
 20
-431.83941360760821
 30
0.0
 11
-135.906614123585
 21
-489.83941360760821
 31
0.0
  0
LINE
  5
B2
  8
1
 62
     7
 10
-140.506614123585
 20
-413.83941360760809
 30
0.0
 11
-140.506614123585
 21
-429.83941360760821
 31
0.0
  0
LINE
  5
B3
  8
1
 62
     7
 10
-129.906614123585
 20
-413.83941360760809
 30
0.0
 11
-143.906614123585
 21
-413.83941360760809
 31
0.0
  0
LINE
  5
B4
  8
1
 62
     7
 10
-143.906614123585
 20
-609.83941360760809
 30
0.0
 11
-145.6066141235851
 21
-609.83941360760809
 31
0.0
  0
LINE
  5
B5
  8
1
 62
     7
 10
-143.906614123585
 20
-609.83941360760809
 30
0.0
 11
-143.906614123585
 21
-389.83941360760821
 31
0.0
  0
LINE
  5
B6
  8
1
 62
     7
 10
-143.906614123585
 20
-585.83941360760821
 30
0.0
 11
-129.906614123585
 21
-585.83941360760821
 31
0.0
  0
LINE
  5
B7
  8
1
 62
     7
 10
-137.906614123585
 20
-507.83941360760821
 30
0.0
 11
-143.906614123585
 21
-507.83941360760821
 31
0.0
  0
LINE
  5
B8
  8
1
 62
     7
 10
-143.906614123585
 20
-569.83941360760821
 30
0.0
 11
-141.906614123585
 21
-569.83941360760821
 31
0.0
  0
LINE
  5
B9
  8
1
 62
     7
 10
-135.906614123585
 20
-509.83941360760809
 30
0.0
 11
-135.906614123585
 21
-567.83941360760809
 31
0.0
  0
LINE
  5
BA
  8
1
 62
     7
 10
-140.506614123585
 20
-569.83941360760821
 30
0.0
 11
-140.506614123585
 21
-585.83941360760821
 31
0.0
  0
LINE
  5
BB
  8
1
 62
     7
 10
-210.906614123585
 20
-578.79284154090749
 30
0.0
 11
-210.906614123585
 21
-420.83941360760821
 31
0.0
  0
LINE
  5
BC
  8
1
 62
     3
 10
-219.906614123585
 20
-499.83941360760821
 30
0.0
 11
-216.906614123585
 21
-499.83941360760821
 31
0.0
  0
LINE
  5
BD
  8
1
 62
     7
 10
-213.80661412358489
 20
-417.08941360760821
 30
0.0
 11
-218.50661412358491
 21
-417.08941360760821
 31
0.0
  0
LINE
  5
BE
  8
1
 62
     7
 10
-218.50661412358491
 20
-417.08941360760821
 30
0.0
 11
-218.80661412358481
 21
-416.56979836533748
 31
0.0
  0
LINE
  5
BF
  8
1
 62
     7
 10
-218.80661412358481
 20
-416.56979836533748
 30
0.0
 11
-218.80661412358481
 21
-409.10902884987883
 31
0.0
  0
LINE
  5
C0
  8
1
 62
     7
 10
-218.80661412358481
 20
-409.10902884987883
 30
0.0
 11
-218.50661412358491
 21
-408.58941360760821
 31
0.0
  0
LINE
  5
C1
  8
1
 62
     7
 10
-218.50661412358491
 20
-408.58941360760821
 30
0.0
 11
-213.80661412358489
 21
-408.58941360760821
 31
0.0
  0
LINE
  5
C2
  8
1
 62
     7
 10
-213.80661412358489
 20
-408.58941360760821
 30
0.0
 11
-213.80661412358489
 21
-417.08941360760821
 31
0.0
  0
LINE
  5
C3
  8
1
 62
     7
 10
-218.50661412358491
 20
-417.08941360760821
 30
0.0
 11
-218.50661412358491
 21
-408.58941360760821
 31
0.0
  0
LINE
  5
C4
  8
1
 62
     7
 10
-44.305467765978889
 20
-420.83941360760821
 30
0.0
 11
-44.305467765978889
 21
-451.34833519217432
 31
0.0
  0
LINE
  5
C5
  8
1
 62
     7
 10
-44.305467765978889
 20
-578.83941360760821
 30
0.0
 11
-44.305467765978889
 21
-546.50566353068632
 31
0.0
  0
LINE
  5
C6
  8
1
 62
     7
 10
-48.905467765978813
 20
-416.99827225985132
 30
0.0
 11
-48.905467765978813
 21
-408.49827225985132
 31
0.0
  0
LINE
  5
C7
  8
1
 62
     7
 10
-48.905467765978813
 20
-408.49827225985132
 30
0.0
 11
-44.205467765978767
 21
-408.49827225985132
 31
0.0
  0
LINE
  5
C8
  8
1
 62
     7
 10
-49.205467765978767
 20
-409.01788750212211
 30
0.0
 11
-48.905467765978813
 21
-408.49827225985132
 31
0.0
  0
LINE
  5
C9
  8
1
 62
     7
 10
-49.205467765978767
 20
-416.47865701758082
 30
0.0
 11
-49.205467765978767
 21
-409.01788750212211
 31
0.0
  0
LINE
  5
CA
  8
1
 62
     7
 10
-48.905467765978813
 20
-416.99827225985132
 30
0.0
 11
-49.205467765978767
 21
-416.47865701758082
 31
0.0
  0
LINE
  5
CB
  8
1
 62
     7
 10
-44.205467765978767
 20
-416.99827225985132
 30
0.0
 11
-48.905467765978813
 21
-416.99827225985132
 31
0.0
  0
LINE
  5
CC
  8
1
 62
     7
 10
-44.305467765978889
 20
-420.83941360760821
 30
0.0
 11
-41.305467765978889
 21
-420.83941360760821
 31
0.0
  0
LINE
  5
CD
  8
1
 62
     7
 10
-43.805467765978889
 20
-539.06480021581876
 30
0.0
 11
-43.805467765978889
 21
-531.33941360760798
 31
0.0
  0
LINE
  5
CE
  8
1
 62
     7
 10
21.694532234021089
 20
-543.72201466102933
 30
0.0
 11
48.694532234021111
 21
-543.72201466102933
 31
0.0
  0
LINE
  5
CF
  8
1
 62
     7
 10
21.694532234021089
 20
-549.96105699807606
 30
0.0
 11
48.694532234021111
 21
-549.96105699807606
 31
0.0
  0
LINE
  5
D0
  8
1
  6
DASHDOT
 62
     3
 10
243.02326785749699
 20
-479.23259937503917
 30
0.0
 11
252.76984896284421
 21
-473.60540815018828
 31
0.0
  0
LINE
  5
D1
  8
1
 62
     7
 10
-47.305467765978889
 20
-531.33941360760798
 30
0.0
 11
-47.305467765978889
 21
-468.33941360760809
 31
0.0
  0
LINE
  5
D2
  8
1
 62
     7
 10
-13.3054677659789
 20
-539.83941360760798
 30
0.0
 11
-18.3054677659789
 21
-539.83941360760798
 31
0.0
  0
LINE
  5
D3
  8
1
 62
     7
 10
-13.3054677659789
 20
-559.33941360760809
 30
0.0
 11
-13.3054677659789
 21
-539.83941360760798
 31
0.0
  0
LINE
  5
D4
  8
1
 62
     7
 10
-1.8054677659789029
 20
-559.33941360760809
 30
0.0
 11
-13.3054677659789
 21
-559.33941360760809
 31
0.0
  0
LINE
  5
D5
  8
1
 62
     7
 10
-1.8054677659789029
 20
-580.83941360760798
 30
0.0
 11
-1.8054677659789029
 21
-559.33941360760809
 31
0.0
  0
LINE
  5
D6
  8
1
 62
     7
 10
1.6945322340210951
 20
-580.83941360760798
 30
0.0
 11
-1.8054677659789029
 21
-580.83941360760798
 31
0.0
  0
LINE
  5
D7
  8
1
 62
     7
 10
-13.3054677659789
 20
-607.83941360760809
 30
0.0
 11
-13.3054677659789
 21
-603.83941360760821
 31
0.0
  0
LINE
  5
D8
  8
1
 62
     7
 10
-11.3054677659789
 20
-609.83941360760798
 30
0.0
 11
9.6945322340210964
 21
-609.83941360760798
 31
0.0
  0
LINE
  5
D9
  8
1
 62
     7
 10
6.2945322340212311
 20
-572.83941360760798
 30
0.0
 11
9.6945322340210964
 21
-572.83941360760798
 31
0.0
  0
LINE
  5
DA
  8
1
 62
     7
 10
6.2945322340212311
 20
-529.83941360760809
 30
0.0
 11
5.6945322340210964
 21
-529.83941360760809
 31
0.0
  0
LINE
  5
DB
  8
1
 62
     7
 10
-13.3054677659789
 20
-607.83941360760809
 30
0.0
 11
-11.3054677659789
 21
-609.83941360760798
 31
0.0
  0
LINE
  5
DC
  8
1
 62
     7
 10
-47.305467765978889
 20
-531.33941360760798
 30
0.0
 11
-46.305467765978889
 21
-532.33941360760809
 31
0.0
  0
LINE
  5
DD
  8
1
 62
     7
 10
-13.3054677659789
 20
-603.83941360760821
 30
0.0
 11
1.6945322340210951
 21
-603.83941360760821
 31
0.0
  0
LINE
  5
DE
  8
1
 62
     7
 10
-43.805467765978889
 20
-539.06480021581876
 30
0.0
 11
-41.305467765978889
 21
-539.06480021581876
 31
0.0
  0
LINE
  5
DF
  8
1
 62
     7
 10
-41.305467765978889
 20
-531.33941360760798
 30
0.0
 11
-43.805467765978889
 21
-531.33941360760798
 31
0.0
  0
LINE
  5
E0
  8
1
 62
     7
 10
-46.305467765978889
 20
-532.33941360760809
 30
0.0
 11
-43.805467765978889
 21
-532.33941360760809
 31
0.0
  0
LINE
  5
E1
  8
1
 62
     7
 10
-14.3054677659789
 20
-553.61402699939731
 30
0.0
 11
-18.3054677659789
 21
-553.61402699939731
 31
0.0
  0
LINE
  5
E2
  8
1
 62
     7
 10
-14.3054677659789
 20
-561.83941360760821
 30
0.0
 11
-18.3054677659789
 21
-561.83941360760821
 31
0.0
  0
LINE
  5
E3
  8
1
 62
     7
 10
-14.3054677659789
 20
-561.83941360760821
 30
0.0
 11
-14.3054677659789
 21
-546.49150321396962
 31
0.0
  0
LINE
  5
E4
  8
1
 62
     7
 10
-4.3054677659789027
 20
-559.83941360760809
 30
0.0
 11
-4.3054677659789027
 21
-603.43941360760823
 31
0.0
  0
LINE
  5
E5
  8
1
 62
     7
 10
-41.305467765978889
 20
-578.83941360760821
 30
0.0
 11
-44.305467765978889
 21
-578.83941360760821
 31
0.0
  0
LINE
  5
E6
  8
1
 62
     7
 10
-44.205467765978767
 20
-419.83941360760821
 30
0.0
 11
-41.305467765978889
 21
-419.83941360760821
 31
0.0
  0
LINE
  5
E7
  8
1
 62
     7
 10
-44.205467765978767
 20
-384.08941360760821
 30
0.0
 11
-41.305467765978889
 21
-384.08941360760821
 31
0.0
  0
LINE
  5
E8
  8
1
 62
     3
 10
-45.49116898019092
 20
-379.83941360760821
 30
0.0
 11
-39.370880877200818
 21
-379.83941360760821
 31
0.0
  0
LINE
  5
E9
  8
1
 62
     7
 10
-44.205467765978767
 20
-375.58941360760821
 30
0.0
 11
-41.305467765978889
 21
-375.58941360760821
 31
0.0
  0
LINE
  5
EA
  8
1
 62
     7
 10
-44.205467765978767
 20
-369.83941360760821
 30
0.0
 11
-41.305467765978889
 21
-369.83941360760821
 31
0.0
  0
LINE
  5
EB
  8
1
 62
     7
 10
-44.205467765978767
 20
-369.83941360760821
 30
0.0
 11
-44.205467765978767
 21
-419.83941360760821
 31
0.0
  0
LINE
  5
EC
  8
1
 62
     7
 10
-4.3054677659789027
 20
-439.83941360760821
 30
0.0
 11
-4.3054677659789027
 21
-396.23941360760818
 31
0.0
  0
LINE
  5
ED
  8
1
 62
     7
 10
-18.3054677659789
 20
-437.83941360760821
 30
0.0
 11
-14.3054677659789
 21
-437.83941360760821
 31
0.0
  0
LINE
  5
EE
  8
1
 62
     7
 10
-18.3054677659789
 20
-446.06480021581899
 30
0.0
 11
-14.3054677659789
 21
-446.06480021581899
 31
0.0
  0
LINE
  5
EF
  8
1
 62
     7
 10
-43.805467765978889
 20
-467.33941360760821
 30
0.0
 11
-46.305467765978889
 21
-467.33941360760821
 31
0.0
  0
LINE
  5
F0
  8
1
 62
     7
 10
-43.805467765978889
 20
-460.61402699939731
 30
0.0
 11
-43.805467765978889
 21
-468.33941360760809
 31
0.0
  0
LINE
  5
F1
  8
1
 62
     7
 10
-43.805467765978889
 20
-468.33941360760809
 30
0.0
 11
-41.305467765978889
 21
-468.33941360760809
 31
0.0
  0
LINE
  5
F2
  8
1
 62
     7
 10
-46.305467765978889
 20
-467.33941360760821
 30
0.0
 11
-47.305467765978889
 21
-468.33941360760809
 31
0.0
  0
LINE
  5
F3
  8
1
 62
     7
 10
-11.3054677659789
 20
-389.83941360760821
 30
0.0
 11
-13.3054677659789
 21
-391.83941360760821
 31
0.0
  0
LINE
  5
F4
  8
1
 62
     7
 10
5.6945322340210964
 20
-469.83941360760821
 30
0.0
 11
6.2945322340212311
 21
-469.83941360760821
 31
0.0
  0
LINE
  5
F5
  8
1
 62
     7
 10
6.2945322340212311
 20
-426.83941360760809
 30
0.0
 11
6.2945322340212311
 21
-471.83941360760809
 31
0.0
  0
LINE
  5
F6
  8
1
 62
     7
 10
9.6945322340210964
 20
-426.83941360760809
 30
0.0
 11
6.2945322340212311
 21
-426.83941360760809
 31
0.0
  0
LINE
  5
F7
  8
1
 62
     7
 10
5.6945322340210964
 20
-469.83941360760821
 30
0.0
 11
5.6945322340210964
 21
-529.83941360760809
 31
0.0
  0
LINE
  5
F8
  8
1
 62
     7
 10
9.6945322340210964
 20
-389.83941360760821
 30
0.0
 11
9.6945322340210964
 21
-471.83941360760809
 31
0.0
  0
LINE
  5
F9
  8
1
 62
     7
 10
9.6945322340210964
 20
-389.83941360760821
 30
0.0
 11
-11.3054677659789
 21
-389.83941360760821
 31
0.0
  0
LINE
  5
FA
  8
1
 62
     7
 10
-13.3054677659789
 20
-459.83941360760809
 30
0.0
 11
-13.3054677659789
 21
-440.33941360760821
 31
0.0
  0
LINE
  5
FB
  8
1
 62
     7
 10
-18.3054677659789
 20
-459.83941360760809
 30
0.0
 11
-13.3054677659789
 21
-459.83941360760809
 31
0.0
  0
LINE
  5
FC
  8
1
 62
     7
 10
219.33121862455411
 20
-372.83941360760821
 30
0.0
 11
219.33121862455411
 21
-390.49926379981889
 31
0.0
  0
LINE
  5
FD
  8
1
 62
     7
 10
216.33121862455411
 20
-369.83941360760821
 30
0.0
 11
198.33121862455411
 21
-369.83941360760821
 31
0.0
  0
LINE
  5
FE
  8
1
 62
     7
 10
195.33121862455411
 20
-372.83941360760821
 30
0.0
 11
195.33121862455411
 21
-390.49402144455308
 31
0.0
  0
LINE
  5
FF
  8
1
 62
     7
 10
5.6945322340210964
 20
-474.83941360760821
 30
0.0
 11
25.6945322340211
 21
-474.83941360760821
 31
0.0
  0
LINE
  5
100
  8
1
 62
     7
 10
25.6945322340211
 20
-459.83941360760809
 30
0.0
 11
48.694532234021111
 21
-459.83941360760809
 31
0.0
  0
LINE
  5
101
  8
1
 62
     7
 10
25.6945322340211
 20
-464.83941360760821
 30
0.0
 11
21.694532234021089
 21
-464.83941360760821
 31
0.0
  0
LINE
  5
102
  8
1
  6
DASHDOT
 62
     3
 10
20.873550581472891
 20
-452.83941360760821
 30
0.0
 11
50.30340882505601
 21
-452.83941360760821
 31
0.0
  0
LINE
  5
103
  8
1
 62
     7
 10
21.694532234021089
 20
-448.83941360760821
 30
0.0
 11
48.694532234021111
 21
-448.83941360760821
 31
0.0
  0
LINE
  5
104
  8
1
 62
     7
 10
21.694532234021089
 20
-456.83941360760821
 30
0.0
 11
48.694532234021111
 21
-456.83941360760821
 31
0.0
  0
LINE
  5
105
  8
1
 62
     7
 10
22.6945322340211
 20
-441.88941360760811
 30
0.0
 11
21.694532234021089
 21
-442.88941360760811
 31
0.0
  0
LINE
  5
106
  8
1
 62
     7
 10
21.694532234021089
 20
-447.87657186042861
 30
0.0
 11
48.694532234021111
 21
-447.87657186042861
 31
0.0
  0
LINE
  5
107
  8
1
 62
     7
 10
39.694532234021104
 20
-413.83941360760809
 30
0.0
 11
25.6945322340211
 21
-413.83941360760809
 31
0.0
  0
LINE
  5
108
  8
1
 62
     7
 10
35.194532234020969
 20
-447.87657186042861
 30
0.0
 11
35.194532234020969
 21
-436.83941360760821
 31
0.0
  0
LINE
  5
109
  8
1
 62
     7
 10
29.094532234020981
 20
-413.83941360760809
 30
0.0
 11
29.094532234020981
 21
-417.83941360760809
 31
0.0
  0
LINE
  5
10A
  8
1
 62
     7
 10
33.694532234020983
 20
-429.83941360760821
 30
0.0
 11
33.694532234020961
 21
-436.83941360760821
 31
0.0
  0
LINE
  5
10B
  8
1
 62
     7
 10
33.694532234020961
 20
-436.83941360760821
 30
0.0
 11
35.194532234020969
 21
-436.83941360760821
 31
0.0
  0
LINE
  5
10C
  8
1
 62
     7
 10
27.6945322340211
 20
-413.83941360760809
 30
0.0
 11
27.6945322340211
 21
-417.83941360760809
 31
0.0
  0
LINE
  5
10D
  8
1
 62
     7
 10
20.99453223402109
 20
-428.33941360760821
 30
0.0
 11
13.494532234021079
 21
-428.33941360760821
 31
0.0
  0
LINE
  5
10E
  8
1
 62
     7
 10
13.494532234021079
 20
-428.33941360760821
 30
0.0
 11
12.99453223402109
 21
-427.47338820382379
 31
0.0
  0
LINE
  5
10F
  8
1
 62
     7
 10
12.99453223402109
 20
-427.47338820382379
 30
0.0
 11
12.99453223402109
 21
-416.20543901139251
 31
0.0
  0
LINE
  5
110
  8
1
 62
     7
 10
12.99453223402109
 20
-416.20543901139251
 30
0.0
 11
13.494532234021079
 21
-415.33941360760821
 31
0.0
  0
LINE
  5
111
  8
1
 62
     7
 10
13.494532234021079
 20
-415.33941360760821
 30
0.0
 11
20.99453223402109
 21
-415.33941360760821
 31
0.0
  0
LINE
  5
112
  8
1
 62
     7
 10
13.494532234021079
 20
-428.33941360760821
 30
0.0
 11
13.494532234021079
 21
-415.33941360760821
 31
0.0
  0
LINE
  5
113
  8
1
 62
     7
 10
20.99453223402109
 20
-425.83941360760809
 30
0.0
 11
40.194532234021104
 21
-425.83941360760809
 31
0.0
  0
LINE
  5
114
  8
1
 62
     7
 10
40.194532234021104
 20
-425.83941360760809
 30
0.0
 11
40.994532234021101
 21
-425.0394136076082
 31
0.0
  0
LINE
  5
115
  8
1
 62
     7
 10
40.994532234021101
 20
-425.0394136076082
 30
0.0
 11
40.994532234021101
 21
-418.63941360760811
 31
0.0
  0
LINE
  5
116
  8
1
 62
     7
 10
40.994532234021101
 20
-418.63941360760811
 30
0.0
 11
40.194532234021104
 21
-417.83941360760809
 31
0.0
  0
LINE
  5
117
  8
1
 62
     7
 10
40.194532234021104
 20
-417.83941360760809
 30
0.0
 11
20.99453223402109
 21
-417.83941360760809
 31
0.0
  0
LINE
  5
118
  8
1
 62
     7
 10
40.194532234021104
 20
-425.83941360760809
 30
0.0
 11
40.194532234021104
 21
-417.83941360760809
 31
0.0
  0
LINE
  5
119
  8
1
 62
     3
 10
40.994532234021101
 20
-425.0394136076082
 30
0.0
 11
22.880172880075989
 21
-425.0394136076082
 31
0.0
  0
LINE
  5
11A
  8
1
 62
     3
 10
22.880172880075989
 20
-425.0394136076082
 30
0.0
 11
21.49453223402109
 21
-425.83941360760809
 31
0.0
  0
LINE
  5
11B
  8
1
 62
     3
 10
40.994532234021101
 20
-418.63941360760811
 30
0.0
 11
22.880172880075989
 21
-418.63941360760811
 31
0.0
  0
LINE
  5
11C
  8
1
 62
     3
 10
22.880172880075989
 20
-418.63941360760811
 30
0.0
 11
21.49453223402109
 21
-417.83941360760809
 31
0.0
  0
LINE
  5
11D
  8
1
 62
     7
 10
22.880172880075989
 20
-425.83941360760809
 30
0.0
 11
22.880172880075989
 21
-417.83941360760809
 31
0.0
  0
LINE
  5
11E
  8
1
 62
     7
 10
27.6945322340211
 20
-425.83941360760809
 30
0.0
 11
27.6945322340211
 21
-429.83941360760821
 31
0.0
  0
LINE
  5
11F
  8
1
 62
     7
 10
29.094532234020981
 20
-425.83941360760809
 30
0.0
 11
29.094532234020981
 21
-429.83941360760821
 31
0.0
  0
LINE
  5
120
  8
1
 62
     7
 10
10.1945322340211
 20
-389.83941360760821
 30
0.0
 11
17.49453223402109
 21
-389.83941360760821
 31
0.0
  0
LINE
  5
121
  8
1
 62
     7
 10
10.1945322340211
 20
-389.83941360760821
 30
0.0
 11
10.1945322340211
 21
-471.83941360760809
 31
0.0
  0
LINE
  5
122
  8
1
 62
     7
 10
10.1945322340211
 20
-426.83941360760809
 30
0.0
 11
12.99453223402109
 21
-426.83941360760809
 31
0.0
  0
LINE
  5
123
  8
1
 62
     7
 10
25.6945322340211
 20
-441.88941360760811
 30
0.0
 11
25.6945322340211
 21
-425.83941360760809
 31
0.0
  0
LINE
  5
124
  8
1
 62
     7
 10
25.6945322340211
 20
-417.83941360760809
 30
0.0
 11
25.6945322340211
 21
-389.83941360760821
 31
0.0
  0
LINE
  5
125
  8
1
 62
     7
 10
22.99453223402109
 20
-412.83941360760821
 30
0.0
 11
25.6945322340211
 21
-412.83941360760821
 31
0.0
  0
LINE
  5
126
  8
1
 62
     7
 10
22.99453223402109
 20
-417.84677578766917
 30
0.0
 11
22.99453223402109
 21
-392.83941360760821
 31
0.0
  0
LINE
  5
127
  8
1
 62
     7
 10
20.99453223402109
 20
-392.60214471028598
 30
0.0
 11
20.99453223402109
 21
-434.07668250493032
 31
0.0
  0
LINE
  5
128
  8
1
 62
     7
 10
25.6945322340211
 20
-431.33941360760821
 30
0.0
 11
26.498525064760901
 21
-431.33941360760821
 31
0.0
  0
LINE
  5
129
  8
1
 62
     7
 10
30.69453223402105
 20
-440.43941360760812
 30
0.0
 11
34.694532234021068
 21
-440.43941360760812
 31
0.0
  0
LINE
  5
12A
  8
1
 62
     7
 10
34.694532234021068
 20
-440.43941360760812
 30
0.0
 11
34.694532234021068
 21
-441.88941360760811
 31
0.0
  0
LINE
  5
12B
  8
1
 62
     7
 10
25.6945322340211
 20
-432.73941360760813
 30
0.0
 11
26.82097565818998
 21
-432.73941360760813
 31
0.0
  0
LINE
  5
12C
  8
1
 62
     7
 10
30.094532234020981
 20
-439.83941360760821
 30
0.0
 11
29.26624654831252
 21
-439.83941360760821
 31
0.0
  0
LINE
  5
12D
  8
1
 62
     7
 10
30.094532234020981
 20
-434.83941360760809
 30
0.0
 11
28.6945322340211
 21
-434.83941360760809
 31
0.0
  0
LINE
  5
12E
  8
1
 62
     7
 10
30.094532234020981
 20
-439.83941360760821
 30
0.0
 11
30.094532234020981
 21
-434.83941360760809
 31
0.0
  0
LINE
  5
12F
  8
1
 62
     7
 10
30.094532234020981
 20
-434.83941360760809
 30
0.0
 11
30.094532234020981
 21
-429.83941360760821
 31
0.0
  0
LINE
  5
130
  8
1
 62
     7
 10
17.49453223402109
 20
-428.33941360760821
 30
0.0
 11
17.49453223402109
 21
-471.83941360760809
 31
0.0
  0
LINE
  5
131
  8
1
 62
     7
 10
28.694532234020912
 20
-586.83941360760821
 30
0.0
 11
28.6945322340211
 21
-561.23941360760818
 31
0.0
  0
LINE
  5
132
  8
1
 62
     7
 10
27.294532234021009
 20
-561.18941360760823
 30
0.0
 11
27.294532234021009
 21
-566.33752499357502
 31
0.0
  0
LINE
  5
133
  8
1
 62
     7
 10
26.82097565818998
 20
-566.93941360760823
 30
0.0
 11
25.6945322340211
 21
-566.93941360760823
 31
0.0
  0
LINE
  5
134
  8
1
 62
     7
 10
34.694532234021104
 20
-557.78941360760825
 30
0.0
 11
34.694532234021104
 21
-559.23941360760807
 31
0.0
  0
LINE
  5
135
  8
1
 62
     7
 10
34.694532234021104
 20
-559.23941360760807
 30
0.0
 11
30.6945322340211
 21
-559.23941360760807
 31
0.0
  0
LINE
  5
136
  8
1
 62
     7
 10
26.498525064760901
 20
-568.33941360760809
 30
0.0
 11
25.6945322340211
 21
-568.33941360760809
 31
0.0
  0
LINE
  5
137
  8
1
 62
     7
 10
25.6945322340211
 20
-607.83941360760821
 30
0.0
 11
23.99453223402109
 21
-607.83941360760821
 31
0.0
  0
LINE
  5
138
  8
1
 62
     7
 10
25.6945322340211
 20
-609.83941360760809
 30
0.0
 11
25.6945322340211
 21
-557.78941360760825
 31
0.0
  0
LINE
  5
139
  8
1
 62
     7
 10
17.49453223402109
 20
-596.7394136076083
 30
0.0
 11
17.49453223402109
 21
-583.93941360760823
 31
0.0
  0
LINE
  5
13A
  8
1
 62
     7
 10
35.194532234020969
 20
-562.83941360760821
 30
0.0
 11
33.694532234020983
 21
-562.83941360760821
 31
0.0
  0
LINE
  5
13B
  8
1
 62
     7
 10
35.194532234020969
 20
-562.83941360760821
 30
0.0
 11
35.194532234020969
 21
-551.80225535478769
 31
0.0
  0
LINE
  5
13C
  8
1
 62
     7
 10
48.694532234021111
 20
-551.80225535478769
 30
0.0
 11
21.694532234021089
 21
-551.80225535478769
 31
0.0
  0
LINE
  5
13D
  8
1
 62
     7
 10
21.694532234021089
 20
-556.78941360760825
 30
0.0
 11
22.6945322340211
 21
-557.78941360760825
 31
0.0
  0
LINE
  5
13E
  8
1
 62
     3
 10
48.694532234021111
 20
-542.83941360760809
 30
0.0
 11
21.694532234021089
 21
-542.83941360760809
 31
0.0
  0
LINE
  5
13F
  8
1
 62
     3
 10
48.694532234021111
 20
-550.83941360760809
 30
0.0
 11
21.694532234021089
 21
-550.83941360760809
 31
0.0
  0
LINE
  5
140
  8
1
  6
DASHDOT
 62
     3
 10
50.30340882505601
 20
-546.83941360760809
 30
0.0
 11
20.873550581472891
 21
-546.83941360760809
 31
0.0
  0
LINE
  5
141
  8
1
 62
     7
 10
21.694532234021089
 20
-534.83941360760809
 30
0.0
 11
25.6945322340211
 21
-534.83941360760809
 31
0.0
  0
LINE
  5
142
  8
1
 62
     7
 10
48.694532234021111
 20
-539.83941360760821
 30
0.0
 11
25.6945322340211
 21
-539.83941360760821
 31
0.0
  0
LINE
  5
143
  8
1
 62
     7
 10
25.6945322340211
 20
-539.83941360760821
 30
0.0
 11
25.6945322340211
 21
-459.83941360760809
 31
0.0
  0
LINE
  5
144
  8
1
 62
     7
 10
42.994532234020987
 20
-572.33941360760809
 30
0.0
 11
33.694532234020983
 21
-572.33941360760809
 31
0.0
  0
LINE
  5
145
  8
1
 62
     7
 10
10.1945322340211
 20
-578.08941360760809
 30
0.0
 11
14.194532234021089
 21
-578.08941360760809
 31
0.0
  0
LINE
  5
146
  8
1
 62
     7
 10
10.1945322340211
 20
-585.58941360760821
 30
0.0
 11
14.194532234021089
 21
-585.58941360760821
 31
0.0
  0
LINE
  5
147
  8
1
 62
     7
 10
10.1945322340211
 20
-595.08941360760809
 30
0.0
 11
14.194532234021089
 21
-595.08941360760809
 31
0.0
  0
LINE
  5
148
  8
1
 62
     7
 10
10.1945322340211
 20
-602.58941360760821
 30
0.0
 11
14.194532234021089
 21
-602.58941360760821
 31
0.0
  0
LINE
  5
149
  8
1
 62
     7
 10
14.194532234021089
 20
-578.08941360760809
 30
0.0
 11
14.194532234021089
 21
-585.58941360760821
 31
0.0
  0
LINE
  5
14A
  8
1
 62
     7
 10
14.194532234021089
 20
-595.08941360760809
 30
0.0
 11
14.194532234021089
 21
-602.58941360760821
 31
0.0
  0
LINE
  5
14B
  8
1
 62
     7
 10
14.194532234021089
 20
-596.7394136076083
 30
0.0
 11
19.49453223402109
 21
-596.7394136076083
 31
0.0
  0
LINE
  5
14C
  8
1
 62
     7
 10
14.194532234021089
 20
-600.93941360760823
 30
0.0
 11
19.49453223402109
 21
-600.93941360760823
 31
0.0
  0
LINE
  5
14D
  8
1
 62
     7
 10
14.194532234021089
 20
-579.7394136076083
 30
0.0
 11
19.49453223402109
 21
-579.7394136076083
 31
0.0
  0
LINE
  5
14E
  8
1
 62
     7
 10
14.194532234021089
 20
-583.93941360760823
 30
0.0
 11
19.49453223402109
 21
-583.93941360760823
 31
0.0
  0
LINE
  5
14F
  8
1
 62
     7
 10
17.49453223402109
 20
-579.7394136076083
 30
0.0
 11
17.49453223402109
 21
-527.83941360760821
 31
0.0
  0
LINE
  5
150
  8
1
 62
     7
 10
22.99453223402109
 20
-566.33941360760821
 30
0.0
 11
25.6945322340211
 21
-566.33941360760821
 31
0.0
  0
LINE
  5
151
  8
1
 62
     7
 10
-14.3054677659789
 20
-452.82572823631858
 30
0.0
 11
-14.3054677659789
 21
-437.83941360760821
 31
0.0
  0
LINE
  5
152
  8
1
 62
     7
 10
-1.8054677659789029
 20
-418.83941360760821
 30
0.0
 11
-1.8054677659789029
 21
-440.33941360760821
 31
0.0
  0
LINE
  5
153
  8
1
 62
     7
 10
33.694532234020983
 20
-572.33941360760809
 30
0.0
 11
33.694532234020983
 21
-562.83941360760821
 31
0.0
  0
LINE
  5
154
  8
1
 62
     7
 10
-4.3054677659789027
 20
-603.43941360760823
 30
0.0
 11
-39.305467765978889
 21
-603.43941360760823
 31
0.0
  0
LINE
  5
155
  8
1
 62
     7
 10
-39.305467765978889
 20
-603.43941360760823
 30
0.0
 11
-41.305467765978889
 21
-601.43941360760823
 31
0.0
  0
LINE
  5
156
  8
1
 62
     7
 10
-41.305467765978889
 20
-559.83941360760809
 30
0.0
 11
-18.3054677659789
 21
-559.83941360760809
 31
0.0
  0
LINE
  5
157
  8
1
 62
     7
 10
-14.3054677659789
 20
-559.83941360760809
 30
0.0
 11
-4.3054677659789027
 21
-559.83941360760809
 31
0.0
  0
LINE
  5
158
  8
1
 62
     7
 10
-25.6804677659789
 20
-538.94470402638638
 30
0.0
 11
-18.3054677659789
 21
-538.94470402638638
 31
0.0
  0
LINE
  5
159
  8
1
 62
     7
 10
-33.930467765978896
 20
-538.94470402638638
 30
0.0
 11
-41.305467765978889
 21
-538.94470402638638
 31
0.0
  0
LINE
  5
15A
  8
1
 62
     7
 10
-33.930467765978896
 20
-553.23412318882959
 30
0.0
 11
-41.305467765978889
 21
-553.23412318882959
 31
0.0
  0
LINE
  5
15B
  8
1
 62
     7
 10
-25.6804677659789
 20
-553.23412318882959
 30
0.0
 11
-18.3054677659789
 21
-553.23412318882959
 31
0.0
  0
LINE
  5
15C
  8
1
 62
     7
 10
-20.605467765978851
 20
-554.33941360760821
 30
0.0
 11
-20.605467765978851
 21
-537.83941360760809
 31
0.0
  0
LINE
  5
15D
  8
1
 62
     7
 10
-39.005467765978949
 20
-554.33941360760821
 30
0.0
 11
-39.005467765978949
 21
-537.83941360760809
 31
0.0
  0
LINE
  5
15E
  8
1
 62
     7
 10
-41.305467765978889
 20
-460.61402699939731
 30
0.0
 11
-43.805467765978889
 21
-460.61402699939731
 31
0.0
  0
LINE
  5
15F
  8
1
 62
     7
 10
-1.8054677659789029
 20
-440.33941360760821
 30
0.0
 11
-13.3054677659789
 21
-440.33941360760821
 31
0.0
  0
LINE
  5
160
  8
1
 62
     7
 10
-14.3054677659789
 20
-439.83941360760821
 30
0.0
 11
-4.3054677659789027
 21
-439.83941360760821
 31
0.0
  0
LINE
  5
161
  8
1
 62
     7
 10
-25.6804677659789
 20
-446.4447040263866
 30
0.0
 11
-18.3054677659789
 21
-446.4447040263866
 31
0.0
  0
LINE
  5
162
  8
1
 62
     7
 10
-33.930467765978896
 20
-446.4447040263866
 30
0.0
 11
-41.305467765978889
 21
-446.4447040263866
 31
0.0
  0
LINE
  5
163
  8
1
 62
     7
 10
-33.930467765978896
 20
-460.7341231888297
 30
0.0
 11
-41.305467765978889
 21
-460.7341231888297
 31
0.0
  0
LINE
  5
164
  8
1
 62
     7
 10
-25.6804677659789
 20
-460.7341231888297
 30
0.0
 11
-18.3054677659789
 21
-460.7341231888297
 31
0.0
  0
LINE
  5
165
  8
1
 62
     7
 10
-20.605467765978851
 20
-461.83941360760821
 30
0.0
 11
-20.605467765978851
 21
-445.33941360760821
 31
0.0
  0
LINE
  5
166
  8
1
 62
     7
 10
-39.005467765978949
 20
-461.83941360760821
 30
0.0
 11
-39.005467765978949
 21
-445.33941360760821
 31
0.0
  0
LINE
  5
167
  8
1
 62
     7
 10
-41.305467765978889
 20
-398.23941360760813
 30
0.0
 11
-41.305467765978889
 21
-369.83941360760821
 31
0.0
  0
LINE
  5
168
  8
1
 62
     7
 10
-4.3054677659789027
 20
-396.23941360760818
 30
0.0
 11
-39.305467765978889
 21
-396.23941360760818
 31
0.0
  0
LINE
  5
169
  8
1
 62
     7
 10
-13.3054677659789
 20
-395.83941360760821
 30
0.0
 11
1.6945322340210951
 21
-395.83941360760821
 31
0.0
  0
LINE
  5
16A
  8
1
 62
     7
 10
-13.3054677659789
 20
-395.83941360760821
 30
0.0
 11
-13.3054677659789
 21
-391.83941360760821
 31
0.0
  0
LINE
  5
16B
  8
1
 62
     7
 10
-39.305467765978889
 20
-396.23941360760818
 30
0.0
 11
-41.305467765978889
 21
-398.23941360760813
 31
0.0
  0
LINE
  5
16C
  8
1
 62
     7
 10
-47.305467765978889
 20
-476.33941360760809
 30
0.0
 11
5.6945322340210964
 21
-476.33941360760809
 31
0.0
  0
LINE
  5
16D
  8
1
 62
     3
 10
48.694532234021111
 20
-499.83941360760821
 30
0.0
 11
51.694532234021104
 21
-499.83941360760821
 31
0.0
  0
LINE
  5
16E
  8
1
 62
     3
 10
-50.305467765978896
 20
-499.83941360760821
 30
0.0
 11
-47.305467765978889
 21
-499.83941360760821
 31
0.0
  0
LINE
  5
16F
  8
1
 62
     7
 10
-41.305467765978889
 20
-531.33941360760798
 30
0.0
 11
-41.305467765978889
 21
-559.83941360760809
 31
0.0
  0
LINE
  5
170
  8
1
 62
     7
 10
-18.3054677659789
 20
-532.33941360760809
 30
0.0
 11
-18.3054677659789
 21
-561.83941360760821
 31
0.0
  0
LINE
  5
171
  8
1
 62
     7
 10
-41.305467765978889
 20
-532.33941360760809
 30
0.0
 11
-18.3054677659789
 21
-532.33941360760809
 31
0.0
  0
LINE
  5
172
  8
1
 62
     7
 10
-41.305467765978889
 20
-439.83941360760821
 30
0.0
 11
-18.3054677659789
 21
-439.83941360760821
 31
0.0
  0
LINE
  5
173
  8
1
 62
     7
 10
-41.305467765978889
 20
-467.33941360760821
 30
0.0
 11
-18.3054677659789
 21
-467.33941360760821
 31
0.0
  0
LINE
  5
174
  8
1
 62
     7
 10
-18.3054677659789
 20
-437.83941360760821
 30
0.0
 11
-18.3054677659789
 21
-467.33941360760821
 31
0.0
  0
LINE
  5
175
  8
1
 62
     7
 10
-41.305467765978889
 20
-439.83941360760821
 30
0.0
 11
-41.305467765978889
 21
-468.33941360760809
 31
0.0
  0
LINE
  5
176
  8
1
 62
     7
 10
30.094532234020999
 20
-586.83941360760821
 30
0.0
 11
30.094532234020999
 21
-559.83941360760809
 31
0.0
  0
LINE
  5
177
  8
1
 62
     7
 10
25.6945322340211
 20
-429.83941360760821
 30
0.0
 11
33.694532234020983
 21
-429.83941360760821
 31
0.0
  0
LINE
  5
178
  8
1
 62
     7
 10
25.6945322340211
 20
-479.83941360760821
 30
0.0
 11
-47.305467765978889
 21
-479.83941360760821
 31
0.0
  0
LINE
  5
179
  8
1
 62
     7
 10
25.6945322340211
 20
-519.83941360760821
 30
0.0
 11
-47.305467765978889
 21
-519.83941360760809
 31
0.0
  0
LINE
  5
17A
  8
1
 62
     7
 10
25.6945322340211
 20
-524.83941360760821
 30
0.0
 11
5.6945322340210964
 21
-524.83941360760821
 31
0.0
  0
LINE
  5
17B
  8
1
  6
DASHDOT
 62
     3
 10
216.42847057094801
 20
-499.83941360760821
 30
0.0
 11
198.2339666781601
 21
-499.83941360760821
 31
0.0
  0
LINE
  5
17C
  8
1
  6
DASHDOT
 62
     3
 10
207.33121862455411
 20
-490.7421616612142
 30
0.0
 11
207.33121862455411
 21
-508.9366655540021
 31
0.0
  0
LINE
  5
17D
  8
1
  6
DASHDOT
 62
     3
 10
207.33121862455411
 20
-446.47579416733299
 30
0.0
 11
207.33121862455411
 21
-458.796186846014
 31
0.0
  0
LINE
  5
17E
  8
1
  6
DASHDOT
 62
     3
 10
161.1169685513905
 20
-526.52122332774559
 30
0.0
 11
171.7867415957281
 21
-520.36102698840511
 31
0.0
  0
LINE
  5
17F
  8
1
  6
DASHDOT
 62
     3
 10
253.54546869771741
 20
-526.52122332774582
 30
0.0
 11
242.87569565337981
 21
-520.36102698840534
 31
0.0
  0
LINE
  5
180
  8
1
  6
DASHDOT
 62
     3
 10
171.63916939161109
 20
-479.23259937503911
 30
0.0
 11
161.89258828626379
 21
-473.60540815018851
 31
0.0
  0
LINE
  5
181
  8
1
  6
DASHDOT
 62
     3
 10
207.33121862455391
 20
-541.05304207274605
 30
0.0
 11
207.33121862455391
 21
-552.30742452244772
 31
0.0
  0
LINE
  5
182
  8
1
  6
DASHDOT
 62
     3
 10
214.23182561432299
 20
-379.83941360760821
 30
0.0
 11
200.43061163478509
 21
-379.83941360760821
 31
0.0
  0
LINE
  5
183
  8
1
  6
DASHDOT
 62
     3
 10
207.33121862455411
 20
-372.9388066178393
 30
0.0
 11
207.33121862455411
 21
-386.74002059737711
 31
0.0
  0
LINE
  5
184
  8
1
 62
     7
 10
169.479297390715
 20
-367.46063800068458
 30
0.0
 11
173.9225561916445
 21
-366.2700703932129
 31
0.0
  0
LINE
  5
185
  8
1
 62
     7
 10
-366.35839607727172
 20
-361.58279173657411
 30
0.0
 11
-367.65249130278448
 21
-366.41242086801941
 31
0.0
  0
LINE
  5
186
  8
1
 62
     7
 10
-366.06861832938517
 20
-361.66043745010478
 30
0.0
 11
-367.36271355489782
 21
-366.4900665815502
 31
0.0
  0
LINE
  5
187
  8
1
 62
     7
 10
-365.19928508572519
 20
-361.89337459069708
 30
0.0
 11
-366.49338031123767
 21
-366.72300372214249
 31
0.0
  0
LINE
  5
188
  8
1
 62
     7
 10
-365.48906283361191
 20
-361.81572887716629
 30
0.0
 11
-366.78315805912439
 21
-366.64535800861159
 31
0.0
  0
LINE
  5
189
  8
1
 62
     7
 10
-362.9776556852604
 20
-362.48865839443278
 30
0.0
 11
-364.27175091077288
 21
-367.31828752587819
 31
0.0
  0
LINE
  5
18A
  8
1
 62
     7
 10
-364.1367666768071
 20
-362.17807554030992
 30
0.0
 11
-365.43086190231958
 21
-367.00770467175522
 31
0.0
  0
LINE
  5
18B
  8
1
 62
     7
 10
-363.84698892892021
 20
-362.25572125384059
 30
0.0
 11
-365.14108415443292
 21
-367.08535038528601
 31
0.0
  0
LINE
  5
18C
  8
1
 62
     7
 10
-363.26743343314689
 20
-362.4110126809021
 30
0.0
 11
-364.5615286586596
 21
-367.24064181234741
 31
0.0
  0
LINE
  5
18D
  8
1
 62
     7
 10
-365.77884058149851
 20
-361.73808316363562
 30
0.0
 11
-367.07293580701111
 21
-366.56771229508098
 31
0.0
  0
LINE
  5
18E
  8
1
 62
     7
 10
-363.55721118103372
 20
-362.33336696737132
 30
0.0
 11
-364.85130640654631
 21
-367.16299609881662
 31
0.0
  0
LINE
  5
18F
  8
1
 62
     7
 10
-363.74049170631378
 20
-367.46063800068458
 30
0.0
 11
-372.56373916154212
 21
-400.38944579134898
 31
0.0
  0
LINE
  5
190
  8
1
 62
     7
 10
-365.96212110677868
 20
-366.86535419694872
 30
0.0
 11
-374.77875986753168
 21
-399.76949800406061
 31
0.0
  0
LINE
  5
191
  8
1
 62
     7
 10
-368.18375050724342
 20
-366.27007039321308
 30
0.0
 11
-377.0069979624717
 21
-399.19887818387741
 31
0.0
  0
LINE
  5
192
  8
1
 62
     7
 10
-368.18375050724342
 20
-366.27007039321308
 30
0.0
 11
-363.74049170631378
 21
-367.46063800068458
 31
0.0
  0
LINE
  5
193
  8
1
 62
     7
 10
-41.305467765978889
 20
-578.83941360760821
 30
0.0
 11
-41.305467765978889
 21
-601.43941360760823
 31
0.0
  0
LINE
  5
194
  8
1
 62
     7
 10
-41.305467765978889
 20
-420.83941360760821
 30
0.0
 11
-41.305467765978889
 21
-398.23941360760813
 31
0.0
  0
LINE
  5
195
  8
1
 62
     7
 10
-27.455467765978899
 20
-368.23941360760813
 30
0.0
 11
-25.155467765978901
 21
-368.23941360760813
 31
0.0
  0
LINE
  5
196
  8
1
 62
     7
 10
-25.155467765978901
 20
-368.23941360760813
 30
0.0
 11
-25.155467765978901
 21
-396.23941360760818
 31
0.0
  0
LINE
  5
197
  8
1
 62
     7
 10
-27.455467765978899
 20
-368.23941360760813
 30
0.0
 11
-27.455467765978899
 21
-396.23941360760818
 31
0.0
  0
LINE
  5
198
  8
1
 62
     7
 10
-25.505467765978882
 20
-363.23941360760818
 30
0.0
 11
-25.505467765978882
 21
-368.23941360760813
 31
0.0
  0
LINE
  5
199
  8
1
 62
     7
 10
-25.905467765978891
 20
-363.23941360760818
 30
0.0
 11
-25.905467765978891
 21
-368.23941360760813
 31
0.0
  0
LINE
  5
19A
  8
1
 62
     7
 10
-26.3054677659789
 20
-363.23941360760818
 30
0.0
 11
-26.3054677659789
 21
-368.23941360760813
 31
0.0
  0
LINE
  5
19B
  8
1
 62
     7
 10
-26.705467765978909
 20
-363.23941360760818
 30
0.0
 11
-26.705467765978909
 21
-368.23941360760813
 31
0.0
  0
LINE
  5
19C
  8
1
 62
     7
 10
-27.105467765978918
 20
-363.23941360760818
 30
0.0
 11
-27.105467765978918
 21
-368.23941360760813
 31
0.0
  0
LINE
  5
19D
  8
1
 62
     7
 10
22.99453223402109
 20
-433.33941360760821
 30
0.0
 11
25.6945322340211
 21
-433.33941360760821
 31
0.0
  0
LINE
  5
19E
  8
1
 62
     7
 10
22.99453223402109
 20
-577.83941360760821
 30
0.0
 11
25.6945322340211
 21
-577.83941360760821
 31
0.0
  0
LINE
  5
19F
  8
1
 62
     7
 10
22.99453223402109
 20
-586.83941360760821
 30
0.0
 11
25.6945322340211
 21
-586.83941360760821
 31
0.0
  0
LINE
  5
1A0
  8
1
 62
     7
 10
28.694532234020912
 20
-586.83941360760821
 30
0.0
 11
30.094532234020999
 21
-586.83941360760821
 31
0.0
  0
LINE
  5
1A1
  8
1
 62
     7
 10
17.49453223402109
 20
-572.83941360760821
 30
0.0
 11
10.1945322340211
 21
-572.83941360760821
 31
0.0
  0
LINE
  5
1A2
  8
1
 62
     7
 10
17.49453223402109
 20
-609.83941360760809
 30
0.0
 11
10.1945322340211
 21
-609.83941360760809
 31
0.0
  0
LINE
  5
1A3
  8
1
 62
     7
 10
42.073211890461472
 20
-427.91809326404859
 30
0.0
 11
44.494532234020987
 21
-430.33941360760809
 31
0.0
  0
LINE
  5
1A4
  8
1
 62
     7
 10
41.194532234021104
 20
-415.33941360760821
 30
0.0
 11
41.194532234021104
 21
-425.79677292048899
 31
0.0
  0
LINE
  5
1A5
  8
1
 62
     7
 10
44.494532234020987
 20
-430.33941360760809
 30
0.0
 11
44.494532234020987
 21
-447.87657186042861
 31
0.0
  0
LINE
  5
1A6
  8
1
 62
     7
 10
44.494532234020987
 20
-551.80225535478769
 30
0.0
 11
44.494532234020987
 21
-570.83941360760821
 31
0.0
  0
LINE
  5
1A7
  8
1
 62
     7
 10
1.6945322340210951
 20
-395.83941360760821
 30
0.0
 11
1.6945322340210951
 21
-418.83941360760821
 31
0.0
  0
LINE
  5
1A8
  8
1
 62
     7
 10
-1.8054677659789029
 20
-418.83941360760821
 30
0.0
 11
1.6945322340210951
 21
-418.83941360760821
 31
0.0
  0
LINE
  5
1A9
  8
1
 62
     7
 10
1.6945322340210951
 20
-603.83941360760821
 30
0.0
 11
1.6945322340210951
 21
-580.83941360760798
 31
0.0
  0
LINE
  5
1AA
  8
1
 62
     7
 10
21.694532234021089
 20
-442.88941360760811
 30
0.0
 11
21.694532234021089
 21
-471.83941360760809
 31
0.0
  0
LINE
  5
1AB
  8
1
 62
     7
 10
48.694532234021111
 20
-557.78941360760825
 30
0.0
 11
48.694532234021111
 21
-441.88941360760811
 31
0.0
  0
LINE
  5
1AC
  8
1
 62
     7
 10
21.694532234021089
 20
-556.78941360760825
 30
0.0
 11
21.694532234021089
 21
-527.83941360760821
 31
0.0
  0
LINE
  5
1AD
  8
1
 62
     7
 10
10.1945322340211
 20
-527.83941360760821
 30
0.0
 11
10.1945322340211
 21
-609.83941360760809
 31
0.0
  0
LINE
  5
1AE
  8
1
 62
     7
 10
9.6945322340210964
 20
-527.83941360760821
 30
0.0
 11
9.6945322340210964
 21
-609.83941360760798
 31
0.0
  0
LINE
  5
1AF
  8
1
 62
     7
 10
6.2945322340212311
 20
-527.83941360760821
 30
0.0
 11
6.2945322340212311
 21
-572.83941360760798
 31
0.0
  0
LINE
  5
1B0
  8
1
 62
     7
 10
-152.10661412358499
 20
-609.83941360760809
 30
0.0
 11
-159.40661412358509
 21
-609.83941360760798
 31
0.0
  0
LINE
  5
1B1
  8
1
 62
     7
 10
-125.1066141235849
 20
-430.33941360760809
 30
0.0
 11
-127.5279344671447
 21
-427.91809326404842
 31
0.0
  0
LINE
  5
1B2
  8
1
 62
     7
 10
-125.1066141235849
 20
-430.33941360760809
 30
0.0
 11
-125.1066141235849
 21
-569.33941360760821
 31
0.0
  0
LINE
  5
1B3
  8
1
 62
     7
 10
-125.1066141235849
 20
-569.33941360760821
 30
0.0
 11
-127.5279344671446
 21
-571.76073395116794
 31
0.0
  0
LINE
  5
1B4
  8
1
 62
     7
 10
-128.406614123585
 20
-415.33941360760821
 30
0.0
 11
-128.406614123585
 21
-584.33941360760809
 31
0.0
  0
LINE
  5
1B5
  8
1
 62
     7
 10
-125.1066141235849
 20
-441.88941360760811
 30
0.0
 11
-120.906614123585
 21
-441.88941360760811
 31
0.0
  0
LINE
  5
1B6
  8
1
 62
     7
 10
-120.906614123585
 20
-441.88941360760811
 30
0.0
 11
-120.906614123585
 21
-557.78941360760825
 31
0.0
  0
LINE
  5
1B7
  8
1
 62
     7
 10
-125.1066141235849
 20
-557.78941360760825
 30
0.0
 11
-120.906614123585
 21
-557.78941360760825
 31
0.0
  0
LINE
  5
1B8
  8
1
 62
     7
 10
-44.305467765978889
 20
-447.33941360760809
 30
0.0
 11
-41.305467765978889
 21
-447.33941360760809
 31
0.0
  0
LINE
  5
1B9
  8
1
 62
     7
 10
-44.305467765978889
 20
-552.33941360760821
 30
0.0
 11
-41.305467765978889
 21
-552.33941360760821
 31
0.0
  0
LINE
  5
1BA
  8
1
 62
     7
 10
-197.05661412358509
 20
-368.23941360760813
 30
0.0
 11
-194.756614123585
 21
-368.23941360760813
 31
0.0
  0
LINE
  5
1BB
  8
1
 62
     7
 10
-194.756614123585
 20
-368.23941360760813
 30
0.0
 11
-194.756614123585
 21
-396.23941360760818
 31
0.0
  0
LINE
  5
1BC
  8
1
 62
     7
 10
-197.05661412358509
 20
-368.23941360760813
 30
0.0
 11
-197.05661412358509
 21
-396.23941360760818
 31
0.0
  0
LINE
  5
1BD
  8
1
 62
     7
 10
-195.10661412358499
 20
-363.23941360760818
 30
0.0
 11
-195.10661412358499
 21
-368.23941360760813
 31
0.0
  0
LINE
  5
1BE
  8
1
 62
     7
 10
-195.506614123585
 20
-363.23941360760818
 30
0.0
 11
-195.506614123585
 21
-368.23941360760813
 31
0.0
  0
LINE
  5
1BF
  8
1
 62
     7
 10
-195.90661412358509
 20
-363.23941360760818
 30
0.0
 11
-195.90661412358509
 21
-368.23941360760813
 31
0.0
  0
LINE
  5
1C0
  8
1
 62
     7
 10
-196.30661412358501
 20
-363.23941360760818
 30
0.0
 11
-196.30661412358501
 21
-368.23941360760813
 31
0.0
  0
LINE
  5
1C1
  8
1
 62
     7
 10
-196.70661412358501
 20
-363.23941360760818
 30
0.0
 11
-196.70661412358501
 21
-368.23941360760813
 31
0.0
  0
LINE
  5
1C2
  8
1
 62
     7
 10
23.99453223402109
 20
-391.83941360760821
 30
0.0
 11
25.6945322340211
 21
-391.83941360760821
 31
0.0
  0
LINE
  5
1C3
  8
1
 62
     7
 10
23.99453223402109
 20
-389.83941360760821
 30
0.0
 11
25.6945322340211
 21
-389.83941360760821
 31
0.0
  0
LINE
  5
1C4
  8
1
 62
     7
 10
17.49453223402109
 20
-389.83941360760821
 30
0.0
 11
17.49453223402109
 21
-415.33941360760821
 31
0.0
  0
LINE
  5
1C5
  8
1
 62
     7
 10
23.99453223402109
 20
-434.83941360760809
 30
0.0
 11
25.6945322340211
 21
-434.83941360760809
 31
0.0
  0
LINE
  5
1C6
  8
1
 62
     7
 10
23.99453223402109
 20
-436.83941360760821
 30
0.0
 11
25.6945322340211
 21
-436.83941360760821
 31
0.0
  0
LINE
  5
1C7
  8
1
 62
     7
 10
22.99453223402109
 20
-433.83941360760821
 30
0.0
 11
22.99453223402109
 21
-425.83941360760809
 31
0.0
  0
LINE
  5
1C8
  8
1
 62
     7
 10
23.99453223402109
 20
-609.83941360760809
 30
0.0
 11
25.6945322340211
 21
-609.83941360760809
 31
0.0
  0
LINE
  5
1C9
  8
1
 62
     7
 10
-148.6066141235851
 20
-392.6021447102861
 30
0.0
 11
-148.6066141235851
 21
-607.07668250493032
 31
0.0
  0
LINE
  5
1CA
  8
1
 62
     7
 10
-145.6066141235851
 20
-389.83941360760821
 30
0.0
 11
-143.906614123585
 21
-389.83941360760821
 31
0.0
  0
LINE
  5
1CB
  8
1
 62
     7
 10
-152.10661412358499
 20
-609.83941360760809
 30
0.0
 11
-152.10661412358499
 21
-389.83941360760821
 31
0.0
  0
LINE
  5
1CC
  8
1
 62
     7
 10
17.49453223402109
 20
-600.93941360760823
 30
0.0
 11
17.49453223402109
 21
-609.83941360760809
 31
0.0
  0
LINE
  5
1CD
  8
1
 62
     7
 10
22.99453223402109
 20
-606.83941360760821
 30
0.0
 11
22.99453223402109
 21
-565.83941360760821
 31
0.0
  0
LINE
  5
1CE
  8
1
 62
     7
 10
23.99453223402109
 20
-564.83941360760821
 30
0.0
 11
25.6945322340211
 21
-564.83941360760821
 31
0.0
  0
LINE
  5
1CF
  8
1
 62
     7
 10
25.6945322340211
 20
-562.83941360760821
 30
0.0
 11
23.99453223402109
 21
-562.83941360760821
 31
0.0
  0
LINE
  5
1D0
  8
1
 62
     7
 10
19.49453223402109
 20
-569.33941360760821
 30
0.0
 11
19.49453223402109
 21
-603.33941360760821
 31
0.0
  0
ARC
  5
1D1
  8
1
 62
     7
 10
-401.59241294015311
 20
-499.83941360760821
 30
0.0
 40
19.999999999999918
 50
104.47751218593
 51
75.522487814070004
  0
ARC
  5
1D2
  8
1
 62
     7
 10
-401.59241294015311
 20
-499.83941360760821
 30
0.0
 40
103.59999999999999
 50
96.651507162998556
 51
180.0
  0
ARC
  5
1D3
  8
1
 62
     7
 10
-401.59241294015311
 20
-499.83941360760821
 30
0.0
 40
103.59999999999999
 50
180.0
 51
83.348492837001444
  0
ARC
  5
1D4
  8
1
 62
     7
 10
-401.59241294015311
 20
-499.83941360760821
 30
0.0
 40
110.0
 50
96.262913126139381
 51
180.0
  0
ARC
  5
1D5
  8
1
 62
     7
 10
-401.59241294015311
 20
-499.83941360760821
 30
0.0
 40
110.0
 50
76.198089972204698
 51
83.737086873860605
  0
ARC
  5
1D6
  8
1
 62
     7
 10
-401.59241294015311
 20
-498.0794136076081
 30
0.0
 40
35.640000000000001
 50
288.82454223195782
 51
251.17545776804209
  0
ARC
  5
1D7
  8
1
 62
     7
 10
207.33121862455411
 20
-499.83941360760821
 30
0.0
 40
86.999999999999986
 50
347.63521769469941
 51
12.3647823053011
  0
ARC
  5
1D8
  8
1
 62
     7
 10
207.33121862455411
 20
-499.83941360760821
 30
0.0
 40
86.999999999999829
 50
317.63521769469912
 51
342.36478230530111
  0
ARC
  5
1D9
  8
1
 62
     7
 10
207.33121862455411
 20
-499.83941360760821
 30
0.0
 40
86.999999999999787
 50
287.63521769469941
 51
312.36478230530111
  0
ARC
  5
1DA
  8
1
 62
     7
 10
207.33121862455411
 20
-499.83941360760821
 30
0.0
 40
86.999999999999559
 50
257.63521769469952
 51
282.36478230530111
  0
ARC
  5
1DB
  8
1
 62
     7
 10
207.33121862455411
 20
-499.83941360760821
 30
0.0
 40
86.999999999999829
 50
227.63521769469889
 51
252.36478230530111
  0
ARC
  5
1DC
  8
1
 62
     7
 10
207.33121862455411
 20
-499.83941360760821
 30
0.0
 40
87.000000000000114
 50
17.635217694699211
 51
42.364782305301098
  0
ARC
  5
1DD
  8
1
 62
     7
 10
207.33121862455411
 20
-499.83941360760821
 30
0.0
 40
87.000000000000128
 50
107.63521769469931
 51
132.36478230530091
  0
ARC
  5
1DE
  8
1
 62
     7
 10
207.33121862455411
 20
-499.83941360760821
 30
0.0
 40
87.000000000000128
 50
77.635217694699534
 51
102.36478230530101
  0
ARC
  5
1DF
  8
1
 62
     7
 10
207.33121862455411
 20
-499.83941360760821
 30
0.0
 40
86.999999999999517
 50
197.63521769469889
 51
222.36478230530111
  0
ARC
  5
1E0
  8
1
 62
     7
 10
207.33121862455519
 20
-499.83941360760622
 30
0.0
 40
86.999999999999986
 50
137.63521769470049
 51
162.3647823053023
  0
ARC
  5
1E1
  8
1
 62
     7
 10
207.33121862455411
 20
-499.83941360760821
 30
0.0
 40
86.999999999999446
 50
167.63521769469901
 51
192.36478230530091
  0
ARC
  5
1E2
  8
1
 62
     7
 10
207.33121862455411
 20
-499.83941360760821
 30
0.0
 40
86.999999999999986
 50
347.63521769469941
 51
12.3647823053011
  0
ARC
  5
1E3
  8
1
 62
     7
 10
207.33121862455411
 20
-499.83941360760821
 30
0.0
 40
87.000000000000114
 50
17.635217694699211
 51
42.364782305301098
  0
ARC
  5
1E4
  8
1
 62
     7
 10
207.33121862455411
 20
-499.83941360760821
 30
0.0
 40
87.000000000000128
 50
77.635217694699534
 51
102.36478230530101
  0
ARC
  5
1E5
  8
1
 62
     7
 10
171.83540682313131
 20
-413.52463737404639
 30
0.0
 40
20.897955802970621
 50
296.47385414794581
 51
330.21685782489908
  0
ARC
  5
1E6
  8
1
 62
     7
 10
207.33121862455411
 20
-433.83941360760821
 30
0.0
 40
20.00000000000011
 50
90.0
 51
150.2168578249003
  0
ARC
  5
1E7
  8
1
 62
     7
 10
207.33121862455411
 20
-433.83941360760821
 30
0.0
 40
20.00000000000038
 50
29.783142175099609
 51
90.0
  0
ARC
  5
1E8
  8
1
 62
     7
 10
242.82703042597711
 20
-413.52463737404639
 30
0.0
 40
20.897955802970142
 50
209.78314217510049
 51
243.5261458520562
  0
ARC
  5
1E9
  8
1
 62
     7
 10
121.016442390992
 20
-464.34360180618432
 30
0.0
 40
20.897955802970969
 50
299.78314217510012
 51
333.52614585205322
  0
ARC
  5
1EA
  8
1
 62
     7
 10
141.33121862455411
 20
-499.83941360760821
 30
0.0
 40
20.00000000000033
 50
119.7831421750997
 51
180.0
  0
ARC
  5
1EB
  8
1
 62
     7
 10
141.33121862455411
 20
-499.83941360760821
 30
0.0
 40
20.000000000000309
 50
180.0
 51
240.21685782489979
  0
ARC
  5
1EC
  8
1
 62
     7
 10
121.016442390992
 20
-535.33522540903152
 30
0.0
 40
20.89795580297082
 50
26.473854147946259
 51
60.216857824899598
  0
ARC
  5
1ED
  8
1
 62
     7
 10
171.83540682313011
 20
-586.15418984116957
 30
0.0
 40
20.897955802970941
 50
29.783142175098909
 51
63.526145852054093
  0
ARC
  5
1EE
  8
1
 62
     7
 10
207.33121862455411
 20
-565.83941360760787
 30
0.0
 40
20.000000000000309
 50
209.78314217509961
 51
270.0
  0
ARC
  5
1EF
  8
1
 62
     7
 10
207.33121862455411
 20
-565.83941360760787
 30
0.0
 40
20.000000000000231
 50
270.0
 51
330.21685782490027
  0
ARC
  5
1F0
  8
1
 62
     7
 10
242.82703042597711
 20
-586.15418984116957
 30
0.0
 40
20.897955802970511
 50
116.4738541479459
 51
150.21685782489971
  0
ARC
  5
1F1
  8
1
 62
     7
 10
293.64599485811561
 20
-535.33522540903152
 30
0.0
 40
20.897955802970401
 50
119.78314217510029
 51
153.5261458520549
  0
ARC
  5
1F2
  8
1
 62
     7
 10
273.33121862455403
 20
-499.83941360760821
 30
0.0
 40
20.00000000000027
 50
299.78314217509927
 51
0.0
  0
ARC
  5
1F3
  8
1
 62
     7
 10
273.33121862455403
 20
-499.83941360760821
 30
0.0
 40
20.000000000000341
 50
0.0
 51
60.216857824900558
  0
ARC
  5
1F4
  8
1
 62
     7
 10
293.64599485811561
 20
-464.34360180618478
 30
0.0
 40
20.897955802970579
 50
206.47385414794539
 51
240.21685782489959
  0
ARC
  5
1F5
  8
1
 62
     7
 10
207.33121862455411
 20
-499.83941360760821
 30
0.0
 40
87.000000000000398
 50
47.635217694699243
 51
72.36478230530119
  0
ARC
  5
1F6
  8
1
 62
     7
 10
-129.906614123585
 20
-415.33941360760821
 30
0.0
 40
1.5
 50
0.0
 51
90.0
  0
ARC
  5
1F7
  8
1
 62
     7
 10
-130.11976620375211
 20
-584.12626152744065
 30
0.0
 40
1.7263614508733609
 50
277.0923496540147
 51
352.90765034596961
  0
ARC
  5
1F8
  8
1
 62
     7
 10
198.33121862455411
 20
-372.83941360760821
 30
0.0
 40
3.0
 50
90.0
 51
180.0
  0
ARC
  5
1F9
  8
1
 62
     7
 10
216.33121862455411
 20
-372.83941360760821
 30
0.0
 40
3.0
 50
0.0
 51
90.0
  0
ARC
  5
1FA
  8
1
 62
     7
 10
39.694532234021104
 20
-415.33941360760821
 30
0.0
 40
1.5
 50
0.0
 51
90.0
  0
ARC
  5
1FB
  8
1
 62
     7
 10
26.498525064760901
 20
-433.56854577141291
 30
0.0
 40
2.2291321638048012
 50
9.8897861953864368
 51
90.0
  0
ARC
  5
1FC
  8
1
 62
     7
 10
26.82097565818998
 20
-433.22665137929903
 30
0.0
 40
0.4872377716911784
 50
346.3902334818959
 51
90.0
  0
ARC
  5
1FD
  8
1
 62
     7
 10
26.820975658190012
 20
-566.45217583591716
 30
0.0
 40
0.4872377716909568
 50
270.0
 51
13.60976651809767
  0
ARC
  5
1FE
  8
1
 62
     7
 10
18.1827025917671
 20
-581.89702416750197
 30
0.0
 40
3.6974167524946089
 50
290.78095825956012
 51
69.219041740439906
  0
ARC
  5
1FF
  8
1
 62
     7
 10
17.994344192872099
 20
-599.0045516317798
 30
0.0
 40
3.695174638979343
 50
293.95291057195351
 51
66.047089428046576
  0
ARC
  5
200
  8
1
 62
     7
 10
-29.8054677659789
 20
-546.08941360760798
 30
0.0
 40
8.2499999999999876
 50
59.999999999999972
 51
119.9999999999999
  0
ARC
  5
201
  8
1
 62
     7
 10
-29.8054677659789
 20
-546.08941360760798
 30
0.0
 40
8.2499999999999876
 50
300.00000000000011
 51
59.999999999999972
  0
ARC
  5
202
  8
1
 62
     7
 10
-29.8054677659789
 20
-546.08941360760798
 30
0.0
 40
8.2499999999999876
 50
119.9999999999999
 51
239.99999999999989
  0
ARC
  5
203
  8
1
 62
     7
 10
-29.8054677659789
 20
-546.08941360760798
 30
0.0
 40
8.2499999999999876
 50
239.99999999999989
 51
300.00000000000011
  0
ARC
  5
204
  8
1
 62
     7
 10
-29.8054677659789
 20
-453.58941360760809
 30
0.0
 40
8.2499999999999876
 50
59.999999999999972
 51
119.9999999999999
  0
ARC
  5
205
  8
1
 62
     7
 10
-29.8054677659789
 20
-453.58941360760809
 30
0.0
 40
8.2499999999999876
 50
300.00000000000011
 51
59.999999999999972
  0
ARC
  5
206
  8
1
 62
     7
 10
-29.8054677659789
 20
-453.58941360760809
 30
0.0
 40
8.2499999999999876
 50
119.9999999999999
 51
239.99999999999989
  0
ARC
  5
207
  8
1
 62
     7
 10
-29.8054677659789
 20
-453.58941360760809
 30
0.0
 40
8.2499999999999876
 50
239.99999999999989
 51
300.00000000000011
  0
ARC
  5
208
  8
1
 62
     7
 10
26.498525064760901
 20
-566.11028144380327
 30
0.0
 40
2.2291321638048189
 50
270.0
 51
350.11021380461682
  0
ARC
  5
209
  8
1
  6
DASHDOT
 62
     3
 10
207.33121862455411
 20
-499.83941360760821
 30
0.0
 40
47.000000000000028
 50
79.91755806433207
 51
99.115484015845865
  0
ARC
  5
20A
  8
1
  6
DASHDOT
 62
     3
 10
207.33121862455411
 20
-499.83941360760821
 30
0.0
 40
46.999999999999957
 50
21.649430177673171
 51
38.681912594107189
  0
ARC
  5
20B
  8
1
  6
DASHDOT
 62
     3
 10
207.33121862455411
 20
-499.83941360760821
 30
0.0
 40
47.000000000000021
 50
199.91755806433181
 51
219.11548401584571
  0
ARC
  5
20C
  8
1
  6
DASHDOT
 62
     3
 10
207.33121862455411
 20
-499.83941360760821
 30
0.0
 40
46.999999999999808
 50
319.91755806433179
 51
339.11548401584588
  0
ARC
  5
20D
  8
1
  6
DASHDOT
 62
     3
 10
207.33121862455411
 20
-499.83941360760821
 30
0.0
 40
47.000000000000007
 50
141.64943017767311
 51
158.6819125941071
  0
ARC
  5
20E
  8
1
  6
DASHDOT
 62
     3
 10
207.33121862455411
 20
-499.83941360760821
 30
0.0
 40
47.00000000000005
 50
261.64943017767291
 51
278.68191259410702
  0
ARC
  5
20F
  8
1
 62
     7
 10
-410.59241294015311
 20
-535.08278026378946
 30
0.0
 40
2.5
 50
180.0
 51
270.0
  0
ARC
  5
210
  8
1
 62
     7
 10
-392.59241294015311
 20
-535.08278026378946
 30
0.0
 40
2.5
 50
270.0
 51
0.0
  0
ARC
  5
211
  8
1
 62
     7
 10
-416.592412940153
 20
-401.83941360760809
 30
0.0
 40
3.0
 50
270.0
 51
0.0
  0
ARC
  5
212
  8
1
 62
     7
 10
-418.59241294015311
 20
-407.83941360760821
 30
0.0
 40
3.0
 50
90.0
 51
180.0
  0
ARC
  5
213
  8
1
 62
     7
 10
-384.59241294015311
 20
-407.83941360760821
 30
0.0
 40
3.0
 50
0.0
 51
90.0
  0
ARC
  5
214
  8
1
 62
     7
 10
-386.59241294015311
 20
-401.83941360760809
 30
0.0
 40
3.0
 50
180.0
 51
270.0
  0
ARC
  5
215
  8
1
 62
     7
 10
-392.59241294015311
 20
-372.83941360760821
 30
0.0
 40
3.0
 50
0.0
 51
90.0
  0
ARC
  5
216
  8
1
 62
     7
 10
-410.59241294015311
 20
-372.83941360760821
 30
0.0
 40
3.0
 50
90.0
 51
180.0
  0
ARC
  5
217
  8
1
 62
     7
 10
-137.906614123585
 20
-431.83941360760821
 30
0.0
 40
2.0
 50
0.0
 51
90.0
  0
ARC
  5
218
  8
1
 62
     7
 10
-137.906614123585
 20
-489.83941360760821
 30
0.0
 40
2.0
 50
270.0
 51
0.0
  0
ARC
  5
219
  8
1
 62
     7
 10
-137.906614123585
 20
-509.83941360760809
 30
0.0
 40
2.0
 50
0.0
 51
90.0
  0
ARC
  5
21A
  8
1
 62
     7
 10
-137.906614123585
 20
-567.83941360760809
 30
0.0
 40
2.0
 50
270.0
 51
0.0
  0
ARC
  5
21B
  8
1
 62
     7
 10
-401.59241294015311
 20
-499.83941360760821
 30
0.0
 40
110.0
 50
180.0
 51
73.801910027795174
  0
ARC
  5
21C
  8
1
 62
     7
 10
20.022483629692179
 20
-607.31146221193728
 30
0.0
 40
3.0093027084928412
 50
9.0248669749789396
 51
80.975133025022174
  0
ARC
  5
21D
  8
1
 62
     7
 10
20.022483629692179
 20
-565.36736500327925
 30
0.0
 40
3.0093027084928829
 50
279.02486697497778
 51
350.97513302502108
  0
CIRCLE
  5
21E
  8
1
  6
DASHDOT
 62
     3
 10
207.33121862455411
 20
-499.83941360760821
 30
0.0
 40
54.619508532543108
  0
CIRCLE
  5
21F
  8
1
 62
     7
 10
-401.59241294015311
 20
-499.83941360760821
 30
0.0
 40
52.5
  0
CIRCLE
  5
220
  8
1
 62
     7
 10
-410.59241294015311
 20
-534.63278026378953
 30
0.0
 40
1.25
  0
CIRCLE
  5
221
  8
1
 62
     7
 10
-392.59241294015311
 20
-534.63278026378953
 30
0.0
 40
1.25
  0
CIRCLE
  5
222
  8
1
 62
     7
 10
-401.59241294015311
 20
-499.83941360760821
 30
0.0
 40
32.5
  0
CIRCLE
  5
223
  8
1
 62
     7
 10
-401.59241294015311
 20
-379.83941360760821
 30
0.0
 40
4.25
  0
CIRCLE
  5
224
  8
1
 62
     7
 10
-401.59241294015311
 20
-499.83941360760821
 30
0.0
 40
32.5
  0
CIRCLE
  5
225
  8
1
 62
     7
 10
-401.59241294015311
 20
-499.83941360760821
 30
0.0
 40
78.999999999999901
  0
CIRCLE
  5
226
  8
1
 62
     7
 10
-414.09241294015311
 20
-412.83941360760821
 30
0.0
 40
4.25
  0
CIRCLE
  5
227
  8
1
 62
     7
 10
-389.09241294015311
 20
-412.83941360760821
 30
0.0
 40
4.25
  0
CIRCLE
  5
228
  8
1
 62
     7
 10
228.55438032296021
 20
-420.63349585190417
 30
0.0
 40
3.999999999999289
  0
CIRCLE
  5
229
  8
1
 62
     7
 10
265.31397468185122
 20
-441.85665755031079
 30
0.0
 40
3.9999999999998859
  0
CIRCLE
  5
22A
  8
1
 62
     7
 10
286.53713638025761
 20
-478.61625190920091
 30
0.0
 40
4.0
  0
CIRCLE
  5
22B
  8
1
 62
     7
 10
286.53713638025772
 20
-521.06257530601454
 30
0.0
 40
3.9999999999999432
  0
CIRCLE
  5
22C
  8
1
 62
     7
 10
265.31397468185122
 20
-557.82216966490455
 30
0.0
 40
4.0000000000001714
  0
CIRCLE
  5
22D
  8
1
 62
     7
 10
228.55438032296121
 20
-579.04533136331145
 30
0.0
 40
4.0
  0
CIRCLE
  5
22E
  8
1
 62
     7
 10
186.10805692614821
 20
-579.04533136331167
 30
0.0
 40
4.0000000000001128
  0
CIRCLE
  5
22F
  8
1
 62
     7
 10
149.3484625672572
 20
-557.82216966490478
 30
0.0
 40
4.0000000000000853
  0
CIRCLE
  5
230
  8
1
 62
     7
 10
128.12530086885019
 20
-521.06257530601488
 30
0.0
 40
4.0
  0
CIRCLE
  5
231
  8
1
 62
     7
 10
128.12530086885019
 20
-478.61625190920131
 30
0.0
 40
4.0
  0
CIRCLE
  5
232
  8
1
 62
     7
 10
149.3484625672572
 20
-441.85665755031118
 30
0.0
 40
4.0000000000003118
  0
CIRCLE
  5
233
  8
1
 62
     7
 10
186.10805692614699
 20
-420.63349585190451
 30
0.0
 40
4.0
  0
CIRCLE
  5
234
  8
1
 62
     7
 10
207.33121862455411
 20
-499.83941360760821
 30
0.0
 40
108.0
  0
CIRCLE
  5
235
  8
1
 62
     7
 10
207.33121862455411
 20
-499.83941360760821
 30
0.0
 40
72.499999999999972
  0
CIRCLE
  5
236
  8
1
 62
     3
 10
207.33121862455411
 20
-421.83941360760809
 30
0.0
 40
4.0
  0
CIRCLE
  5
237
  8
1
 62
     7
 10
207.33121862455411
 20
-421.83941360760809
 30
0.0
 40
3.0
  0
CIRCLE
  5
238
  8
1
 62
     7
 10
129.33121862455411
 20
-499.83941360760821
 30
0.0
 40
3.0
  0
CIRCLE
  5
239
  8
1
 62
     3
 10
129.33121862455411
 20
-499.83941360760821
 30
0.0
 40
4.0
  0
CIRCLE
  5
23A
  8
1
 62
     7
 10
207.33121862455411
 20
-577.83941360760787
 30
0.0
 40
3.0
  0
CIRCLE
  5
23B
  8
1
 62
     3
 10
207.33121862455411
 20
-577.83941360760787
 30
0.0
 40
4.0
  0
CIRCLE
  5
23C
  8
1
 62
     7
 10
285.33121862455408
 20
-499.83941360760821
 30
0.0
 40
3.0
  0
CIRCLE
  5
23D
  8
1
 62
     3
 10
285.33121862455408
 20
-499.83941360760821
 30
0.0
 40
4.0
  0
CIRCLE
  5
23E
  8
1
 62
     7
 10
248.03441260242209
 20
-476.33941360760809
 30
0.0
 40
3.0000000000000848
  0
CIRCLE
  5
23F
  8
1
 62
     3
 10
248.03441260242209
 20
-476.33941360760809
 30
0.0
 40
4.0000000000000853
  0
CIRCLE
  5
240
  8
1
 62
     7
 10
207.33121862455411
 20
-452.83941360760821
 30
0.0
 40
4.25
  0
CIRCLE
  5
241
  8
1
 62
     7
 10
207.33121862455411
 20
-499.83941360760821
 30
0.0
 40
57.950000000000067
  0
CIRCLE
  5
242
  8
1
 62
     7
 10
207.33121862455411
 20
-499.83941360760821
 30
0.0
 40
40.0
  0
CIRCLE
  5
243
  8
1
 62
     7
 10
207.33121862455411
 20
-499.83941360760821
 30
0.0
 40
35.0
  0
CIRCLE
  5
244
  8
1
 62
     7
 10
207.33121862455411
 20
-499.83941360760821
 30
0.0
 40
25.0
  0
CIRCLE
  5
245
  8
1
 62
     7
 10
207.33121862455411
 20
-499.83941360760821
 30
0.0
 40
20.0
  0
CIRCLE
  5
246
  8
1
 62
     7
 10
166.62802464668539
 20
-523.33941360760798
 30
0.0
 40
4.2499999999999138
  0
CIRCLE
  5
247
  8
1
 62
     7
 10
248.03441260242309
 20
-523.33941360760821
 30
0.0
 40
4.2499999999998863
  0
CIRCLE
  5
248
  8
1
 62
     7
 10
166.62802464668499
 20
-476.33941360760809
 30
0.0
 40
3.0000000000000848
  0
CIRCLE
  5
249
  8
1
 62
     3
 10
166.62802464668499
 20
-476.33941360760809
 30
0.0
 40
4.0000000000000853
  0
CIRCLE
  5
24A
  8
1
 62
     7
 10
207.33121862455411
 20
-546.83941360760809
 30
0.0
 40
3.0
  0
CIRCLE
  5
24B
  8
1
 62
     3
 10
207.33121862455411
 20
-546.83941360760809
 30
0.0
 40
4.0
  0
CIRCLE
  5
24C
  8
1
 62
     3
 10
207.33121862455411
 20
-499.83941360760821
 30
0.0
 40
51.96284174717951
  0
CIRCLE
  5
24D
  8
1
 62
     7
 10
207.33121862455411
 20
-379.83941360760821
 30
0.0
 40
4.25
  0
CIRCLE
  5
24E
  8
1
 62
     7
 10
207.33121862455411
 20
-499.83941360760821
 30
0.0
 40
110.0
  0
ARC
  5
24F
  8
1
 62
     7
 10
30.694532234021011
 20
-561.18941360760823
 30
0.0
 40
3.3999999999999759
 50
90.0
 51
180.0
  0
ARC
  5
250
  8
1
 62
     7
 10
30.6945322340211
 20
-561.23941360760818
 30
0.0
 40
2.0
 50
90.0
 51
180.0
  0
ARC
  5
251
  8
1
 62
     7
 10
30.694532234020979
 20
-438.48941360760818
 30
0.0
 40
3.399999999999999
 50
180.0
 51
270.0
  0
ARC
  5
252
  8
1
 62
     7
 10
30.69453223402105
 20
-438.43941360760812
 30
0.0
 40
2.0
 50
180.0
 51
270.0
  0
ARC
  5
253
  8
1
 62
     7
 10
44.194532234021104
 20
-425.79677292048899
 30
0.0
 40
3.0
 50
180.0
 51
224.9999999999996
  0
ARC
  5
254
  8
1
 62
     7
 10
42.994532234020987
 20
-570.83941360760821
 30
0.0
 40
1.5
 50
270.0
 51
0.0
  0
ARC
  5
255
  8
1
 62
     7
 10
-125.406614123585
 20
-425.79677292048882
 30
0.0
 40
2.9999999999999858
 50
180.0
 51
224.99999999999869
  0
ARC
  5
256
  8
1
 62
     7
 10
-125.406614123585
 20
-573.8820542947276
 30
0.0
 40
2.999999999999984
 50
134.9999999999992
 51
180.0
  0
ARC
  5
257
  8
1
 62
     7
 10
23.99453223402109
 20
-392.83941360760821
 30
0.0
 40
1.0
 50
90.0
 51
180.0
  0
ARC
  5
258
  8
1
 62
     7
 10
23.99453223402109
 20
-392.83941360760821
 30
0.0
 40
3.0
 50
90.0
 51
173.22260798141011
  0
ARC
  5
259
  8
1
 62
     7
 10
20.49453223402109
 20
-396.33941360760821
 30
0.0
 40
3.00000000000002
 50
96.777392018589623
 51
180.0
  0
ARC
  5
25A
  8
1
 62
     7
 10
20.022483629692179
 20
-392.3673650032793
 30
0.0
 40
0.9999999999999885
 50
276.77739201858992
 51
353.22260798141122
  0
ARC
  5
25B
  8
1
 62
     7
 10
20.49453223402109
 20
-430.33941360760809
 30
0.0
 40
3.0
 50
180.0
 51
263.22260798141042
  0
ARC
  5
25C
  8
1
 62
     7
 10
20.022483629692179
 20
-434.31146221193711
 30
0.0
 40
1.0000000000000131
 50
6.7773920185886798
 51
83.222607981410121
  0
ARC
  5
25D
  8
1
 62
     7
 10
23.99453223402109
 20
-433.83941360760821
 30
0.0
 40
3.0000000000000009
 50
186.77739201858989
 51
270.0
  0
ARC
  5
25E
  8
1
 62
     7
 10
23.99453223402109
 20
-433.83941360760821
 30
0.0
 40
1.0
 50
180.0
 51
270.0
  0
ARC
  5
25F
  8
1
 62
     7
 10
-145.6066141235851
 20
-606.83941360760821
 30
0.0
 40
3.0000000000000151
 50
186.77739201858881
 51
270.0
  0
ARC
  5
260
  8
1
 62
     7
 10
-149.1066141235851
 20
-603.33941360760821
 30
0.0
 40
3.0
 50
180.0
 51
263.22260798141002
  0
ARC
  5
261
  8
1
 62
     7
 10
-149.57866272791401
 20
-607.31146221193706
 30
0.0
 40
0.9999999999999859
 50
6.7773920185888699
 51
83.222607981411144
  0
ARC
  5
262
  8
1
 62
     7
 10
-145.6066141235851
 20
-392.83941360760821
 30
0.0
 40
3.0
 50
90.0
 51
173.22260798141011
  0
ARC
  5
263
  8
1
 62
     7
 10
-149.1066141235851
 20
-396.33941360760821
 30
0.0
 40
3.0000000000000222
 50
96.777392018589836
 51
180.0
  0
ARC
  5
264
  8
1
 62
     7
 10
-149.57866272791401
 20
-392.3673650032793
 30
0.0
 40
0.9999999999999859
 50
276.77739201858878
 51
353.2226079814111
  0
ARC
  5
265
  8
1
 62
     7
 10
20.49453223402109
 20
-603.33941360760821
 30
0.0
 40
3.0
 50
180.0
 51
263.22260798141031
  0
ARC
  5
266
  8
1
 62
     7
 10
23.99453223402109
 20
-606.83941360760821
 30
0.0
 40
3.000000000000008
 50
186.7773920185908
 51
270.0
  0
ARC
  5
267
  8
1
 62
     7
 10
20.022483629692179
 20
-607.31146221193728
 30
0.0
 40
1.0000000000000131
 50
6.7773920185886798
 51
83.222607981410889
  0
ARC
  5
268
  8
1
 62
     7
 10
23.99453223402109
 20
-606.83941360760821
 30
0.0
 40
1.0
 50
180.0
 51
270.0
  0
ARC
  5
269
  8
1
 62
     7
 10
20.49453223402109
 20
-603.33941360760821
 30
0.0
 40
1.0
 50
180.0
 51
270.0
  0
ARC
  5
26A
  8
1
 62
     7
 10
20.49453223402109
 20
-569.33941360760821
 30
0.0
 40
2.9999999999999631
 50
96.777392018589723
 51
180.0
  0
ARC
  5
26B
  8
1
 62
     7
 10
23.99453223402109
 20
-565.83941360760821
 30
0.0
 40
3.0
 50
90.0
 51
173.22260798140911
  0
ARC
  5
26C
  8
1
 62
     7
 10
20.022483629692179
 20
-565.36736500327925
 30
0.0
 40
1.0000000000000999
 50
276.77739201858913
 51
353.22260798141122
  0
ARC
  5
26D
  8
1
 62
     7
 10
23.99453223402109
 20
-565.83941360760821
 30
0.0
 40
1.0
 50
90.0
 51
180.0
  0
ARC
  5
26E
  8
1
 62
     7
 10
20.49453223402109
 20
-569.33941360760821
 30
0.0
 40
1.0
 50
90.0
 51
180.0
  0
TEXT
  5
270
  8
1
 62
     7
 10
-510.98849472646452
 20
-316.13207452626699
 30
0.0
 40
10.0
  1
MSC 20T
 41
0.9
  7
SIMPLEX
 72
     1
 11
-481.41706615503603
 21
-316.13207452626699
 31
0.0
  0
ENDSEC
  0
EOF
