  0
SECTION
  2
HEADER
  9
$ACADVER
  1
AC1015
  9
$ACADMAINTVER
 70
     6
  9
$DWGCODEPAGE
  3
ANSI_932
  9
$INSBASE
 10
0.0
 20
0.0
 30
0.0
  9
$EXTMIN
 10
-439.0155997467888
 20
263.0569053244952
 30
0.0
  9
$EXTMAX
 10
24.48402642187768
 20
423.5051397701223
 30
0.0
  9
$LIMMIN
 10
-434.4669508846
 20
263.5079326500143
  9
$LIMMAX
 10
15.03005562337124
 20
423.5051397701219
  9
$ORTHOMODE
 70
     0
  9
$REGENMODE
 70
     1
  9
$FILLMODE
 70
     1
  9
$QTEXTMODE
 70
     0
  9
$MIRRTEXT
 70
     1
  9
$LTSCALE
 40
1.0
  9
$ATTMODE
 70
     1
  9
$TEXTSIZE
 40
3.5
  9
$TRACEWID
 40
0.5
  9
$TEXTSTYLE
  7
STANDARD
  9
$CLAYER
  8
0
  9
$CELTYPE
  6
ByLayer
  9
$CECOLOR
 62
   256
  9
$CELTSCALE
 40
1.0
  9
$DISPSILH
 70
     0
  9
$DIMSCALE
 40
1.0
  9
$DIMASZ
 40
0.18
  9
$DIMEXO
 40
0.0625
  9
$DIMDLI
 40
0.38
  9
$DIMRND
 40
0.0
  9
$DIMDLE
 40
0.0
  9
$DIMEXE
 40
0.18
  9
$DIMTP
 40
0.0
  9
$DIMTM
 40
0.0
  9
$DIMTXT
 40
0.18
  9
$DIMCEN
 40
0.09
  9
$DIMTSZ
 40
0.0
  9
$DIMTOL
 70
     0
  9
$DIMLIM
 70
     0
  9
$DIMTIH
 70
     1
  9
$DIMTOH
 70
     1
  9
$DIMSE1
 70
     0
  9
$DIMSE2
 70
     0
  9
$DIMTAD
 70
     0
  9
$DIMZIN
 70
     0
  9
$DIMBLK
  1

  9
$DIMASO
 70
     1
  9
$DIMSHO
 70
     1
  9
$DIMPOST
  1

  9
$DIMAPOST
  1

  9
$DIMALT
 70
     0
  9
$DIMALTD
 70
     2
  9
$DIMALTF
 40
25.4
  9
$DIMLFAC
 40
1.0
  9
$DIMTOFL
 70
     0
  9
$DIMTVP
 40
0.0
  9
$DIMTIX
 70
     0
  9
$DIMSOXD
 70
     0
  9
$DIMSAH
 70
     0
  9
$DIMBLK1
  1

  9
$DIMBLK2
  1

  9
$DIMSTYLE
  2
Standard
  9
$DIMCLRD
 70
     0
  9
$DIMCLRE
 70
     0
  9
$DIMCLRT
 70
     0
  9
$DIMTFAC
 40
1.0
  9
$DIMGAP
 40
0.09
  9
$DIMJUST
 70
     0
  9
$DIMSD1
 70
     0
  9
$DIMSD2
 70
     0
  9
$DIMTOLJ
 70
     1
  9
$DIMTZIN
 70
     0
  9
$DIMALTZ
 70
     0
  9
$DIMALTTZ
 70
     0
  9
$DIMUPT
 70
     0
  9
$DIMDEC
 70
     4
  9
$DIMTDEC
 70
     4
  9
$DIMALTU
 70
     2
  9
$DIMALTTD
 70
     2
  9
$DIMTXSTY
  7
STANDARD
  9
$DIMAUNIT
 70
     0
  9
$DIMADEC
 70
     0
  9
$DIMALTRND
 40
0.0
  9
$DIMAZIN
 70
     0
  9
$DIMDSEP
 70
    46
  9
$DIMATFIT
 70
     3
  9
$DIMFRAC
 70
     0
  9
$DIMLDRBLK
  1

  9
$DIMLUNIT
 70
     2
  9
$DIMLWD
 70
    -2
  9
$DIMLWE
 70
    -2
  9
$DIMTMOVE
 70
     0
  9
$LUNITS
 70
     2
  9
$LUPREC
 70
     4
  9
$SKETCHINC
 40
0.1
  9
$FILLETRAD
 40
2.0
  9
$AUNITS
 70
     0
  9
$AUPREC
 70
     0
  9
$MENU
  1
ACAD
  9
$ELEVATION
 40
0.0
  9
$PELEVATION
 40
0.0
  9
$THICKNESS
 40
0.0
  9
$LIMCHECK
 70
     0
  9
$CHAMFERA
 40
0.0
  9
$CHAMFERB
 40
0.0
  9
$CHAMFERC
 40
0.0
  9
$CHAMFERD
 40
0.0
  9
$SKPOLY
 70
     0
  9
$TDCREATE
 40
2452094.540213773
  9
$TDUCREATE
 40
2452094.165213773
  9
$TDUPDATE
 40
2452094.542031944
  9
$TDUUPDATE
 40
2452094.167031944
  9
$TDINDWG
 40
0.0018194444
  9
$TDUSRTIMER
 40
0.0018194444
  9
$USRTIMER
 70
     1
  9
$ANGBASE
 50
0.0
  9
$ANGDIR
 70
     0
  9
$PDMODE
 70
     0
  9
$PDSIZE
 40
0.0
  9
$PLINEWID
 40
0.0
  9
$SPLFRAME
 70
     0
  9
$SPLINETYPE
 70
     6
  9
$SPLINESEGS
 70
     8
  9
$HANDSEED
  5
243
  9
$SURFTAB1
 70
     6
  9
$SURFTAB2
 70
     6
  9
$SURFTYPE
 70
     6
  9
$SURFU
 70
     6
  9
$SURFV
 70
     6
  9
$UCSBASE
  2

  9
$UCSNAME
  2

  9
$UCSORG
 10
0.0
 20
0.0
 30
0.0
  9
$UCSXDIR
 10
1.0
 20
0.0
 30
0.0
  9
$UCSYDIR
 10
0.0
 20
1.0
 30
0.0
  9
$UCSORTHOREF
  2

  9
$UCSORTHOVIEW
 70
     0
  9
$UCSORGTOP
 10
0.0
 20
0.0
 30
0.0
  9
$UCSORGBOTTOM
 10
0.0
 20
0.0
 30
0.0
  9
$UCSORGLEFT
 10
0.0
 20
0.0
 30
0.0
  9
$UCSORGRIGHT
 10
0.0
 20
0.0
 30
0.0
  9
$UCSORGFRONT
 10
0.0
 20
0.0
 30
0.0
  9
$UCSORGBACK
 10
0.0
 20
0.0
 30
0.0
  9
$PUCSBASE
  2

  9
$PUCSNAME
  2

  9
$PUCSORG
 10
0.0
 20
0.0
 30
0.0
  9
$PUCSXDIR
 10
1.0
 20
0.0
 30
0.0
  9
$PUCSYDIR
 10
0.0
 20
1.0
 30
0.0
  9
$PUCSORTHOREF
  2

  9
$PUCSORTHOVIEW
 70
     0
  9
$PUCSORGTOP
 10
0.0
 20
0.0
 30
0.0
  9
$PUCSORGBOTTOM
 10
0.0
 20
0.0
 30
0.0
  9
$PUCSORGLEFT
 10
0.0
 20
0.0
 30
0.0
  9
$PUCSORGRIGHT
 10
0.0
 20
0.0
 30
0.0
  9
$PUCSORGFRONT
 10
0.0
 20
0.0
 30
0.0
  9
$PUCSORGBACK
 10
0.0
 20
0.0
 30
0.0
  9
$USERI1
 70
     0
  9
$USERI2
 70
     0
  9
$USERI3
 70
     0
  9
$USERI4
 70
     0
  9
$USERI5
 70
     0
  9
$USERR1
 40
0.0
  9
$USERR2
 40
0.0
  9
$USERR3
 40
0.0
  9
$USERR4
 40
0.0
  9
$USERR5
 40
0.0
  9
$WORLDVIEW
 70
     1
  9
$SHADEDGE
 70
     3
  9
$SHADEDIF
 70
    70
  9
$TILEMODE
 70
     1
  9
$MAXACTVP
 70
    64
  9
$PINSBASE
 10
0.0
 20
0.0
 30
0.0
  9
$PLIMCHECK
 70
     0
  9
$PEXTMIN
 10
1.000000000000000E+20
 20
1.000000000000000E+20
 30
1.000000000000000E+20
  9
$PEXTMAX
 10
-1.000000000000000E+20
 20
-1.000000000000000E+20
 30
-1.000000000000000E+20
  9
$PLIMMIN
 10
0.0
 20
0.0
  9
$PLIMMAX
 10
12.0
 20
9.0
  9
$UNITMODE
 70
     0
  9
$VISRETAIN
 70
     1
  9
$PLINEGEN
 70
     0
  9
$PSLTSCALE
 70
     1
  9
$TREEDEPTH
 70
  3020
  9
$CMLSTYLE
  2
Standard
  9
$CMLJUST
 70
     0
  9
$CMLSCALE
 40
1.0
  9
$PROXYGRAPHICS
 70
     1
  9
$MEASUREMENT
 70
     0
  9
$CELWEIGHT
370
    -1
  9
$ENDCAPS
280
     0
  9
$JOINSTYLE
280
     0
  9
$LWDISPLAY
290
     0
  9
$INSUNITS
 70
     0
  9
$HYPERLINKBASE
  1

  9
$STYLESHEET
  1

  9
$XEDIT
290
     1
  9
$CEPSNTYPE
380
     0
  9
$PSTYLEMODE
290
     1
  9
$FINGERPRINTGUID
  2
{7B7AB9C3-6FB2-11D5-AEFA-0060083AAF35}
  9
$VERSIONGUID
  2
{7B7AB9C5-6FB2-11D5-AEFA-0060083AAF35}
  9
$EXTNAMES
290
     1
  9
$PSVPSCALE
 40
0.0
  9
$OLESTARTUP
290
     0
  0
ENDSEC
  0
SECTION
  2
CLASSES
  0
CLASS
  1
ACDBDICTIONARYWDFLT
  2
AcDbDictionaryWithDefault
  3
AutoCAD 2000
 90
        0
280
     0
281
     0
  0
CLASS
  1
ACDBPLACEHOLDER
  2
AcDbPlaceHolder
  3
AutoCAD 2000
 90
        0
280
     0
281
     0
  0
CLASS
  1
LAYOUT
  2
AcDbLayout
  3
AutoCAD 2000
 90
        0
280
     0
281
     0
  0
ENDSEC
  0
SECTION
  2
TABLES
  0
TABLE
  2
VPORT
  5
8
330
0
100
AcDbSymbolTable
 70
     2
  0
VPORT
  5
242
330
8
100
AcDbSymbolTableRecord
100
AcDbViewportTableRecord
  2
*Active
 70
     0
 10
0.0
 20
0.0
 11
1.0
 21
1.0
 12
-422.6239377814001
 22
408.8223141945615
 13
0.0
 23
0.0
 14
1.0
 24
1.0
 15
0.0
 25
0.0
 16
0.0
 26
0.0
 36
1.0
 17
0.0
 27
0.0
 37
0.0
 40
9.000000421593268
 41
2.569377990430622
 42
50.0
 43
0.0
 44
0.0
 50
0.0
 51
0.0
 71
     0
 72
   100
 73
     1
 74
     1
 75
     0
 76
     0
 77
     0
 78
     0
281
     0
 65
     1
110
0.0
120
0.0
130
0.0
111
1.0
121
0.0
131
0.0
112
0.0
122
1.0
132
0.0
 79
     0
146
0.0
  0
ENDTAB
  0
TABLE
  2
LTYPE
  5
5
330
0
100
AcDbSymbolTable
 70
     9
  0
LTYPE
  5
13
330
5
100
AcDbSymbolTableRecord
100
AcDbLinetypeTableRecord
  2
ByBlock
 70
     0
  3

 72
    65
 73
     0
 40
0.0
  0
LTYPE
  5
14
330
5
100
AcDbSymbolTableRecord
100
AcDbLinetypeTableRecord
  2
ByLayer
 70
     0
  3

 72
    65
 73
     0
 40
0.0
  0
LTYPE
  5
15
330
5
100
AcDbSymbolTableRecord
100
AcDbLinetypeTableRecord
  2
CONTINUOUS
 70
     0
  3
Solid line
 72
    65
 73
     0
 40
0.0
  0
LTYPE
  5
22
330
5
100
AcDbSymbolTableRecord
100
AcDbLinetypeTableRecord
  2
BORDER
 70
     0
  3
__ __ . __ __ .
 72
    65
 73
     6
 40
20.7005200365513
 49
5.914434296157516
 74
     0
 49
-2.957217148078758
 74
     0
 49
5.914434296157516
 74
     0
 49
-2.957217148078758
 74
     0
 49
0.0
 74
     0
 49
-2.957217148078758
 74
     0
  0
LTYPE
  5
23
330
5
100
AcDbSymbolTableRecord
100
AcDbLinetypeTableRecord
  2
CENTER
 70
     0
  3
____ _ ____ _
 72
    65
 73
     4
 40
23.65773718463006
 49
14.78608574039379
 74
     0
 49
-2.957217148078758
 74
     0
 49
2.957217148078758
 74
     0
 49
-2.957217148078758
 74
     0
  0
LTYPE
  5
24
330
5
100
AcDbSymbolTableRecord
100
AcDbLinetypeTableRecord
  2
DASHDOT
 70
     0
  3
__ . __ . __ .
 72
    65
 73
     4
 40
11.82886859231503
 49
5.914434296157516
 74
     0
 49
-2.957217148078758
 74
     0
 49
0.0
 74
     0
 49
-2.957217148078758
 74
     0
  0
LTYPE
  5
25
330
5
100
AcDbSymbolTableRecord
100
AcDbLinetypeTableRecord
  2
DASHED
 70
     0
  3
__ __ __ __ __
 72
    65
 73
     2
 40
8.871651444236274
 49
5.914434296157516
 74
     0
 49
-2.957217148078758
 74
     0
  0
LTYPE
  5
26
330
5
100
AcDbSymbolTableRecord
100
AcDbLinetypeTableRecord
  2
DIVIDE
 70
     0
  3
__ . . __ . . 
 72
    65
 73
     6
 40
14.78608574039379
 49
5.914434296157516
 74
     0
 49
-2.957217148078758
 74
     0
 49
0.0
 74
     0
 49
-2.957217148078758
 74
     0
 49
0.0
 74
     0
 49
-2.957217148078758
 74
     0
  0
LTYPE
  5
27
330
5
100
AcDbSymbolTableRecord
100
AcDbLinetypeTableRecord
  2
DOT
 70
     0
  3
..............
 72
    65
 73
     4
 40
5.914434296157516
 49
0.0
 74
     0
 49
-2.957217148078758
 74
     0
 49
0.0
 74
     0
 49
-2.957217148078758
 74
     0
  0
LTYPE
  5
28
330
5
100
AcDbSymbolTableRecord
100
AcDbLinetypeTableRecord
  2
HIDDEN
 70
     0
  3
_ _ _ _ _ _ _
 72
    65
 73
     2
 40
4.435825722118137
 49
2.957217148078758
 74
     0
 49
-1.478608574039379
 74
     0
  0
LTYPE
  5
29
330
5
100
AcDbSymbolTableRecord
100
AcDbLinetypeTableRecord
  2
PHANTOM
 70
     0
  3
_____ _ _ _____ _ _ 
 72
    65
 73
     6
 40
29.57217148078758
 49
14.78608574039379
 74
     0
 49
-2.957217148078758
 74
     0
 49
2.957217148078758
 74
     0
 49
-2.957217148078758
 74
     0
 49
2.957217148078758
 74
     0
 49
-2.957217148078758
 74
     0
  0
ENDTAB
  0
TABLE
  2
LAYER
  5
2
330
0
100
AcDbSymbolTable
 70
     2
  0
LAYER
  5
10
330
2
100
AcDbSymbolTableRecord
100
AcDbLayerTableRecord
  2
0
 70
     0
 62
     7
  6
CONTINUOUS
370
    -3
390
F
  0
LAYER
  5
2A
330
2
100
AcDbSymbolTableRecord
100
AcDbLayerTableRecord
  2
1
 70
     0
 62
     7
  6
CONTINUOUS
370
    -3
390
F
  0
ENDTAB
  0
TABLE
  2
STYLE
  5
3
330
0
100
AcDbSymbolTable
 70
     4
  0
STYLE
  5
11
330
3
100
AcDbSymbolTableRecord
100
AcDbTextStyleTableRecord
  2
STANDARD
 70
     0
 40
0.0
 41
1.0
 50
0.0
 71
     0
 42
3.5
  3
txt
  4

  0
STYLE
  5
2B
330
3
100
AcDbSymbolTableRecord
100
AcDbTextStyleTableRecord
  2
SIMPLEX
 70
     0
 40
0.0
 41
1.0
 50
0.0
 71
     0
 42
3.5
  3
simplex
  4

  0
STYLE
  5
2C
330
3
100
AcDbSymbolTableRecord
100
AcDbTextStyleTableRecord
  2
COMPLEX
 70
     0
 40
0.0
 41
1.0
 50
0.0
 71
     0
 42
3.5
  3
complex
  4

  0
STYLE
  5
2D
330
3
100
AcDbSymbolTableRecord
100
AcDbTextStyleTableRecord
  2
ITALIC
 70
     0
 40
0.0
 41
1.0
 50
0.0
 71
     0
 42
3.5
  3
italic
  4

  0
ENDTAB
  0
TABLE
  2
VIEW
  5
6
330
0
100
AcDbSymbolTable
 70
     0
  0
ENDTAB
  0
TABLE
  2
UCS
  5
7
330
0
100
AcDbSymbolTable
 70
     0
  0
ENDTAB
  0
TABLE
  2
APPID
  5
9
330
0
100
AcDbSymbolTable
 70
     1
  0
APPID
  5
12
330
9
100
AcDbSymbolTableRecord
100
AcDbRegAppTableRecord
  2
ACAD
 70
     0
  0
ENDTAB
  0
TABLE
  2
DIMSTYLE
  5
A
330
0
100
AcDbSymbolTable
 70
     1
100
AcDbDimStyleTable
 71
     0
  0
DIMSTYLE
105
240
330
A
100
AcDbSymbolTableRecord
100
AcDbDimStyleTableRecord
  2
Standard
 70
     0
340
11
  0
ENDTAB
  0
TABLE
  2
BLOCK_RECORD
  5
1
330
0
100
AcDbSymbolTable
 70
     0
  0
BLOCK_RECORD
  5
1E
330
1
100
AcDbSymbolTableRecord
100
AcDbBlockTableRecord
  2
*Model_Space
340
21
  0
BLOCK_RECORD
  5
1A
330
1
100
AcDbSymbolTableRecord
100
AcDbBlockTableRecord
  2
*Paper_Space
340
1D
  0
ENDTAB
  0
ENDSEC
  0
SECTION
  2
BLOCKS
  0
BLOCK
  5
1F
330
1E
100
AcDbEntity
  8
0
100
AcDbBlockBegin
  2
*Model_Space
 70
     0
 10
0.0
 20
0.0
 30
0.0
  3
*Model_Space
  1

  0
ENDBLK
  5
20
330
1E
100
AcDbEntity
  8
0
100
AcDbBlockEnd
  0
BLOCK
  5
1B
330
1A
100
AcDbEntity
 67
     1
  8
0
100
AcDbBlockBegin
  2
*Paper_Space
 70
     0
 10
0.0
 20
0.0
 30
0.0
  3
*Paper_Space
  1

  0
ENDBLK
  5
1C
330
1A
100
AcDbEntity
 67
     1
  8
0
100
AcDbBlockEnd
  0
ENDSEC
  0
SECTION
  2
ENTITIES
  0
POINT
  5
33
330
1E
100
AcDbEntity
  8
1
  6
DOT
 62
     7
100
AcDbPoint
 10
-373.8922889702539
 20
308.5079326500143
 30
0.0
  0
LINE
  5
34
330
1E
100
AcDbEntity
  8
1
 62
     7
100
AcDbLine
 10
-270.2885462460798
 20
392.2579326500143
 30
0.0
 11
-268.2885462460798
 21
392.2579326500143
 31
0.0
  0
LINE
  5
35
330
1E
100
AcDbEntity
  8
1
 62
     7
100
AcDbLine
 10
-268.2885462460798
 20
392.2579326500143
 30
0.0
 11
-268.2885462460798
 21
370.2579326500143
 31
0.0
  0
LINE
  5
36
330
1E
100
AcDbEntity
  8
1
 62
     7
100
AcDbLine
 10
-270.2885462460798
 20
392.2579326500143
 30
0.0
 11
-270.2885462460798
 21
370.2579326500143
 31
0.0
  0
LINE
  5
37
330
1E
100
AcDbEntity
  8
1
 62
     7
100
AcDbLine
 10
-268.7885462460798
 20
396.2579326500143
 30
0.0
 11
-268.7885462460798
 21
392.2579326500143
 31
0.0
  0
LINE
  5
38
330
1E
100
AcDbEntity
  8
1
 62
     7
100
AcDbLine
 10
-269.2885462460798
 20
396.2579326500143
 30
0.0
 11
-269.2885462460798
 21
392.2579326500143
 31
0.0
  0
LINE
  5
39
330
1E
100
AcDbEntity
  8
1
 62
     7
100
AcDbLine
 10
-269.7885462460798
 20
396.2579326500143
 30
0.0
 11
-269.7885462460798
 21
392.2579326500143
 31
0.0
  0
LINE
  5
3A
330
1E
100
AcDbEntity
  8
1
  6
DASHDOT
 62
     3
100
AcDbLine
 10
-39.96994437662875
 20
326.5079326500142
 30
0.0
 11
-39.96994437662875
 21
310.5079326500143
 31
0.0
  0
LINE
  5
3B
330
1E
100
AcDbEntity
  8
1
  6
DASHDOT
 62
     3
100
AcDbLine
 10
-47.96994437662876
 20
318.5079326500143
 30
0.0
 11
-31.96994437662876
 21
318.5079326500143
 31
0.0
  0
LINE
  5
3C
330
1E
100
AcDbEntity
  8
1
 62
     7
100
AcDbLine
 10
-132.0996139999309
 20
278.5079326500143
 30
0.0
 11
-132.0996139999309
 21
288.5079326500143
 31
0.0
  0
LINE
  5
3D
330
1E
100
AcDbEntity
  8
1
 62
     7
100
AcDbLine
 10
-136.599613999931
 20
278.5079326500143
 30
0.0
 11
-132.0996139999309
 21
278.5079326500143
 31
0.0
  0
LINE
  5
3E
330
1E
100
AcDbEntity
  8
1
 62
     7
100
AcDbLine
 10
-349.9938718337168
 20
401.9024846663119
 30
0.0
 11
-348.9585956533066
 21
405.7661879714681
 31
0.0
  0
LINE
  5
3F
330
1E
100
AcDbEntity
  8
1
 62
     7
100
AcDbLine
 10
-350.4768347468613
 20
402.0318941888631
 30
0.0
 11
-349.4415585664513
 21
405.8955974940194
 31
0.0
  0
LINE
  5
40
330
1E
100
AcDbEntity
  8
1
 62
     7
100
AcDbLine
 10
-350.9597976600058
 20
402.1613037114143
 30
0.0
 11
-349.9245214795958
 21
406.0250070165706
 31
0.0
  0
LINE
  5
41
330
1E
100
AcDbEntity
  8
1
 62
     7
100
AcDbLine
 10
-351.9257234862948
 20
402.4201227565169
 30
0.0
 11
-350.8904473058848
 21
406.2838260616731
 31
0.0
  0
LINE
  5
42
330
1E
100
AcDbEntity
  8
1
 62
     7
100
AcDbLine
 10
-352.4086863994394
 20
402.5495322790682
 30
0.0
 11
-351.3734102190293
 21
406.4132355842245
 31
0.0
  0
LINE
  5
43
330
1E
100
AcDbEntity
  8
1
 62
     7
100
AcDbLine
 10
-352.8916493125839
 20
402.6789418016193
 30
0.0
 11
-351.8563731321738
 21
406.5426451067756
 31
0.0
  0
LINE
  5
44
330
1E
100
AcDbEntity
  8
1
 62
     7
100
AcDbLine
 10
-358.5765581398616
 20
367.9396116537761
 30
0.0
 11
-349.5109089205722
 21
401.7730751437607
 31
0.0
  0
LINE
  5
45
330
1E
100
AcDbEntity
  8
1
 62
     7
100
AcDbLine
 10
-362.4402614450178
 20
368.9748878341863
 30
0.0
 11
-353.3746122257285
 21
402.8083513241707
 31
0.0
  0
LINE
  5
46
330
1E
100
AcDbEntity
  8
1
 62
     7
100
AcDbLine
 10
-353.3746122257285
 20
402.8083513241707
 30
0.0
 11
-349.5109089205722
 21
401.7730751437607
 31
0.0
  0
LINE
  5
47
330
1E
100
AcDbEntity
  8
1
 62
     7
100
AcDbLine
 10
-360.4984033861987
 20
368.4945941604736
 30
0.0
 11
-351.4427605731505
 21
402.2907132339656
 31
0.0
  0
LINE
  5
48
330
1E
100
AcDbEntity
  8
1
 62
     7
100
AcDbLine
 10
-64.90363769357621
 20
405.7661879714681
 30
0.0
 11
-63.86836151316614
 21
401.9024846663119
 31
0.0
  0
LINE
  5
49
330
1E
100
AcDbEntity
  8
1
 62
     7
100
AcDbLine
 10
-64.42067478043167
 20
405.8955974940194
 30
0.0
 11
-63.38539860002159
 21
402.0318941888631
 31
0.0
  0
LINE
  5
4A
330
1E
100
AcDbEntity
  8
1
 62
     7
100
AcDbLine
 10
-63.93771186728714
 20
406.0250070165706
 30
0.0
 11
-62.90243568687706
 21
402.1613037114143
 31
0.0
  0
LINE
  5
4B
330
1E
100
AcDbEntity
  8
1
 62
     7
100
AcDbLine
 10
-62.97178604099806
 20
406.2838260616731
 30
0.0
 11
-61.93650986058798
 21
402.4201227565169
 31
0.0
  0
LINE
  5
4C
330
1E
100
AcDbEntity
  8
1
 62
     7
100
AcDbLine
 10
-62.48882312785353
 20
406.4132355842245
 30
0.0
 11
-61.45354694744344
 21
402.5495322790682
 31
0.0
  0
LINE
  5
4D
330
1E
100
AcDbEntity
  8
1
 62
     7
100
AcDbLine
 10
-62.005860214709
 20
406.5426451067756
 30
0.0
 11
-60.9705840342989
 21
402.6789418016193
 31
0.0
  0
LINE
  5
4E
330
1E
100
AcDbEntity
  8
1
 62
     7
100
AcDbLine
 10
-64.35132442631061
 20
401.7730751437607
 30
0.0
 11
-56.12742879487342
 21
371.0810788110933
 31
0.0
  0
LINE
  5
4F
330
1E
100
AcDbEntity
  8
1
 62
     7
100
AcDbLine
 10
-60.48762112115436
 20
402.8083513241707
 30
0.0
 11
-52.26372548971716
 21
372.1163549915033
 31
0.0
  0
LINE
  5
50
330
1E
100
AcDbEntity
  8
1
 62
     7
100
AcDbLine
 10
-64.35132442631061
 20
401.7730751437607
 30
0.0
 11
-60.48762112115436
 21
402.8083513241707
 31
0.0
  0
LINE
  5
51
330
1E
100
AcDbEntity
  8
1
 62
     7
100
AcDbLine
 10
-224.2885462460799
 20
350.1829326500143
 30
0.0
 11
-224.2885462460799
 21
318.5079326500143
 31
0.0
  0
LINE
  5
52
330
1E
100
AcDbEntity
  8
1
 62
     7
100
AcDbLine
 10
-229.9385462460799
 20
318.5079326500143
 30
0.0
 11
-229.9385462460799
 21
353.5079326500143
 31
0.0
  0
LINE
  5
53
330
1E
100
AcDbEntity
  8
1
 62
     7
100
AcDbLine
 10
-238.8885462460798
 20
318.5079326500143
 30
0.0
 11
-238.8885462460798
 21
373.5079326500143
 31
0.0
  0
LINE
  5
54
330
1E
100
AcDbEntity
  8
1
 62
     7
100
AcDbLine
 10
-239.8885462460798
 20
318.5079326500143
 30
0.0
 11
-239.8885462460798
 21
373.5079326500143
 31
0.0
  0
LINE
  5
55
330
1E
100
AcDbEntity
  8
1
 62
     7
100
AcDbLine
 10
-243.9885462460798
 20
318.5079326500143
 30
0.0
 11
-243.9885462460798
 21
263.5079326500144
 31
0.0
  0
LINE
  5
56
330
1E
100
AcDbEntity
  8
1
 62
     7
100
AcDbLine
 10
-258.2885462460798
 20
318.5079326500143
 30
0.0
 11
-258.2885462460798
 21
264.5079326500144
 31
0.0
  0
LINE
  5
57
330
1E
100
AcDbEntity
  8
1
 62
     7
100
AcDbLine
 10
-278.2885462460798
 20
318.5079326500143
 30
0.0
 11
-278.2885462460798
 21
267.7579326500144
 31
0.0
  0
LINE
  5
58
330
1E
100
AcDbEntity
  8
1
 62
     7
100
AcDbLine
 10
-280.2885462460798
 20
318.5079326500143
 30
0.0
 11
-280.2885462460798
 21
283.0079326500143
 31
0.0
  0
LINE
  5
59
330
1E
100
AcDbEntity
  8
1
  6
DASHDOT
 62
     3
100
AcDbLine
 10
-286.213171489275
 20
318.5079326500143
 30
0.0
 11
-283.2885462460798
 21
318.5079326500143
 31
0.0
  0
LINE
  5
5A
330
1E
100
AcDbEntity
  8
1
 62
     7
100
AcDbLine
 10
-142.949613999931
 20
369.0079326500143
 30
0.0
 11
-133.0996139999309
 21
369.0079326500143
 31
0.0
  0
LINE
  5
5B
330
1E
100
AcDbEntity
  8
1
  6
DASHDOT
 62
     3
100
AcDbLine
 10
-21.22571836272006
 20
307.685948715133
 30
0.0
 11
-14.96547147614973
 21
304.0715934899781
 31
0.0
  0
LINE
  5
5C
330
1E
100
AcDbEntity
  8
1
  6
DASHDOT
 62
     3
100
AcDbLine
 10
-39.96994437662871
 20
296.8639647802516
 30
0.0
 11
-39.96994437662872
 21
289.6352543299418
 31
0.0
  0
LINE
  5
5D
330
1E
100
AcDbEntity
  8
1
  6
DASHDOT
 62
     3
100
AcDbLine
 10
-58.71417039053739
 20
307.6859487151328
 30
0.0
 11
-64.97441727710771
 21
304.0715934899779
 31
0.0
  0
LINE
  5
5E
330
1E
100
AcDbEntity
  8
1
  6
DASHDOT
 62
     3
100
AcDbLine
 10
-58.71417039053746
 20
329.3299165848956
 30
0.0
 11
-64.97441727710778
 21
332.9442718100506
 31
0.0
  0
LINE
  5
5F
330
1E
100
AcDbEntity
  8
1
  6
DASHDOT
 62
     3
100
AcDbLine
 10
-39.96994437662879
 20
340.1519005197769
 30
0.0
 11
-39.96994437662879
 21
347.3806109700868
 31
0.0
  0
LINE
  5
60
330
1E
100
AcDbEntity
  8
1
 62
     7
100
AcDbLine
 10
-224.9385462460799
 20
286.1829326500144
 30
0.0
 11
-224.2885462460799
 21
286.8329326500144
 31
0.0
  0
LINE
  5
61
330
1E
100
AcDbEntity
  8
1
 62
     7
100
AcDbLine
 10
-143.949613999931
 20
288.5079326500143
 30
0.0
 11
-130.949613999931
 21
288.5079326500143
 31
0.0
  0
LINE
  5
62
330
1E
100
AcDbEntity
  8
1
 62
     7
100
AcDbLine
 10
-142.6496139999311
 20
285.8329326500143
 30
0.0
 11
-142.949613999931
 21
285.8329326500143
 31
0.0
  0
LINE
  5
63
330
1E
100
AcDbEntity
  8
1
 62
     7
100
AcDbLine
 10
-143.949613999931
 20
291.0079326500143
 30
0.0
 11
-130.949613999931
 21
291.0079326500143
 31
0.0
  0
LINE
  5
64
330
1E
100
AcDbEntity
  8
1
 62
     7
100
AcDbLine
 10
-143.949613999931
 20
291.5079326500143
 30
0.0
 11
-130.949613999931
 21
291.5079326500143
 31
0.0
  0
LINE
  5
65
330
1E
100
AcDbEntity
  8
1
 62
     7
100
AcDbLine
 10
-143.949613999931
 20
295.5079326500143
 30
0.0
 11
-130.949613999931
 21
295.5079326500143
 31
0.0
  0
LINE
  5
66
330
1E
100
AcDbEntity
  8
1
 62
     7
100
AcDbLine
 10
-143.949613999931
 20
296.0079326500143
 30
0.0
 11
-130.949613999931
 21
296.0079326500143
 31
0.0
  0
LINE
  5
67
330
1E
100
AcDbEntity
  8
1
 62
     7
100
AcDbLine
 10
-138.949613999931
 20
308.5079326500143
 30
0.0
 11
-189.9496139999311
 21
308.5079326500143
 31
0.0
  0
LINE
  5
68
330
1E
100
AcDbEntity
  8
1
 62
     7
100
AcDbLine
 10
-138.949613999931
 20
305.0079326500143
 30
0.0
 11
-157.949613999931
 21
305.0079326500143
 31
0.0
  0
LINE
  5
69
330
1E
100
AcDbEntity
  8
1
 62
     7
100
AcDbLine
 10
-131.9496139999311
 20
285.8329326500143
 30
0.0
 11
-130.949613999931
 21
286.8329326500143
 31
0.0
  0
LINE
  5
6A
330
1E
100
AcDbEntity
  8
1
 62
     7
100
AcDbLine
 10
-142.949613999931
 20
351.1829326500143
 30
0.0
 11
-131.949613999931
 21
351.1829326500143
 31
0.0
  0
LINE
  5
6B
330
1E
100
AcDbEntity
  8
1
 62
     7
100
AcDbLine
 10
-224.9385462460799
 20
277.0079326500144
 30
0.0
 11
-229.9385462460799
 21
277.0079326500144
 31
0.0
  0
LINE
  5
6C
330
1E
100
AcDbEntity
  8
1
 62
     7
100
AcDbLine
 10
-224.9385462460799
 20
277.0079326500144
 30
0.0
 11
-224.9385462460799
 21
318.5079326500143
 31
0.0
  0
LINE
  5
6D
330
1E
100
AcDbEntity
  8
1
 62
     7
100
AcDbLine
 10
-239.8885462460798
 20
372.4573416294516
 30
0.0
 11
-238.8885462460798
 21
372.4573416294516
 31
0.0
  0
LINE
  5
6E
330
1E
100
AcDbEntity
  8
1
 62
     7
100
AcDbLine
 10
-232.7885462460798
 20
319.9498021837981
 30
0.0
 11
-232.7885462460798
 21
301.0934631153395
 31
0.0
  0
LINE
  5
6F
330
1E
100
AcDbEntity
  8
1
 62
     7
100
AcDbLine
 10
-233.7885462460798
 20
352.4465594614333
 30
0.0
 11
-233.7885462460798
 21
320.2780448367933
 31
0.0
  0
LINE
  5
70
330
1E
100
AcDbEntity
  8
1
 62
     7
100
AcDbLine
 10
-232.7885462460798
 20
284.8329326500144
 30
0.0
 11
-229.9385462460799
 21
284.8329326500144
 31
0.0
  0
LINE
  5
71
330
1E
100
AcDbEntity
  8
1
 62
     7
100
AcDbLine
 10
-231.9710678527116
 20
352.1829326500143
 30
0.0
 11
-229.9385462460799
 21
352.1829326500143
 31
0.0
  0
LINE
  5
72
330
1E
100
AcDbEntity
  8
1
 62
     7
100
AcDbLine
 10
-233.2885462460798
 20
359.0079326500143
 30
0.0
 11
-232.9385462460799
 21
359.0079326500143
 31
0.0
  0
LINE
  5
73
330
1E
100
AcDbEntity
  8
1
 62
     7
100
AcDbLine
 10
-232.5403493262326
 20
369.0079326500143
 30
0.0
 11
-234.2885462460798
 21
300.7579326500143
 31
0.0
  0
LINE
  5
74
330
1E
100
AcDbEntity
  8
1
 62
     7
100
AcDbLine
 10
-233.2885462460798
 20
300.7579326500143
 30
0.0
 11
-231.540021202864
 21
369.0079326500143
 31
0.0
  0
LINE
  5
75
330
1E
100
AcDbEntity
  8
1
 62
     3
100
AcDbLine
 10
-134.0496139999309
 20
366.5079326500143
 30
0.0
 11
-133.649613999931
 21
366.5079326500143
 31
0.0
  0
LINE
  5
76
330
1E
100
AcDbEntity
  8
1
 62
     3
100
AcDbLine
 10
-134.0496139999309
 20
361.5079326500143
 30
0.0
 11
-133.649613999931
 21
361.5079326500143
 31
0.0
  0
LINE
  5
77
330
1E
100
AcDbEntity
  8
1
 62
     7
100
AcDbLine
 10
-133.5496139999309
 20
366.0079326500143
 30
0.0
 11
-132.0996139999309
 21
366.0079326500143
 31
0.0
  0
LINE
  5
78
330
1E
100
AcDbEntity
  8
1
 62
     7
100
AcDbLine
 10
-133.5496139999309
 20
362.0079326500143
 30
0.0
 11
-132.0996139999309
 21
362.0079326500143
 31
0.0
  0
LINE
  5
79
330
1E
100
AcDbEntity
  8
1
 62
     3
100
AcDbLine
 10
-133.649613999931
 20
361.5079326500143
 30
0.0
 11
-132.0996139999309
 21
361.5079326500143
 31
0.0
  0
LINE
  5
7A
330
1E
100
AcDbEntity
  8
1
 62
     3
100
AcDbLine
 10
-133.649613999931
 20
366.5079326500143
 30
0.0
 11
-132.0996139999309
 21
366.5079326500143
 31
0.0
  0
LINE
  5
7B
330
1E
100
AcDbEntity
  8
1
 62
     7
100
AcDbLine
 10
-225.9385462460799
 20
369.0079326500143
 30
0.0
 11
-236.2885462460798
 21
369.0079326500143
 31
0.0
  0
LINE
  5
7C
330
1E
100
AcDbEntity
  8
1
 62
     7
100
AcDbLine
 10
-224.9385462460799
 20
318.5079326500143
 30
0.0
 11
-224.9385462460799
 21
368.0079326500143
 31
0.0
  0
LINE
  5
7D
330
1E
100
AcDbEntity
  8
1
 62
     7
100
AcDbLine
 10
-229.9385462460799
 20
303.9717878908081
 30
0.0
 11
-229.9385462460799
 21
318.5079326500143
 31
0.0
  0
LINE
  5
7E
330
1E
100
AcDbEntity
  8
1
 62
     7
100
AcDbLine
 10
-233.2885462460798
 20
300.7579326500143
 30
0.0
 11
-233.2885462460798
 21
301.1322071045499
 31
0.0
  0
LINE
  5
7F
330
1E
100
AcDbEntity
  8
1
 62
     7
100
AcDbLine
 10
-233.2885462460798
 20
290.2579326500143
 30
0.0
 11
-233.2885462460798
 21
289.5806551552869
 31
0.0
  0
LINE
  5
80
330
1E
100
AcDbEntity
  8
1
 62
     7
100
AcDbLine
 10
-236.2885462460798
 20
300.7579326500143
 30
0.0
 11
-234.2885462460798
 21
300.7579326500143
 31
0.0
  0
LINE
  5
81
330
1E
100
AcDbEntity
  8
1
 62
     7
100
AcDbLine
 10
-234.2885462460798
 20
300.7579326500143
 30
0.0
 11
-234.2885462460798
 21
290.2579326500143
 31
0.0
  0
LINE
  5
82
330
1E
100
AcDbEntity
  8
1
 62
     7
100
AcDbLine
 10
-233.2885462460798
 20
290.2579326500143
 30
0.0
 11
-236.2885462460798
 21
290.2579326500143
 31
0.0
  0
LINE
  5
83
330
1E
100
AcDbEntity
  8
1
 62
     7
100
AcDbLine
 10
-235.2885462460798
 20
290.2579326500143
 30
0.0
 11
-235.2885462460798
 21
300.7579326500143
 31
0.0
  0
LINE
  5
84
330
1E
100
AcDbEntity
  8
1
 62
     7
100
AcDbLine
 10
-233.2885462460798
 20
290.7579326500142
 30
0.0
 11
-233.2885462460798
 21
300.7579326500143
 31
0.0
  0
LINE
  5
85
330
1E
100
AcDbEntity
  8
1
 62
     7
100
AcDbLine
 10
-233.2885462460798
 20
291.0518023783508
 30
0.0
 11
-233.2885462460798
 21
290.2579326500143
 31
0.0
  0
LINE
  5
86
330
1E
100
AcDbEntity
  8
1
 62
     7
100
AcDbLine
 10
-229.9385462460799
 20
277.0079326500144
 30
0.0
 11
-229.9385462460799
 21
288.2579691078466
 31
0.0
  0
LINE
  5
87
330
1E
100
AcDbEntity
  8
1
 62
     7
100
AcDbLine
 10
-136.599613999931
 20
288.5079326500143
 30
0.0
 11
-136.599613999931
 21
278.5079326500143
 31
0.0
  0
LINE
  5
88
330
1E
100
AcDbEntity
  8
1
 62
     7
100
AcDbLine
 10
-360.8922889702539
 20
354.5079326500143
 30
0.0
 11
-386.8922889702541
 21
354.5079326500143
 31
0.0
  0
LINE
  5
89
330
1E
100
AcDbEntity
  8
1
 62
     7
100
AcDbLine
 10
-360.8922889702539
 20
362.5079326500143
 30
0.0
 11
-360.8922889702539
 21
354.5079326500143
 31
0.0
  0
LINE
  5
8A
330
1E
100
AcDbEntity
  8
1
 62
     7
100
AcDbLine
 10
-363.8922889702539
 20
364.5079326500143
 30
0.0
 11
-362.8922889702539
 21
364.5079326500143
 31
0.0
  0
LINE
  5
8B
330
1E
100
AcDbEntity
  8
1
 62
     7
100
AcDbLine
 10
-365.8922889702539
 20
387.5079326500143
 30
0.0
 11
-365.8922889702539
 21
366.5079326500143
 31
0.0
  0
LINE
  5
8C
330
1E
100
AcDbEntity
  8
1
 62
     7
100
AcDbLine
 10
-379.8922889702541
 20
389.5079326500143
 30
0.0
 11
-367.8922889702539
 21
389.5079326500143
 31
0.0
  0
LINE
  5
8D
330
1E
100
AcDbEntity
  8
1
 62
     7
100
AcDbLine
 10
-381.8922889702541
 20
366.5079326500143
 30
0.0
 11
-381.8922889702541
 21
387.5079326500143
 31
0.0
  0
LINE
  5
8E
330
1E
100
AcDbEntity
  8
1
 62
     7
100
AcDbLine
 10
-384.8922889702541
 20
364.5079326500143
 30
0.0
 11
-383.8922889702541
 21
364.5079326500143
 31
0.0
  0
LINE
  5
8F
330
1E
100
AcDbEntity
  8
1
 62
     7
100
AcDbLine
 10
-386.8922889702541
 20
354.5079326500143
 30
0.0
 11
-386.8922889702541
 21
362.5079326500143
 31
0.0
  0
LINE
  5
90
330
1E
100
AcDbEntity
  8
1
 62
     7
100
AcDbLine
 10
-376.8922889702539
 20
299.7109941933151
 30
0.0
 11
-378.8922889702539
 21
299.7109941933151
 31
0.0
  0
LINE
  5
91
330
1E
100
AcDbEntity
  8
1
 62
     7
100
AcDbLine
 10
-376.8922889702539
 20
303.8109941933153
 30
0.0
 11
-376.8922889702539
 21
299.7109941933151
 31
0.0
  0
LINE
  5
92
330
1E
100
AcDbEntity
  8
1
 62
     7
100
AcDbLine
 10
-370.8922889702539
 20
299.7109941933151
 30
0.0
 11
-368.8922889702539
 21
299.7109941933151
 31
0.0
  0
LINE
  5
93
330
1E
100
AcDbEntity
  8
1
 62
     7
100
AcDbLine
 10
-370.8922889702539
 20
303.8109941933153
 30
0.0
 11
-370.8922889702539
 21
299.7109941933151
 31
0.0
  0
LINE
  5
94
330
1E
100
AcDbEntity
  8
1
 62
     7
100
AcDbLine
 10
-380.8922889702539
 20
301.7109941933151
 30
0.0
 11
-380.8922889702539
 21
302.3378202908321
 31
0.0
  0
LINE
  5
95
330
1E
100
AcDbEntity
  8
1
 62
     7
100
AcDbLine
 10
-366.8922889702539
 20
301.7109941933151
 30
0.0
 11
-366.8922889702539
 21
302.3378202908321
 31
0.0
  0
LINE
  5
96
330
1E
100
AcDbEntity
  8
1
  6
DASHDOT
 62
     3
100
AcDbLine
 10
-373.8922889702539
 20
327.0264798077953
 30
0.0
 11
-373.8922889702539
 21
309.9893854922333
 31
0.0
  0
LINE
  5
97
330
1E
100
AcDbEntity
  8
1
  6
DASHDOT
 62
     3
100
AcDbLine
 10
-365.3737418124729
 20
318.5079326500143
 30
0.0
 11
-382.410836128035
 21
318.5079326500143
 31
0.0
  0
LINE
  5
98
330
1E
100
AcDbEntity
  8
1
  6
DASHDOT
 62
     3
100
AcDbLine
 10
-373.8922889702539
 20
387.1381522014408
 30
0.0
 11
-373.8922889702539
 21
379.8777130985877
 31
0.0
  0
LINE
  5
99
330
1E
100
AcDbEntity
  8
1
  6
DASHDOT
 62
     3
100
AcDbLine
 10
-370.2620694188275
 20
383.5079326500143
 30
0.0
 11
-377.5225085216805
 21
383.5079326500143
 31
0.0
  0
LINE
  5
9A
330
1E
100
AcDbEntity
  8
1
 62
     7
100
AcDbLine
 10
-280.2885462460798
 20
333.5079326500143
 30
0.0
 11
-282.2885462460798
 21
333.5079326500143
 31
0.0
  0
LINE
  5
9B
330
1E
100
AcDbEntity
  8
1
 62
     7
100
AcDbLine
 10
-280.2885462460798
 20
354.0079326500143
 30
0.0
 11
-280.2885462460798
 21
318.5079326500143
 31
0.0
  0
LINE
  5
9C
330
1E
100
AcDbEntity
  8
1
 62
     7
100
AcDbLine
 10
-280.2885462460798
 20
354.0079326500143
 30
0.0
 11
-278.2885462460798
 21
354.0079326500143
 31
0.0
  0
LINE
  5
9D
330
1E
100
AcDbEntity
  8
1
 62
     7
100
AcDbLine
 10
-277.2885462460798
 20
370.2579326500143
 30
0.0
 11
-278.2885462460798
 21
369.2579326500143
 31
0.0
  0
LINE
  5
9E
330
1E
100
AcDbEntity
  8
1
 62
     7
100
AcDbLine
 10
-244.2885462460798
 20
373.5079326500143
 30
0.0
 11
-244.2885462460798
 21
318.5079326500143
 31
0.0
  0
LINE
  5
9F
330
1E
100
AcDbEntity
  8
1
 62
     7
100
AcDbLine
 10
-244.2885462460798
 20
373.5079326500143
 30
0.0
 11
-257.2885462460798
 21
373.5079326500143
 31
0.0
  0
LINE
  5
A0
330
1E
100
AcDbEntity
  8
1
 62
     7
100
AcDbLine
 10
-258.2885462460798
 20
372.5079326500143
 30
0.0
 11
-258.2885462460798
 21
318.5079326500143
 31
0.0
  0
LINE
  5
A1
330
1E
100
AcDbEntity
  8
1
 62
     7
100
AcDbLine
 10
-283.2885462460798
 20
332.5079326500143
 30
0.0
 11
-283.2885462460798
 21
318.5079326500143
 31
0.0
  0
LINE
  5
A2
330
1E
100
AcDbEntity
  8
1
 62
     7
100
AcDbLine
 10
-283.2885462460798
 20
332.5079326500143
 30
0.0
 11
-282.2885462460798
 21
333.5079326500143
 31
0.0
  0
LINE
  5
A3
330
1E
100
AcDbEntity
  8
1
 62
     7
100
AcDbLine
 10
-258.2885462460798
 20
372.5079326500143
 30
0.0
 11
-257.2885462460798
 21
373.5079326500143
 31
0.0
  0
LINE
  5
A4
330
1E
100
AcDbEntity
  8
1
 62
     7
100
AcDbLine
 10
-243.9885462460798
 20
373.5079326500143
 30
0.0
 11
-243.9885462460798
 21
318.5079326500143
 31
0.0
  0
LINE
  5
A5
330
1E
100
AcDbEntity
  8
1
 62
     7
100
AcDbLine
 10
-243.9885462460798
 20
373.5079326500143
 30
0.0
 11
-239.8885462460798
 21
373.5079326500143
 31
0.0
  0
LINE
  5
A6
330
1E
100
AcDbEntity
  8
1
 62
     7
100
AcDbLine
 10
-236.2885462460798
 20
373.5079326500143
 30
0.0
 11
-236.2885462460798
 21
318.5079326500143
 31
0.0
  0
LINE
  5
A7
330
1E
100
AcDbEntity
  8
1
 62
     7
100
AcDbLine
 10
-234.2885462460798
 20
369.0079326500143
 30
0.0
 11
-234.2885462460798
 21
358.5079326500143
 31
0.0
  0
LINE
  5
A8
330
1E
100
AcDbEntity
  8
1
 62
     7
100
AcDbLine
 10
-235.2885462460798
 20
358.5079326500143
 30
0.0
 11
-235.2885462460798
 21
369.0079326500143
 31
0.0
  0
LINE
  5
A9
330
1E
100
AcDbEntity
  8
1
 62
     7
100
AcDbLine
 10
-233.2885462460798
 20
358.5079326500143
 30
0.0
 11
-233.2885462460798
 21
369.0079326500143
 31
0.0
  0
LINE
  5
AA
330
1E
100
AcDbEntity
  8
1
 62
     7
100
AcDbLine
 10
-230.9385462460799
 20
357.0079326500143
 30
0.0
 11
-230.9385462460799
 21
354.5079326500143
 31
0.0
  0
LINE
  5
AB
330
1E
100
AcDbEntity
  8
1
 62
     7
100
AcDbLine
 10
-224.2885462460799
 20
350.1829326500143
 30
0.0
 11
-224.9385462460799
 21
350.8329326500144
 31
0.0
  0
LINE
  5
AC
330
1E
100
AcDbEntity
  8
1
 62
     7
100
AcDbLine
 10
-224.9385462460799
 20
368.0079326500143
 30
0.0
 11
-225.9385462460799
 21
369.0079326500143
 31
0.0
  0
LINE
  5
AD
330
1E
100
AcDbEntity
  8
1
 62
     7
100
AcDbLine
 10
-236.2885462460798
 20
357.5079326500143
 30
0.0
 11
-235.3123609571901
 21
357.5079326500143
 31
0.0
  0
LINE
  5
AE
330
1E
100
AcDbEntity
  8
1
 62
     7
100
AcDbLine
 10
-233.7885462460798
 20
356.1617230900461
 30
0.0
 11
-233.7885462460798
 21
352.4465594614333
 31
0.0
  0
LINE
  5
AF
330
1E
100
AcDbEntity
  8
1
 62
     7
100
AcDbLine
 10
-233.400037776596
 20
352.1829326500143
 30
0.0
 11
-232.9713959760803
 21
352.1829326500143
 31
0.0
  0
LINE
  5
B0
330
1E
100
AcDbEntity
  8
1
 62
     7
100
AcDbLine
 10
-236.2885462460798
 20
358.5079326500143
 30
0.0
 11
-233.2885462460798
 21
358.5079326500143
 31
0.0
  0
LINE
  5
B1
330
1E
100
AcDbEntity
  8
1
 62
     7
100
AcDbLine
 10
-232.7885462460798
 20
283.5079326500143
 30
0.0
 11
-233.7885462460798
 21
283.5079326500143
 31
0.0
  0
LINE
  5
B2
330
1E
100
AcDbEntity
  8
1
 62
     7
100
AcDbLine
 10
-235.3123609571901
 20
279.5079326500144
 30
0.0
 11
-236.2885462460798
 21
279.5079326500144
 31
0.0
  0
LINE
  5
B3
330
1E
100
AcDbEntity
  8
1
 62
     7
100
AcDbLine
 10
-224.2885462460799
 20
318.5079326500143
 30
0.0
 11
-224.2885462460799
 21
286.8329326500144
 31
0.0
  0
LINE
  5
B4
330
1E
100
AcDbEntity
  8
1
 62
     7
100
AcDbLine
 10
-238.8885462460798
 20
318.5079326500143
 30
0.0
 11
-238.8885462460798
 21
263.5079326500144
 31
0.0
  0
LINE
  5
B5
330
1E
100
AcDbEntity
  8
1
 62
     7
100
AcDbLine
 10
-236.2885462460798
 20
282.5079326500143
 30
0.0
 11
-238.8885462460798
 21
282.5079326500143
 31
0.0
  0
LINE
  5
B6
330
1E
100
AcDbEntity
  8
1
 62
     7
100
AcDbLine
 10
-236.2885462460798
 20
318.5079326500143
 30
0.0
 11
-236.2885462460798
 21
263.5079326500144
 31
0.0
  0
LINE
  5
B7
330
1E
100
AcDbEntity
  8
1
 62
     7
100
AcDbLine
 10
-236.2885462460798
 20
263.5079326500144
 30
0.0
 11
-238.8885462460798
 21
263.5079326500144
 31
0.0
  0
LINE
  5
B8
330
1E
100
AcDbEntity
  8
1
 62
     7
100
AcDbLine
 10
-257.2885462460798
 20
263.5079326500144
 30
0.0
 11
-258.2885462460798
 21
264.5079326500144
 31
0.0
  0
LINE
  5
B9
330
1E
100
AcDbEntity
  8
1
 62
     7
100
AcDbLine
 10
-282.2885462460798
 20
303.5079326500143
 30
0.0
 11
-283.2885462460798
 21
304.5079326500143
 31
0.0
  0
LINE
  5
BA
330
1E
100
AcDbEntity
  8
1
 62
     7
100
AcDbLine
 10
-282.2885462460798
 20
303.5079326500143
 30
0.0
 11
-280.2885462460798
 21
303.5079326500143
 31
0.0
  0
LINE
  5
BB
330
1E
100
AcDbEntity
  8
1
 62
     7
100
AcDbLine
 10
-257.2885462460798
 20
263.5079326500144
 30
0.0
 11
-244.2885462460798
 21
263.5079326500144
 31
0.0
  0
LINE
  5
BC
330
1E
100
AcDbEntity
  8
1
 62
     7
100
AcDbLine
 10
-244.2885462460798
 20
318.5079326500143
 30
0.0
 11
-244.2885462460798
 21
263.5079326500144
 31
0.0
  0
LINE
  5
BD
330
1E
100
AcDbEntity
  8
1
 62
     7
100
AcDbLine
 10
-283.2885462460798
 20
304.5079326500143
 30
0.0
 11
-283.2885462460798
 21
318.5079326500143
 31
0.0
  0
LINE
  5
BE
330
1E
100
AcDbEntity
  8
1
 62
     7
100
AcDbLine
 10
-278.2885462460798
 20
267.7579326500144
 30
0.0
 11
-277.2885462460798
 21
266.7579326500144
 31
0.0
  0
LINE
  5
BF
330
1E
100
AcDbEntity
  8
1
 62
     7
100
AcDbLine
 10
-277.2885462460798
 20
266.7579326500144
 30
0.0
 11
-258.2885462460798
 21
266.7579326500144
 31
0.0
  0
LINE
  5
C0
330
1E
100
AcDbEntity
  8
1
 62
     7
100
AcDbLine
 10
-278.2885462460798
 20
283.0079326500143
 30
0.0
 11
-280.2885462460798
 21
283.0079326500143
 31
0.0
  0
LINE
  5
C1
330
1E
100
AcDbEntity
  8
1
 62
     7
100
AcDbLine
 10
-233.7885462460798
 20
290.2579326500143
 30
0.0
 11
-233.7885462460798
 21
268.0079326500144
 31
0.0
  0
LINE
  5
C2
330
1E
100
AcDbEntity
  8
1
 62
     7
100
AcDbLine
 10
-232.7885462460798
 20
289.5824984529768
 30
0.0
 11
-232.7885462460798
 21
268.0079326500144
 31
0.0
  0
LINE
  5
C3
330
1E
100
AcDbEntity
  8
1
 62
     7
100
AcDbLine
 10
-233.7885462460798
 20
268.0079326500144
 30
0.0
 11
-232.7885462460798
 21
268.0079326500144
 31
0.0
  0
LINE
  5
C4
330
1E
100
AcDbEntity
  8
1
 62
     7
100
AcDbLine
 10
-239.8885462460798
 20
263.5079326500144
 30
0.0
 11
-239.8885462460798
 21
318.5079326500143
 31
0.0
  0
LINE
  5
C5
330
1E
100
AcDbEntity
  8
1
 62
     7
100
AcDbLine
 10
-280.2885462460798
 20
354.0079326500143
 30
0.0
 11
-280.2885462460798
 21
389.5079326500143
 31
0.0
  0
LINE
  5
C6
330
1E
100
AcDbEntity
  8
1
 62
     7
100
AcDbLine
 10
-280.2885462460798
 20
389.5079326500143
 30
0.0
 11
-278.2885462460798
 21
389.5079326500143
 31
0.0
  0
LINE
  5
C7
330
1E
100
AcDbEntity
  8
1
 62
     7
100
AcDbLine
 10
-278.2885462460798
 20
389.5079326500143
 30
0.0
 11
-278.2885462460798
 21
318.5079326500143
 31
0.0
  0
LINE
  5
C8
330
1E
100
AcDbEntity
  8
1
  6
DASHDOT
 62
     3
100
AcDbLine
 10
-281.3618407241593
 20
383.5079326500143
 30
0.0
 11
-277.246057226133
 21
383.5079326500143
 31
0.0
  0
LINE
  5
C9
330
1E
100
AcDbEntity
  8
1
 62
     7
100
AcDbLine
 10
-258.2885462460798
 20
370.2579326500143
 30
0.0
 11
-277.2885462460798
 21
370.2579326500143
 31
0.0
  0
LINE
  5
CA
330
1E
100
AcDbEntity
  8
1
 62
     7
100
AcDbLine
 10
-238.8885462460798
 20
373.5079326500143
 30
0.0
 11
-236.2885462460798
 21
373.5079326500143
 31
0.0
  0
LINE
  5
CB
330
1E
100
AcDbEntity
  8
1
 62
     7
100
AcDbLine
 10
-239.8885462460798
 20
264.0079326500142
 30
0.0
 11
-238.8885462460798
 21
264.0079326500142
 31
0.0
  0
LINE
  5
CC
330
1E
100
AcDbEntity
  8
1
 62
     7
100
AcDbLine
 10
-239.8885462460798
 20
263.5079326500144
 30
0.0
 11
-243.9885462460798
 21
263.5079326500144
 31
0.0
  0
LINE
  5
CD
330
1E
100
AcDbEntity
  8
1
 62
     7
100
AcDbLine
 10
-189.9496139999311
 20
328.5079326500143
 30
0.0
 11
-138.949613999931
 21
328.5079326500143
 31
0.0
  0
LINE
  5
CE
330
1E
100
AcDbEntity
  8
1
 62
     7
100
AcDbLine
 10
-189.9496139999311
 20
330.5079326500143
 30
0.0
 11
-157.949613999931
 21
330.5079326500143
 31
0.0
  0
LINE
  5
CF
330
1E
100
AcDbEntity
  8
1
 62
     7
100
AcDbLine
 10
-184.9496139999311
 20
333.5079326500143
 30
0.0
 11
-171.9496139999311
 21
333.5079326500143
 31
0.0
  0
LINE
  5
D0
330
1E
100
AcDbEntity
  8
1
  6
DASHDOT
 62
     3
100
AcDbLine
 10
-39.96994437662875
 20
387.1381522014408
 30
0.0
 11
-39.96994437662875
 21
379.8777130985877
 31
0.0
  0
LINE
  5
D1
330
1E
100
AcDbEntity
  8
1
  6
DASHDOT
 62
     3
100
AcDbLine
 10
-36.33972482520228
 20
383.5079326500143
 30
0.0
 11
-43.60016392805523
 21
383.5079326500143
 31
0.0
  0
LINE
  5
D2
330
1E
100
AcDbEntity
  8
1
 62
     7
100
AcDbLine
 10
-140.4496139999309
 20
280.5079326500144
 30
0.0
 11
-140.4496139999309
 21
280.7686836838566
 31
0.0
  0
LINE
  5
D3
330
1E
100
AcDbEntity
  8
1
 62
     7
100
AcDbLine
 10
-53.04030615430605
 20
367.2871868776123
 30
0.0
 11
-50.6754757047511
 21
358.4615194885872
 31
0.0
  0
LINE
  5
D4
330
1E
100
AcDbEntity
  8
1
 62
     7
100
AcDbLine
 10
-75.67883682654946
 20
282.7990402000937
 30
0.0
 11
-69.21799988707935
 21
289.2598771395636
 31
0.0
  0
LINE
  5
D5
330
1E
100
AcDbEntity
  8
1
 62
     7
100
AcDbLine
 10
8.809309850969199
 20
305.4375708723369
 30
0.0
 11
-0.0163575380558712
 21
307.8024013218918
 31
0.0
  0
LINE
  5
D6
330
1E
100
AcDbEntity
  8
1
 62
     7
100
AcDbLine
 10
-47.96994437662876
 20
372.9230040916655
 30
0.0
 11
-47.96994437662876
 21
387.5079326500143
 31
0.0
  0
LINE
  5
D7
330
1E
100
AcDbEntity
  8
1
 62
     7
100
AcDbLine
 10
-45.96994437662876
 20
389.5079326500143
 30
0.0
 11
-33.96994437662876
 21
389.5079326500143
 31
0.0
  0
LINE
  5
D8
330
1E
100
AcDbEntity
  8
1
 62
     7
100
AcDbLine
 10
-31.96994437662876
 20
387.5079326500143
 30
0.0
 11
-31.96994437662876
 21
372.9230040916655
 31
0.0
  0
LINE
  5
D9
330
1E
100
AcDbEntity
  8
1
 62
     7
100
AcDbLine
 10
-9.32816665186964
 20
344.2194370374758
 30
0.0
 11
-9.068281937134832
 21
344.4375062057584
 31
0.0
  0
LINE
  5
DA
330
1E
100
AcDbEntity
  8
1
 62
     7
100
AcDbLine
 10
-77.55764920806509
 20
332.1887383830411
 30
0.0
 11
-77.8764450049474
 21
332.3047705639154
 31
0.0
  0
LINE
  5
DB
330
1E
100
AcDbEntity
  8
1
 62
     7
100
AcDbLine
 10
-33.02401726995159
 20
279.1156225295259
 30
0.0
 11
-32.9651061878041
 21
278.7815211803691
 31
0.0
  0
LINE
  5
DC
330
1E
100
AcDbEntity
  8
1
 62
     7
100
AcDbLine
 10
-186.9496139999311
 20
354.0079326500143
 30
0.0
 11
-184.9496139999311
 21
354.0079326500143
 31
0.0
  0
LINE
  5
DD
330
1E
100
AcDbEntity
  8
1
 62
     7
100
AcDbLine
 10
-184.9496139999311
 20
354.0079326500143
 30
0.0
 11
-184.9496139999311
 21
369.2579326500143
 31
0.0
  0
LINE
  5
DE
330
1E
100
AcDbEntity
  8
1
 62
     7
100
AcDbLine
 10
-158.949613999931
 20
370.2579326500143
 30
0.0
 11
-183.9496139999311
 21
370.2579326500143
 31
0.0
  0
LINE
  5
DF
330
1E
100
AcDbEntity
  8
1
 62
     7
100
AcDbLine
 10
-158.949613999931
 20
346.0079326500143
 30
0.0
 11
-169.949613999931
 21
346.0079326500143
 31
0.0
  0
LINE
  5
E0
330
1E
100
AcDbEntity
  8
1
 62
     7
100
AcDbLine
 10
-186.9496139999311
 20
342.5079326500143
 30
0.0
 11
-184.9496139999311
 21
342.5079326500143
 31
0.0
  0
LINE
  5
E1
330
1E
100
AcDbEntity
  8
1
 62
     7
100
AcDbLine
 10
-171.9496139999311
 20
347.5079326500143
 30
0.0
 11
-169.949613999931
 21
347.5079326500143
 31
0.0
  0
LINE
  5
E2
330
1E
100
AcDbEntity
  8
1
 62
     7
100
AcDbLine
 10
-169.949613999931
 20
347.5079326500143
 30
0.0
 11
-169.949613999931
 21
341.0079326500143
 31
0.0
  0
LINE
  5
E3
330
1E
100
AcDbEntity
  8
1
 62
     7
100
AcDbLine
 10
-183.9496139999311
 20
370.2579326500143
 30
0.0
 11
-184.9496139999311
 21
369.2579326500143
 31
0.0
  0
LINE
  5
E4
330
1E
100
AcDbEntity
  8
1
 62
     7
100
AcDbLine
 10
-186.9496139999311
 20
337.2187492142363
 30
0.0
 11
-186.9496139999311
 21
354.0079326500143
 31
0.0
  0
LINE
  5
E5
330
1E
100
AcDbEntity
  8
1
 62
     7
100
AcDbLine
 10
-176.5746139999311
 20
343.005527914206
 30
0.0
 11
-171.9496139999311
 21
343.0055279142058
 31
0.0
  0
LINE
  5
E6
330
1E
100
AcDbEntity
  8
1
 62
     7
100
AcDbLine
 10
-180.3246139999311
 20
343.005527914206
 30
0.0
 11
-184.9496139999311
 21
343.0055279142058
 31
0.0
  0
LINE
  5
E7
330
1E
100
AcDbEntity
  8
1
 62
     7
100
AcDbLine
 10
-176.5746139999311
 20
336.5103373858226
 30
0.0
 11
-171.9496139999311
 21
336.5103373858226
 31
0.0
  0
LINE
  5
E8
330
1E
100
AcDbEntity
  8
1
 62
     7
100
AcDbLine
 10
-173.395063381132
 20
343.5668801289446
 30
0.0
 11
-173.395063381132
 21
335.3378215358044
 31
0.0
  0
LINE
  5
E9
330
1E
100
AcDbEntity
  8
1
 62
     7
100
AcDbLine
 10
-183.2699336929003
 20
343.6844381088465
 30
0.0
 11
-183.2699336929003
 21
335.8080534554123
 31
0.0
  0
LINE
  5
EA
330
1E
100
AcDbEntity
  8
1
 62
     7
100
AcDbLine
 10
-157.949613999931
 20
340.5079326500143
 30
0.0
 11
-154.449613999931
 21
340.5079326500143
 31
0.0
  0
LINE
  5
EB
330
1E
100
AcDbEntity
  8
1
 62
     7
100
AcDbLine
 10
-152.449613999931
 20
354.5079326500143
 30
0.0
 11
-152.449613999931
 21
342.5079326500143
 31
0.0
  0
LINE
  5
EC
330
1E
100
AcDbEntity
  8
1
 62
     7
100
AcDbLine
 10
-152.449613999931
 20
354.5079326500143
 30
0.0
 11
-150.949613999931
 21
354.5079326500143
 31
0.0
  0
LINE
  5
ED
330
1E
100
AcDbEntity
  8
1
 62
     7
100
AcDbLine
 10
-152.449613999931
 20
342.5079326500143
 30
0.0
 11
-154.449613999931
 21
340.5079326500143
 31
0.0
  0
LINE
  5
EE
330
1E
100
AcDbEntity
  8
1
 62
     7
100
AcDbLine
 10
-150.9496139999309
 20
373.5079326500143
 30
0.0
 11
-163.949613999931
 21
373.5079326500143
 31
0.0
  0
LINE
  5
EF
330
1E
100
AcDbEntity
  8
1
 62
     7
100
AcDbLine
 10
-164.949613999931
 20
371.0079326500143
 30
0.0
 11
-164.9496139999309
 21
372.5079326500143
 31
0.0
  0
LINE
  5
F0
330
1E
100
AcDbEntity
  8
1
 62
     7
100
AcDbLine
 10
-164.949613999931
 20
371.0079326500143
 30
0.0
 11
-156.949613999931
 21
371.0079326500143
 31
0.0
  0
LINE
  5
F1
330
1E
100
AcDbEntity
  8
1
 62
     7
100
AcDbLine
 10
-156.949613999931
 20
345.2079326500143
 30
0.0
 11
-168.449613999931
 21
345.2079326500143
 31
0.0
  0
LINE
  5
F2
330
1E
100
AcDbEntity
  8
1
 62
     7
100
AcDbLine
 10
-168.449613999931
 20
345.2079326500143
 30
0.0
 11
-168.449613999931
 21
339.5079326500143
 31
0.0
  0
LINE
  5
F3
330
1E
100
AcDbEntity
  8
1
 62
     7
100
AcDbLine
 10
-168.449613999931
 20
339.5079326500143
 30
0.0
 11
-169.949613999931
 21
339.5079326500143
 31
0.0
  0
LINE
  5
F4
330
1E
100
AcDbEntity
  8
1
 62
     7
100
AcDbLine
 10
-169.949613999931
 20
339.5079326500143
 30
0.0
 11
-171.9496139999311
 21
337.5079326500143
 31
0.0
  0
LINE
  5
F5
330
1E
100
AcDbEntity
  8
1
 62
     7
100
AcDbLine
 10
-169.949613999931
 20
342.9537180035566
 30
0.0
 11
-171.9496139999311
 21
342.9537180035566
 31
0.0
  0
LINE
  5
F6
330
1E
100
AcDbEntity
  8
1
 62
     7
100
AcDbLine
 10
-180.3246139999311
 20
336.5103373858226
 30
0.0
 11
-184.9496139999311
 21
336.5103373858226
 31
0.0
  0
LINE
  5
F7
330
1E
100
AcDbEntity
  8
1
 62
     7
100
AcDbLine
 10
-186.449613999931
 20
336.5103373858226
 30
0.0
 11
-186.449613999931
 21
332.5079326500143
 31
0.0
  0
LINE
  5
F8
330
1E
100
AcDbEntity
  8
1
 62
     7
100
AcDbLine
 10
-186.449613999931
 20
332.5079326500143
 30
0.0
 11
-184.9496139999311
 21
332.5079326500143
 31
0.0
  0
LINE
  5
F9
330
1E
100
AcDbEntity
  8
1
 62
     7
100
AcDbLine
 10
-186.449613999931
 20
333.5079326500143
 30
0.0
 11
-188.9496139999311
 21
333.5079326500143
 31
0.0
  0
LINE
  5
FA
330
1E
100
AcDbEntity
  8
1
 62
     7
100
AcDbLine
 10
-189.9496139999311
 20
332.5079326500143
 30
0.0
 11
-188.9496139999311
 21
333.5079326500143
 31
0.0
  0
LINE
  5
FB
330
1E
100
AcDbEntity
  8
1
 62
     7
100
AcDbLine
 10
-164.9496139999309
 20
372.5079326500143
 30
0.0
 11
-163.949613999931
 21
373.5079326500143
 31
0.0
  0
LINE
  5
FC
330
1E
100
AcDbEntity
  8
1
 62
     7
100
AcDbLine
 10
-156.949613999931
 20
345.2079326500143
 30
0.0
 11
-156.949613999931
 21
371.0079326500143
 31
0.0
  0
LINE
  5
FD
330
1E
100
AcDbEntity
  8
1
 62
     7
100
AcDbLine
 10
-157.949613999931
 20
332.0079326500143
 30
0.0
 11
-138.949613999931
 21
332.0079326500143
 31
0.0
  0
LINE
  5
FE
330
1E
100
AcDbEntity
  8
1
 62
     7
100
AcDbLine
 10
-150.649613999931
 20
373.5079326500143
 30
0.0
 11
-146.5496139999309
 21
373.5079326500143
 31
0.0
  0
LINE
  5
FF
330
1E
100
AcDbEntity
  8
1
 62
     7
100
AcDbLine
 10
-142.949613999931
 20
373.5079326500143
 30
0.0
 11
-142.949613999931
 21
366.5079326500143
 31
0.0
  0
LINE
  5
100
330
1E
100
AcDbEntity
  8
1
 62
     7
100
AcDbLine
 10
-150.649613999931
 20
354.5079326500143
 30
0.0
 11
-146.5496139999309
 21
354.5079326500143
 31
0.0
  0
LINE
  5
101
330
1E
100
AcDbEntity
  8
1
 62
     7
100
AcDbLine
 10
-150.649613999931
 20
373.5079326500143
 30
0.0
 11
-150.6496139999313
 21
334.0079326500143
 31
0.0
  0
LINE
  5
102
330
1E
100
AcDbEntity
  8
1
 62
     7
100
AcDbLine
 10
-146.8371061776501
 20
368.5079326500143
 30
0.0
 11
-145.849613999931
 21
368.5079326500143
 31
0.0
  0
LINE
  5
103
330
1E
100
AcDbEntity
  8
1
 62
     7
100
AcDbLine
 10
-145.5496139999309
 20
368.2079326500143
 30
0.0
 11
-145.5496139999309
 21
359.8079326500143
 31
0.0
  0
LINE
  5
104
330
1E
100
AcDbEntity
  8
1
 62
     7
100
AcDbLine
 10
-146.8371061776501
 20
359.5079326500143
 30
0.0
 11
-145.849613999931
 21
359.5079326500143
 31
0.0
  0
LINE
  5
105
330
1E
100
AcDbEntity
  8
1
 62
     7
100
AcDbLine
 10
-145.5496139999309
 20
366.5079326500143
 30
0.0
 11
-134.0496139999309
 21
366.5079326500143
 31
0.0
  0
LINE
  5
106
330
1E
100
AcDbEntity
  8
1
 62
     7
100
AcDbLine
 10
-134.0496139999309
 20
366.5079326500143
 30
0.0
 11
-133.5496139999309
 21
366.0079326500143
 31
0.0
  0
LINE
  5
107
330
1E
100
AcDbEntity
  8
1
 62
     7
100
AcDbLine
 10
-133.5496139999309
 20
366.0079326500143
 30
0.0
 11
-133.5496139999309
 21
362.0079326500143
 31
0.0
  0
LINE
  5
108
330
1E
100
AcDbEntity
  8
1
 62
     7
100
AcDbLine
 10
-133.5496139999309
 20
362.0079326500143
 30
0.0
 11
-134.0496139999309
 21
361.5079326500143
 31
0.0
  0
LINE
  5
109
330
1E
100
AcDbEntity
  8
1
 62
     7
100
AcDbLine
 10
-134.0496139999309
 20
361.5079326500143
 30
0.0
 11
-145.5496139999309
 21
361.5079326500143
 31
0.0
  0
LINE
  5
10A
330
1E
100
AcDbEntity
  8
1
 62
     7
100
AcDbLine
 10
-134.0496139999309
 20
366.5079326500143
 30
0.0
 11
-134.0496139999309
 21
361.5079326500143
 31
0.0
  0
LINE
  5
10B
330
1E
100
AcDbEntity
  8
1
 62
     3
100
AcDbLine
 10
-133.5496139999309
 20
366.0079326500143
 30
0.0
 11
-144.1835885961465
 21
366.0079326500143
 31
0.0
  0
LINE
  5
10C
330
1E
100
AcDbEntity
  8
1
 62
     3
100
AcDbLine
 10
-144.1835885961465
 20
366.0079326500143
 30
0.0
 11
-145.0496139999309
 21
366.5079326500143
 31
0.0
  0
LINE
  5
10D
330
1E
100
AcDbEntity
  8
1
 62
     3
100
AcDbLine
 10
-133.5496139999309
 20
362.0079326500143
 30
0.0
 11
-144.1835885961465
 21
362.0079326500143
 31
0.0
  0
LINE
  5
10E
330
1E
100
AcDbEntity
  8
1
 62
     3
100
AcDbLine
 10
-144.1835885961465
 20
362.0079326500143
 30
0.0
 11
-145.0496139999309
 21
361.5079326500143
 31
0.0
  0
LINE
  5
10F
330
1E
100
AcDbEntity
  8
1
 62
     3
100
AcDbLine
 10
-144.1835885961465
 20
366.5079326500143
 30
0.0
 11
-144.1835885961465
 21
361.5079326500143
 31
0.0
  0
LINE
  5
110
330
1E
100
AcDbEntity
  8
1
 62
     7
100
AcDbLine
 10
-142.949613999931
 20
361.5079326500143
 30
0.0
 11
-142.949613999931
 21
352.3979952309937
 31
0.0
  0
LINE
  5
111
330
1E
100
AcDbEntity
  8
1
 62
     7
100
AcDbLine
 10
-150.649613999931
 20
369.2579326500143
 30
0.0
 11
-146.5496139999309
 21
369.2579326500143
 31
0.0
  0
LINE
  5
112
330
1E
100
AcDbEntity
  8
1
 62
     7
100
AcDbLine
 10
-150.649613999931
 20
358.7579326500143
 30
0.0
 11
-146.5496139999309
 21
358.7579326500143
 31
0.0
  0
LINE
  5
113
330
1E
100
AcDbEntity
  8
1
 62
     7
100
AcDbLine
 10
-146.5496139999309
 20
373.5079326500143
 30
0.0
 11
-146.5496139999309
 21
369.2579326500143
 31
0.0
  0
LINE
  5
114
330
1E
100
AcDbEntity
  8
1
 62
     7
100
AcDbLine
 10
-145.5496139999309
 20
373.5079326500143
 30
0.0
 11
-145.5496139999309
 21
366.5079326500143
 31
0.0
  0
LINE
  5
115
330
1E
100
AcDbEntity
  8
1
 62
     7
100
AcDbLine
 10
-140.9496139999309
 20
369.0079326500143
 30
0.0
 11
-140.9496139999309
 21
366.5079326500143
 31
0.0
  0
LINE
  5
116
330
1E
100
AcDbEntity
  8
1
 62
     7
100
AcDbLine
 10
-140.9496139999309
 20
361.5079326500143
 30
0.0
 11
-140.9496139999309
 21
358.5079326500143
 31
0.0
  0
LINE
  5
117
330
1E
100
AcDbEntity
  8
1
 62
     7
100
AcDbLine
 10
-140.9496139999309
 20
358.5079326500143
 30
0.0
 11
-142.949613999931
 21
358.5079326500143
 31
0.0
  0
LINE
  5
118
330
1E
100
AcDbEntity
  8
1
 62
     7
100
AcDbLine
 10
-141.949613999931
 20
361.5079326500143
 30
0.0
 11
-141.949613999931
 21
358.5079326500143
 31
0.0
  0
LINE
  5
119
330
1E
100
AcDbEntity
  8
1
 62
     7
100
AcDbLine
 10
-141.949613999931
 20
369.0079326500143
 30
0.0
 11
-141.949613999931
 21
366.5079326500143
 31
0.0
  0
LINE
  5
11A
330
1E
100
AcDbEntity
  8
1
 62
     7
100
AcDbLine
 10
-138.949613999931
 20
339.5079326500143
 30
0.0
 11
-138.949613999931
 21
297.5079326500143
 31
0.0
  0
LINE
  5
11B
330
1E
100
AcDbEntity
  8
1
 62
     7
100
AcDbLine
 10
-138.949613999931
 20
339.5079326500143
 30
0.0
 11
-130.949613999931
 21
339.5079326500143
 31
0.0
  0
LINE
  5
11C
330
1E
100
AcDbEntity
  8
1
 62
     7
100
AcDbLine
 10
-143.949613999931
 20
334.0079326500143
 30
0.0
 11
-143.949613999931
 21
350.1829326500143
 31
0.0
  0
LINE
  5
11D
330
1E
100
AcDbEntity
  8
1
 62
     7
100
AcDbLine
 10
-138.949613999931
 20
336.0079326500143
 30
0.0
 11
-143.949613999931
 21
336.0079326500143
 31
0.0
  0
LINE
  5
11E
330
1E
100
AcDbEntity
  8
1
  6
DASHDOT
 62
     3
100
AcDbLine
 10
-144.8738023022409
 20
343.5079326500143
 30
0.0
 11
-129.3332485616319
 21
343.5079326500143
 31
0.0
  0
LINE
  5
11F
330
1E
100
AcDbEntity
  8
1
 62
     7
100
AcDbLine
 10
-130.949613999931
 20
341.0079326500143
 30
0.0
 11
-143.949613999931
 21
341.0079326500143
 31
0.0
  0
LINE
  5
120
330
1E
100
AcDbEntity
  8
1
 62
     7
100
AcDbLine
 10
-130.949613999931
 20
346.0079326500143
 30
0.0
 11
-143.949613999931
 21
346.0079326500143
 31
0.0
  0
LINE
  5
121
330
1E
100
AcDbEntity
  8
1
 62
     7
100
AcDbLine
 10
-130.949613999931
 20
348.5079326500143
 30
0.0
 11
-143.949613999931
 21
348.5079326500143
 31
0.0
  0
LINE
  5
122
330
1E
100
AcDbEntity
  8
1
 62
     7
100
AcDbLine
 10
-132.0996139999309
 20
348.5079326500143
 30
0.0
 11
-132.0996139999309
 21
368.0079326500143
 31
0.0
  0
LINE
  5
123
330
1E
100
AcDbEntity
  8
1
 62
     7
100
AcDbLine
 10
-139.9496139999309
 20
369.0079326500143
 30
0.0
 11
-139.9496139999309
 21
366.5079326500143
 31
0.0
  0
LINE
  5
124
330
1E
100
AcDbEntity
  8
1
 62
     7
100
AcDbLine
 10
-139.9496139999309
 20
361.5079326500143
 30
0.0
 11
-139.9496139999309
 21
359.0079326500143
 31
0.0
  0
LINE
  5
125
330
1E
100
AcDbEntity
  8
1
 62
     7
100
AcDbLine
 10
-139.9496139999309
 20
359.0079326500143
 30
0.0
 11
-139.599613999931
 21
359.0079326500143
 31
0.0
  0
LINE
  5
126
330
1E
100
AcDbEntity
  8
1
 62
     7
100
AcDbLine
 10
-137.599613999931
 20
357.0079326500143
 30
0.0
 11
-137.599613999931
 21
354.5079326500143
 31
0.0
  0
LINE
  5
127
330
1E
100
AcDbEntity
  8
1
 62
     7
100
AcDbLine
 10
-136.599613999931
 20
353.5079326500143
 30
0.0
 11
-136.599613999931
 21
348.5079326500143
 31
0.0
  0
LINE
  5
128
330
1E
100
AcDbEntity
  8
1
 62
     7
100
AcDbLine
 10
-130.949613999931
 20
350.1829326500143
 30
0.0
 11
-131.949613999931
 21
351.1829326500143
 31
0.0
  0
LINE
  5
129
330
1E
100
AcDbEntity
  8
1
 62
     7
100
AcDbLine
 10
-143.949613999931
 20
350.1829326500143
 30
0.0
 11
-142.949613999931
 21
351.1829326500143
 31
0.0
  0
LINE
  5
12A
330
1E
100
AcDbEntity
  8
1
 62
     7
100
AcDbLine
 10
-132.0996139999309
 20
368.0079326500143
 30
0.0
 11
-133.0996139999309
 21
369.0079326500143
 31
0.0
  0
LINE
  5
12B
330
1E
100
AcDbEntity
  8
1
 62
     7
100
AcDbLine
 10
-142.949613999931
 20
357.5079326500143
 30
0.0
 11
-141.9734287110413
 21
357.5079326500143
 31
0.0
  0
LINE
  5
12C
330
1E
100
AcDbEntity
  8
1
 62
     7
100
AcDbLine
 10
-140.0611055304473
 20
352.1829326500143
 30
0.0
 11
-136.9496139999309
 21
352.1829326500143
 31
0.0
  0
LINE
  5
12D
330
1E
100
AcDbEntity
  8
1
 62
     7
100
AcDbLine
 10
-136.9496139999309
 20
352.1829326500143
 30
0.0
 11
-136.9496139999309
 21
351.1829326500143
 31
0.0
  0
LINE
  5
12E
330
1E
100
AcDbEntity
  8
1
 62
     7
100
AcDbLine
 10
-142.949613999931
 20
356.5079326500143
 30
0.0
 11
-141.7049862660699
 21
356.5079326500143
 31
0.0
  0
LINE
  5
12F
330
1E
100
AcDbEntity
  8
1
 62
     7
100
AcDbLine
 10
-141.4496139999309
 20
356.1650225926374
 30
0.0
 11
-141.4496139999309
 21
352.4310862556987
 31
0.0
  0
LINE
  5
130
330
1E
100
AcDbEntity
  8
1
 62
     7
100
AcDbLine
 10
-139.9496139999309
 20
359.3018023783508
 30
0.0
 11
-139.9496139999309
 21
358.5079326500143
 31
0.0
  0
LINE
  5
131
330
1E
100
AcDbEntity
  8
1
 62
     7
100
AcDbLine
 10
-140.9496139999309
 20
358.5079326500143
 30
0.0
 11
-139.9496139999309
 21
358.5079326500143
 31
0.0
  0
LINE
  5
132
330
1E
100
AcDbEntity
  8
1
 62
     7
100
AcDbLine
 10
-140.4496139999309
 20
353.5079326500143
 30
0.0
 11
-139.4496139999309
 21
353.5079326500143
 31
0.0
  0
LINE
  5
133
330
1E
100
AcDbEntity
  8
1
 62
     7
100
AcDbLine
 10
-140.4496139999309
 20
356.5079326500143
 30
0.0
 11
-139.4496139999309
 21
356.5079326500143
 31
0.0
  0
LINE
  5
134
330
1E
100
AcDbEntity
  8
1
 62
     7
100
AcDbLine
 10
-139.4496139999309
 20
353.5079326500143
 30
0.0
 11
-139.4496139999309
 21
358.5079326500143
 31
0.0
  0
LINE
  5
135
330
1E
100
AcDbEntity
  8
1
 62
     7
100
AcDbLine
 10
-140.4496139999309
 20
352.4465594614333
 30
0.0
 11
-140.4496139999309
 21
358.3259757911763
 31
0.0
  0
LINE
  5
136
330
1E
100
AcDbEntity
  8
1
 62
     7
100
AcDbLine
 10
-146.5496139999309
 20
358.7579326500143
 30
0.0
 11
-146.5496139999309
 21
334.0079326500143
 31
0.0
  0
LINE
  5
137
330
1E
100
AcDbEntity
  8
1
 62
     7
100
AcDbLine
 10
-145.5496139999309
 20
361.5079326500143
 30
0.0
 11
-145.5496139999309
 21
334.0079326500143
 31
0.0
  0
LINE
  5
138
330
1E
100
AcDbEntity
  8
1
 62
     7
100
AcDbLine
 10
-140.4496139999309
 20
278.6898895088523
 30
0.0
 11
-140.4496139999309
 21
280.5079326500144
 31
0.0
  0
LINE
  5
139
330
1E
100
AcDbEntity
  8
1
 62
     7
100
AcDbLine
 10
-139.4496139999309
 20
278.5079326500144
 30
0.0
 11
-139.4496139999309
 21
280.5079326500144
 31
0.0
  0
LINE
  5
13A
330
1E
100
AcDbEntity
  8
1
 62
     7
100
AcDbLine
 10
-139.4496139999309
 20
280.5079326500144
 30
0.0
 11
-139.4496139999309
 21
283.5079326500143
 31
0.0
  0
LINE
  5
13B
330
1E
100
AcDbEntity
  8
1
 62
     7
100
AcDbLine
 10
-139.4496139999309
 20
283.5079326500143
 30
0.0
 11
-140.4496139999309
 21
283.5079326500143
 31
0.0
  0
LINE
  5
13C
330
1E
100
AcDbEntity
  8
1
 62
     7
100
AcDbLine
 10
-141.4496139999309
 20
284.5847790443298
 30
0.0
 11
-141.4496139999309
 21
280.8508427073913
 31
0.0
  0
LINE
  5
13D
330
1E
100
AcDbEntity
  8
1
 62
     7
100
AcDbLine
 10
-141.7049862660699
 20
280.5079326500144
 30
0.0
 11
-142.949613999931
 21
280.5079326500144
 31
0.0
  0
LINE
  5
13E
330
1E
100
AcDbEntity
  8
1
 62
     7
100
AcDbLine
 10
-136.9496139999309
 20
285.8329326500143
 30
0.0
 11
-136.9496139999309
 21
284.8329326500143
 31
0.0
  0
LINE
  5
13F
330
1E
100
AcDbEntity
  8
1
 62
     7
100
AcDbLine
 10
-136.9496139999309
 20
284.8329326500143
 30
0.0
 11
-140.0611055304473
 21
284.8329326500143
 31
0.0
  0
LINE
  5
140
330
1E
100
AcDbEntity
  8
1
 62
     7
100
AcDbLine
 10
-140.4496139999309
 20
284.5693058385953
 30
0.0
 11
-140.4496139999309
 21
280.8541422099825
 31
0.0
  0
LINE
  5
141
330
1E
100
AcDbEntity
  8
1
 62
     7
100
AcDbLine
 10
-141.9734287110413
 20
279.5079326500144
 30
0.0
 11
-142.949613999931
 21
279.5079326500144
 31
0.0
  0
LINE
  5
142
330
1E
100
AcDbEntity
  8
1
 62
     7
100
AcDbLine
 10
-142.949613999931
 20
285.8329326500143
 30
0.0
 11
-143.949613999931
 21
286.8329326500143
 31
0.0
  0
LINE
  5
143
330
1E
100
AcDbEntity
  8
1
  6
DASHDOT
 62
     3
100
AcDbLine
 10
-129.3332485616319
 20
293.5079326500143
 30
0.0
 11
-144.8738023022409
 21
293.5079326500143
 31
0.0
  0
LINE
  5
144
330
1E
100
AcDbEntity
  8
1
 62
     7
100
AcDbLine
 10
-143.949613999931
 20
301.0079326500143
 30
0.0
 11
-138.949613999931
 21
301.0079326500143
 31
0.0
  0
LINE
  5
145
330
1E
100
AcDbEntity
  8
1
 62
     7
100
AcDbLine
 10
-143.949613999931
 20
286.8329326500143
 30
0.0
 11
-143.949613999931
 21
303.0079326500143
 31
0.0
  0
LINE
  5
146
330
1E
100
AcDbEntity
  8
1
 62
     7
100
AcDbLine
 10
-130.949613999931
 20
286.8329326500143
 30
0.0
 11
-130.949613999931
 21
350.1829326500143
 31
0.0
  0
LINE
  5
147
330
1E
100
AcDbEntity
  8
1
 62
     7
100
AcDbLine
 10
-142.6496139999311
 20
285.8329326500143
 30
0.0
 11
-131.9496139999311
 21
285.8329326500143
 31
0.0
  0
LINE
  5
148
330
1E
100
AcDbEntity
  8
1
 62
     7
100
AcDbLine
 10
-130.949613999931
 20
297.5079326500143
 30
0.0
 11
-138.949613999931
 21
297.5079326500143
 31
0.0
  0
LINE
  5
149
330
1E
100
AcDbEntity
  8
1
 62
     7
100
AcDbLine
 10
-145.5496139999309
 20
275.5079326500144
 30
0.0
 11
-145.5496139999309
 21
282.5079326500143
 31
0.0
  0
LINE
  5
14A
330
1E
100
AcDbEntity
  8
1
 62
     7
100
AcDbLine
 10
-145.5496139999309
 20
270.5079326500144
 30
0.0
 11
-145.5496139999309
 21
263.5079326500144
 31
0.0
  0
LINE
  5
14B
330
1E
100
AcDbEntity
  8
1
 62
     7
100
AcDbLine
 10
-142.949613999931
 20
282.5079326500143
 30
0.0
 11
-142.949613999931
 21
275.5079326500144
 31
0.0
  0
LINE
  5
14C
330
1E
100
AcDbEntity
  8
1
 62
     7
100
AcDbLine
 10
-150.949613999931
 20
282.5079326500143
 30
0.0
 11
-150.949613999931
 21
281.7157028221881
 31
0.0
  0
LINE
  5
14D
330
1E
100
AcDbEntity
  8
1
 62
     7
100
AcDbLine
 10
-142.949613999931
 20
284.6178700690348
 30
0.0
 11
-142.949613999931
 21
282.5079326500143
 31
0.0
  0
LINE
  5
14E
330
1E
100
AcDbEntity
  8
1
 62
     7
100
AcDbLine
 10
-142.949613999931
 20
282.5079326500143
 30
0.0
 11
-145.5496139999309
 21
282.5079326500143
 31
0.0
  0
LINE
  5
14F
330
1E
100
AcDbEntity
  8
1
 62
     7
100
AcDbLine
 10
-142.949613999931
 20
270.5079326500144
 30
0.0
 11
-142.949613999931
 21
263.5079326500144
 31
0.0
  0
LINE
  5
150
330
1E
100
AcDbEntity
  8
1
 62
     7
100
AcDbLine
 10
-142.949613999931
 20
263.5079326500144
 30
0.0
 11
-145.5496139999309
 21
263.5079326500144
 31
0.0
  0
LINE
  5
151
330
1E
100
AcDbEntity
  8
1
 62
     7
100
AcDbLine
 10
-150.649613999931
 20
282.5079326500143
 30
0.0
 11
-150.649613999931
 21
263.5079326500144
 31
0.0
  0
LINE
  5
152
330
1E
100
AcDbEntity
  8
1
 62
     7
100
AcDbLine
 10
-157.949613999931
 20
296.5079326500143
 30
0.0
 11
-157.949613999931
 21
340.5079326500143
 31
0.0
  0
LINE
  5
153
330
1E
100
AcDbEntity
  8
1
 62
     7
100
AcDbLine
 10
-156.949613999931
 20
291.8079326500143
 30
0.0
 11
-156.949613999931
 21
266.0079326500144
 31
0.0
  0
LINE
  5
154
330
1E
100
AcDbEntity
  8
1
 62
     7
100
AcDbLine
 10
-163.949613999931
 20
263.5079326500144
 30
0.0
 11
-164.9496139999309
 21
264.5079326500144
 31
0.0
  0
LINE
  5
155
330
1E
100
AcDbEntity
  8
1
 62
     7
100
AcDbLine
 10
-188.9496139999311
 20
303.5079326500143
 30
0.0
 11
-189.9496139999311
 21
304.5079326500143
 31
0.0
  0
LINE
  5
156
330
1E
100
AcDbEntity
  8
1
 62
     7
100
AcDbLine
 10
-188.9496139999311
 20
303.5079326500143
 30
0.0
 11
-186.449613999931
 21
303.5079326500143
 31
0.0
  0
LINE
  5
157
330
1E
100
AcDbEntity
  8
1
 62
     7
100
AcDbLine
 10
-184.9496139999311
 20
304.5079326500143
 30
0.0
 11
-186.449613999931
 21
304.5079326500143
 31
0.0
  0
LINE
  5
158
330
1E
100
AcDbEntity
  8
1
 62
     7
100
AcDbLine
 10
-186.449613999931
 20
300.505527914206
 30
0.0
 11
-186.449613999931
 21
304.5079326500143
 31
0.0
  0
LINE
  5
159
330
1E
100
AcDbEntity
  8
1
 62
     7
100
AcDbLine
 10
-186.449613999931
 20
300.505527914206
 30
0.0
 11
-184.9496139999311
 21
300.505527914206
 31
0.0
  0
LINE
  5
15A
330
1E
100
AcDbEntity
  8
1
 62
     7
100
AcDbLine
 10
-171.9496139999311
 20
294.0621472964721
 30
0.0
 11
-169.949613999931
 21
294.0621472964721
 31
0.0
  0
LINE
  5
15B
330
1E
100
AcDbEntity
  8
1
 62
     7
100
AcDbLine
 10
-169.949613999931
 20
295.7172621645888
 30
0.0
 11
-169.949613999931
 21
289.5079326500143
 31
0.0
  0
LINE
  5
15C
330
1E
100
AcDbEntity
  8
1
 62
     7
100
AcDbLine
 10
-171.9496139999311
 20
299.5079326500143
 30
0.0
 11
-169.949613999931
 21
297.5079326500143
 31
0.0
  0
LINE
  5
15D
330
1E
100
AcDbEntity
  8
1
 62
     7
100
AcDbLine
 10
-169.949613999931
 20
297.5079326500143
 30
0.0
 11
-168.449613999931
 21
297.5079326500143
 31
0.0
  0
LINE
  5
15E
330
1E
100
AcDbEntity
  8
1
 62
     7
100
AcDbLine
 10
-168.449613999931
 20
297.5079326500143
 30
0.0
 11
-168.449613999931
 21
291.8079326500143
 31
0.0
  0
LINE
  5
15F
330
1E
100
AcDbEntity
  8
1
 62
     7
100
AcDbLine
 10
-168.449613999931
 20
291.8079326500143
 30
0.0
 11
-156.949613999931
 21
291.8079326500143
 31
0.0
  0
LINE
  5
160
330
1E
100
AcDbEntity
  8
1
 62
     7
100
AcDbLine
 10
-156.949613999931
 20
266.0079326500144
 30
0.0
 11
-164.949613999931
 21
266.0079326500144
 31
0.0
  0
LINE
  5
161
330
1E
100
AcDbEntity
  8
1
 62
     7
100
AcDbLine
 10
-164.9496139999309
 20
264.5079326500144
 30
0.0
 11
-164.949613999931
 21
266.0079326500144
 31
0.0
  0
LINE
  5
162
330
1E
100
AcDbEntity
  8
1
 62
     7
100
AcDbLine
 10
-163.949613999931
 20
263.5079326500144
 30
0.0
 11
-150.9496139999309
 21
263.5079326500144
 31
0.0
  0
LINE
  5
163
330
1E
100
AcDbEntity
  8
1
 62
     7
100
AcDbLine
 10
-150.949613999931
 20
281.7157028221881
 30
0.0
 11
-150.949613999931
 21
266.5079326500144
 31
0.0
  0
LINE
  5
164
330
1E
100
AcDbEntity
  8
1
 62
     7
100
AcDbLine
 10
-150.949613999931
 20
266.5079326500144
 30
0.0
 11
-150.9496139999309
 21
263.5079326500144
 31
0.0
  0
LINE
  5
165
330
1E
100
AcDbEntity
  8
1
 62
     7
100
AcDbLine
 10
-154.449613999931
 20
296.5079326500143
 30
0.0
 11
-152.449613999931
 21
294.5079326500143
 31
0.0
  0
LINE
  5
166
330
1E
100
AcDbEntity
  8
1
 62
     7
100
AcDbLine
 10
-150.949613999931
 20
282.5079326500143
 30
0.0
 11
-152.449613999931
 21
282.5079326500143
 31
0.0
  0
LINE
  5
167
330
1E
100
AcDbEntity
  8
1
 62
     7
100
AcDbLine
 10
-152.449613999931
 20
294.5079326500143
 30
0.0
 11
-152.449613999931
 21
282.5079326500143
 31
0.0
  0
LINE
  5
168
330
1E
100
AcDbEntity
  8
1
 62
     7
100
AcDbLine
 10
-154.449613999931
 20
296.5079326500143
 30
0.0
 11
-157.949613999931
 21
296.5079326500143
 31
0.0
  0
LINE
  5
169
330
1E
100
AcDbEntity
  8
1
 62
     7
100
AcDbLine
 10
-189.9496139999311
 20
332.5079326500143
 30
0.0
 11
-189.9496139999311
 21
304.5079326500143
 31
0.0
  0
LINE
  5
16A
330
1E
100
AcDbEntity
  8
1
 62
     7
100
AcDbLine
 10
-183.2699336929003
 20
301.2078118446163
 30
0.0
 11
-183.2699336929003
 21
293.3314271911821
 31
0.0
  0
LINE
  5
16B
330
1E
100
AcDbEntity
  8
1
 62
     7
100
AcDbLine
 10
-173.395063381132
 20
301.6780437642241
 30
0.0
 11
-173.395063381132
 21
293.4489851710841
 31
0.0
  0
LINE
  5
16C
330
1E
100
AcDbEntity
  8
1
 62
     7
100
AcDbLine
 10
-171.9496139999311
 20
300.505527914206
 30
0.0
 11
-176.5746139999311
 21
300.505527914206
 31
0.0
  0
LINE
  5
16D
330
1E
100
AcDbEntity
  8
1
 62
     7
100
AcDbLine
 10
-184.9496139999311
 20
300.505527914206
 30
0.0
 11
-180.3246139999311
 21
300.505527914206
 31
0.0
  0
LINE
  5
16E
330
1E
100
AcDbEntity
  8
1
 62
     7
100
AcDbLine
 10
-184.9496139999311
 20
294.0103373858228
 30
0.0
 11
-180.3246139999311
 21
294.0103373858226
 31
0.0
  0
LINE
  5
16F
330
1E
100
AcDbEntity
  8
1
 62
     7
100
AcDbLine
 10
-171.9496139999311
 20
294.0103373858228
 30
0.0
 11
-176.5746139999311
 21
294.0103373858226
 31
0.0
  0
LINE
  5
170
330
1E
100
AcDbEntity
  8
1
 62
     7
100
AcDbLine
 10
-186.9496139999311
 20
283.0079326500143
 30
0.0
 11
-186.9496139999311
 21
299.7971160857923
 31
0.0
  0
LINE
  5
171
330
1E
100
AcDbEntity
  8
1
 62
     7
100
AcDbLine
 10
-184.9496139999311
 20
267.7579326500144
 30
0.0
 11
-183.9496139999311
 21
266.7579326500144
 31
0.0
  0
LINE
  5
172
330
1E
100
AcDbEntity
  8
1
 62
     7
100
AcDbLine
 10
-184.9496139999311
 20
291.0079326500143
 30
0.0
 11
-171.9496139999311
 21
291.0079326500143
 31
0.0
  0
LINE
  5
173
330
1E
100
AcDbEntity
  8
1
 62
     7
100
AcDbLine
 10
-169.949613999931
 20
289.5079326500143
 30
0.0
 11
-171.9496139999311
 21
289.5079326500143
 31
0.0
  0
LINE
  5
174
330
1E
100
AcDbEntity
  8
1
 62
     7
100
AcDbLine
 10
-158.949613999931
 20
266.7579326500144
 30
0.0
 11
-158.949613999931
 21
291.0079326500143
 31
0.0
  0
LINE
  5
175
330
1E
100
AcDbEntity
  8
1
 62
     7
100
AcDbLine
 10
-184.9496139999311
 20
294.5079326500143
 30
0.0
 11
-186.9496139999311
 21
294.5079326500143
 31
0.0
  0
LINE
  5
176
330
1E
100
AcDbEntity
  8
1
 62
     7
100
AcDbLine
 10
-169.949613999931
 20
291.0079326500143
 30
0.0
 11
-158.949613999931
 21
291.0079326500143
 31
0.0
  0
LINE
  5
177
330
1E
100
AcDbEntity
  8
1
 62
     7
100
AcDbLine
 10
-183.9496139999311
 20
266.7579326500144
 30
0.0
 11
-158.949613999931
 21
266.7579326500144
 31
0.0
  0
LINE
  5
178
330
1E
100
AcDbEntity
  8
1
 62
     7
100
AcDbLine
 10
-184.9496139999311
 20
267.7579326500144
 30
0.0
 11
-184.9496139999311
 21
283.0079326500143
 31
0.0
  0
LINE
  5
179
330
1E
100
AcDbEntity
  8
1
 62
     7
100
AcDbLine
 10
-184.9496139999311
 20
283.0079326500143
 30
0.0
 11
-186.9496139999311
 21
283.0079326500143
 31
0.0
  0
LINE
  5
17A
330
1E
100
AcDbEntity
  8
1
 62
     3
100
AcDbLine
 10
-134.5496139999309
 20
366.0079326500143
 30
0.0
 11
-133.649613999931
 21
366.0079326500143
 31
0.0
  0
LINE
  5
17B
330
1E
100
AcDbEntity
  8
1
 62
     3
100
AcDbLine
 10
-134.5496139999309
 20
362.0079326500143
 30
0.0
 11
-133.649613999931
 21
362.0079326500143
 31
0.0
  0
LINE
  5
17C
330
1E
100
AcDbEntity
  8
1
 62
     7
100
AcDbLine
 10
-135.0496139999309
 20
361.5079326500143
 30
0.0
 11
-134.0496139999309
 21
361.5079326500143
 31
0.0
  0
LINE
  5
17D
330
1E
100
AcDbEntity
  8
1
 62
     7
100
AcDbLine
 10
-140.4496139999309
 20
279.0419848540415
 30
0.0
 11
-140.4496139999309
 21
268.0079326500144
 31
0.0
  0
LINE
  5
17E
330
1E
100
AcDbEntity
  8
1
 62
     7
100
AcDbLine
 10
-139.4496139999309
 20
278.7303427335748
 30
0.0
 11
-139.4496139999309
 21
268.0079326500144
 31
0.0
  0
LINE
  5
17F
330
1E
100
AcDbEntity
  8
1
 62
     7
100
AcDbLine
 10
-140.4496139999309
 20
268.0079326500144
 30
0.0
 11
-139.4496139999309
 21
268.0079326500144
 31
0.0
  0
LINE
  5
180
330
1E
100
AcDbEntity
  8
1
 62
     7
100
AcDbLine
 10
-142.949613999931
 20
275.5079326500144
 30
0.0
 11
-142.949613999931
 21
270.2380949508555
 31
0.0
  0
LINE
  5
181
330
1E
100
AcDbEntity
  8
1
 62
     7
100
AcDbLine
 10
-145.5496139999309
 20
275.5079326500144
 30
0.0
 11
-145.5496139999309
 21
270.1991396857972
 31
0.0
  0
LINE
  5
182
330
1E
100
AcDbEntity
  8
1
 62
     7
100
AcDbLine
 10
-146.5496139999309
 20
282.5079326500143
 30
0.0
 11
-146.5496139999309
 21
279.3579326500142
 31
0.0
  0
LINE
  5
183
330
1E
100
AcDbEntity
  8
1
 62
     7
100
AcDbLine
 10
-150.649613999931
 20
270.3579326500142
 30
0.0
 11
-149.049613999931
 21
270.3579326500142
 31
0.0
  0
LINE
  5
184
330
1E
100
AcDbEntity
  8
1
 62
     7
100
AcDbLine
 10
-149.049613999931
 20
270.3579326500142
 30
0.0
 11
-149.049613999931
 21
265.6579326500142
 31
0.0
  0
LINE
  5
185
330
1E
100
AcDbEntity
  8
1
 62
     7
100
AcDbLine
 10
-149.049613999931
 20
265.6579326500142
 30
0.0
 11
-150.649613999931
 21
265.6579326500142
 31
0.0
  0
LINE
  5
186
330
1E
100
AcDbEntity
  8
1
 62
     7
100
AcDbLine
 10
-149.049613999931
 20
269.3579326500142
 30
0.0
 11
-145.5496139999309
 21
269.3579326500142
 31
0.0
  0
LINE
  5
187
330
1E
100
AcDbEntity
  8
1
 62
     7
100
AcDbLine
 10
-149.049613999931
 20
266.6579326500142
 30
0.0
 11
-145.5496139999309
 21
266.6579326500142
 31
0.0
  0
LINE
  5
188
330
1E
100
AcDbEntity
  8
1
 62
     7
100
AcDbLine
 10
-150.649613999931
 20
280.3579326500143
 30
0.0
 11
-149.049613999931
 21
280.3579326500143
 31
0.0
  0
LINE
  5
189
330
1E
100
AcDbEntity
  8
1
 62
     7
100
AcDbLine
 10
-149.049613999931
 20
280.3579326500143
 30
0.0
 11
-149.049613999931
 21
275.6579326500142
 31
0.0
  0
LINE
  5
18A
330
1E
100
AcDbEntity
  8
1
 62
     7
100
AcDbLine
 10
-150.649613999931
 20
275.6579326500142
 30
0.0
 11
-149.049613999931
 21
275.6579326500142
 31
0.0
  0
LINE
  5
18B
330
1E
100
AcDbEntity
  8
1
 62
     7
100
AcDbLine
 10
-149.049613999931
 20
279.3579326500142
 30
0.0
 11
-145.5496139999309
 21
279.3579326500142
 31
0.0
  0
LINE
  5
18C
330
1E
100
AcDbEntity
  8
1
 62
     7
100
AcDbLine
 10
-149.049613999931
 20
276.6579326500143
 30
0.0
 11
-145.5496139999309
 21
276.6579326500143
 31
0.0
  0
LINE
  5
18D
330
1E
100
AcDbEntity
  8
1
 62
     7
100
AcDbLine
 10
-145.5496139999309
 20
276.6579326500143
 30
0.0
 11
-142.949613999931
 21
275.109450846402
 31
0.0
  0
LINE
  5
18E
330
1E
100
AcDbEntity
  8
1
 62
     7
100
AcDbLine
 10
-145.5496139999309
 20
279.3579326500142
 30
0.0
 11
-142.949613999931
 21
280.8746058720726
 31
0.0
  0
LINE
  5
18F
330
1E
100
AcDbEntity
  8
1
 62
     7
100
AcDbLine
 10
-145.5496139999309
 20
269.3579326500142
 30
0.0
 11
-142.949613999931
 21
270.7520662339764
 31
0.0
  0
LINE
  5
190
330
1E
100
AcDbEntity
  8
1
 62
     7
100
AcDbLine
 10
-145.5496139999309
 20
266.6579326500142
 30
0.0
 11
-142.949613999931
 21
265.2215396105133
 31
0.0
  0
LINE
  5
191
330
1E
100
AcDbEntity
  8
1
 62
     7
100
AcDbLine
 10
-146.5496139999309
 20
276.6579326500143
 30
0.0
 11
-146.5496139999309
 21
269.3579326500142
 31
0.0
  0
LINE
  5
192
330
1E
100
AcDbEntity
  8
1
 62
     7
100
AcDbLine
 10
-146.5496139999309
 20
266.6579326500142
 30
0.0
 11
-146.5496139999309
 21
263.5079326500144
 31
0.0
  0
LINE
  5
193
330
1E
100
AcDbEntity
  8
1
 62
     7
100
AcDbLine
 10
-186.9496139999311
 20
354.0079326500143
 30
0.0
 11
-186.9496139999311
 21
389.5079326500143
 31
0.0
  0
LINE
  5
194
330
1E
100
AcDbEntity
  8
1
 62
     7
100
AcDbLine
 10
-186.9496139999311
 20
389.5079326500143
 30
0.0
 11
-184.9496139999311
 21
389.5079326500143
 31
0.0
  0
LINE
  5
195
330
1E
100
AcDbEntity
  8
1
 62
     7
100
AcDbLine
 10
-184.9496139999311
 20
389.5079326500143
 30
0.0
 11
-184.9496139999311
 21
369.2579326500143
 31
0.0
  0
LINE
  5
196
330
1E
100
AcDbEntity
  8
1
 62
     7
100
AcDbLine
 10
-186.9496139999311
 20
386.2579326500143
 30
0.0
 11
-184.9496139999311
 21
386.2579326500143
 31
0.0
  0
LINE
  5
197
330
1E
100
AcDbEntity
  8
1
  6
DASHDOT
 62
     3
100
AcDbLine
 10
-188.0229084780104
 20
383.5079326500143
 30
0.0
 11
-183.9071249799841
 21
383.5079326500143
 31
0.0
  0
LINE
  5
198
330
1E
100
AcDbEntity
  8
1
 62
     7
100
AcDbLine
 10
-186.9496139999311
 20
380.7579326500143
 30
0.0
 11
-184.9496139999311
 21
380.7579326500143
 31
0.0
  0
LINE
  5
199
330
1E
100
AcDbEntity
  8
1
 62
     7
100
AcDbLine
 10
-376.3922889702539
 20
328.1903910155327
 30
0.0
 11
-376.3922889702539
 21
330.5079326500143
 31
0.0
  0
LINE
  5
19A
330
1E
100
AcDbEntity
  8
1
 62
     7
100
AcDbLine
 10
-376.3922889702539
 20
330.5079326500143
 30
0.0
 11
-371.3922889702539
 21
330.5079326500143
 31
0.0
  0
LINE
  5
19B
330
1E
100
AcDbEntity
  8
1
 62
     7
100
AcDbLine
 10
-371.3922889702539
 20
330.5079326500143
 30
0.0
 11
-371.3922889702539
 21
328.1903910155327
 31
0.0
  0
LINE
  5
19C
330
1E
100
AcDbEntity
  8
1
 62
     7
100
AcDbLine
 10
-62.41947277373248
 20
402.2907132339656
 30
0.0
 11
-54.20499185726739
 21
371.6338530959131
 31
0.0
  0
LINE
  5
19D
330
1E
100
AcDbEntity
  8
1
 62
     7
100
AcDbLine
 10
-145.5496139999309
 20
282.5079326500143
 30
0.0
 11
-145.5496139999309
 21
303.0079326500143
 31
0.0
  0
LINE
  5
19E
330
1E
100
AcDbEntity
  8
1
 62
     7
100
AcDbLine
 10
-146.5496139999309
 20
282.5079326500143
 30
0.0
 11
-146.5496139999309
 21
303.0079326500143
 31
0.0
  0
LINE
  5
19F
330
1E
100
AcDbEntity
  8
1
 62
     7
100
AcDbLine
 10
-150.649613999931
 20
303.0079326500143
 30
0.0
 11
-150.649613999931
 21
282.5079326500143
 31
0.0
  0
LINE
  5
1A0
330
1E
100
AcDbEntity
  8
1
 62
     7
100
AcDbLine
 10
-150.949613999931
 20
303.0079326500143
 30
0.0
 11
-150.949613999931
 21
281.7157028221881
 31
0.0
  0
LINE
  5
1A1
330
1E
100
AcDbEntity
  8
1
 62
     7
100
AcDbLine
 10
-152.449613999931
 20
294.5079326500143
 30
0.0
 11
-152.449613999931
 21
303.0079326500143
 31
0.0
  0
LINE
  5
1A2
330
1E
100
AcDbEntity
  8
1
 62
     7
100
AcDbLine
 10
-154.449613999931
 20
296.5079326500143
 30
0.0
 11
-154.449613999931
 21
303.0079326500143
 31
0.0
  0
LINE
  5
1A3
330
1E
100
AcDbEntity
  8
1
 62
     7
100
AcDbLine
 10
-152.449613999931
 20
334.0079326500143
 30
0.0
 11
-152.449613999931
 21
342.5079326500143
 31
0.0
  0
LINE
  5
1A4
330
1E
100
AcDbEntity
  8
1
 62
     7
100
AcDbLine
 10
-154.449613999931
 20
334.0079326500143
 30
0.0
 11
-154.449613999931
 21
340.5079326500143
 31
0.0
  0
LINE
  5
1A5
330
1E
100
AcDbEntity
  8
1
 62
     7
100
AcDbLine
 10
-145.5496139999309
 20
354.5079326500143
 30
0.0
 11
-142.949613999931
 21
354.5079326500143
 31
0.0
  0
LINE
  5
1A6
330
1E
100
AcDbEntity
  8
1
 62
     7
100
AcDbLine
 10
-145.5496139999309
 20
373.5079326500143
 30
0.0
 11
-142.949613999931
 21
373.5079326500143
 31
0.0
  0
LINE
  5
1A7
330
1E
100
AcDbEntity
  8
1
 62
     7
100
AcDbLine
 10
-146.5496139999309
 20
282.0079326500143
 30
0.0
 11
-145.5496139999309
 21
282.0079326500143
 31
0.0
  0
LINE
  5
1A8
330
1E
100
AcDbEntity
  8
1
 62
     7
100
AcDbLine
 10
-146.5496139999309
 20
264.0079326500142
 30
0.0
 11
-145.5496139999309
 21
264.0079326500142
 31
0.0
  0
LINE
  5
1A9
330
1E
100
AcDbEntity
  8
1
 62
     7
100
AcDbLine
 10
-146.5496139999309
 20
263.5079326500144
 30
0.0
 11
-150.649613999931
 21
263.5079326500144
 31
0.0
  0
LINE
  5
1AA
330
1E
100
AcDbEntity
  8
1
 62
     7
100
AcDbLine
 10
-146.5496139999309
 20
282.5079326500143
 30
0.0
 11
-150.649613999931
 21
282.5079326500143
 31
0.0
  0
LINE
  5
1AB
330
1E
100
AcDbEntity
  8
1
  6
DASHDOT
 62
     3
100
AcDbLine
 10
-21.22571836272011
 20
329.3299165848957
 30
0.0
 11
-14.96547147614975
 21
332.9442718100506
 31
0.0
  0
LINE
  5
1AC
330
1E
100
AcDbEntity
  8
1
  6
DASHDOT
 62
     3
100
AcDbLine
 10
-193.229401847135
 20
318.5079326500143
 30
0.0
 11
-189.9496139999311
 21
318.5079326500143
 31
0.0
  0
LINE
  5
1AD
330
1E
100
AcDbEntity
  8
1
 62
     7
100
AcDbLine
 10
-158.949613999931
 20
370.2579326500143
 30
0.0
 11
-158.949613999931
 21
346.0079326500143
 31
0.0
  0
LINE
  5
1AE
330
1E
100
AcDbEntity
  8
1
 62
     7
100
AcDbLine
 10
-176.949613999931
 20
392.2579326500143
 30
0.0
 11
-174.949613999931
 21
392.2579326500143
 31
0.0
  0
LINE
  5
1AF
330
1E
100
AcDbEntity
  8
1
 62
     7
100
AcDbLine
 10
-174.949613999931
 20
392.2579326500143
 30
0.0
 11
-174.949613999931
 21
370.2579326500143
 31
0.0
  0
LINE
  5
1B0
330
1E
100
AcDbEntity
  8
1
 62
     7
100
AcDbLine
 10
-176.949613999931
 20
392.2579326500143
 30
0.0
 11
-176.949613999931
 21
370.2579326500143
 31
0.0
  0
LINE
  5
1B1
330
1E
100
AcDbEntity
  8
1
 62
     7
100
AcDbLine
 10
-175.4496139999311
 20
396.2579326500143
 30
0.0
 11
-175.4496139999311
 21
392.2579326500143
 31
0.0
  0
LINE
  5
1B2
330
1E
100
AcDbEntity
  8
1
 62
     7
100
AcDbLine
 10
-175.9496139999311
 20
396.2579326500143
 30
0.0
 11
-175.9496139999311
 21
392.2579326500143
 31
0.0
  0
LINE
  5
1B3
330
1E
100
AcDbEntity
  8
1
 62
     7
100
AcDbLine
 10
-176.4496139999311
 20
396.2579326500143
 30
0.0
 11
-176.4496139999311
 21
392.2579326500143
 31
0.0
  0
LINE
  5
1B4
330
1E
100
AcDbEntity
  8
1
 62
     7
100
AcDbLine
 10
-171.9496139999311
 20
347.5079326500143
 30
0.0
 11
-171.9496139999311
 21
333.5079326500143
 31
0.0
  0
LINE
  5
1B5
330
1E
100
AcDbEntity
  8
1
 62
     7
100
AcDbLine
 10
-184.9496139999311
 20
346.0079326500143
 30
0.0
 11
-171.9496139999311
 21
346.0079326500143
 31
0.0
  0
LINE
  5
1B6
330
1E
100
AcDbEntity
  8
1
 62
     7
100
AcDbLine
 10
-184.9496139999311
 20
346.0079326500143
 30
0.0
 11
-184.9496139999311
 21
332.5079326500143
 31
0.0
  0
LINE
  5
1B7
330
1E
100
AcDbEntity
  8
1
 62
     7
100
AcDbLine
 10
-184.9496139999311
 20
336.5103373858226
 30
0.0
 11
-186.449613999931
 21
336.5103373858226
 31
0.0
  0
LINE
  5
1B8
330
1E
100
AcDbEntity
  8
1
 62
     7
100
AcDbLine
 10
-184.9496139999311
 20
304.5079326500143
 30
0.0
 11
-184.9496139999311
 21
291.0079326500143
 31
0.0
  0
LINE
  5
1B9
330
1E
100
AcDbEntity
  8
1
 62
     7
100
AcDbLine
 10
-184.9496139999311
 20
303.5079326500143
 30
0.0
 11
-171.9496139999311
 21
303.5079326500143
 31
0.0
  0
LINE
  5
1BA
330
1E
100
AcDbEntity
  8
1
 62
     7
100
AcDbLine
 10
-171.9496139999311
 20
303.5079326500143
 30
0.0
 11
-171.9496139999311
 21
289.5079326500143
 31
0.0
  0
LINE
  5
1BB
330
1E
100
AcDbEntity
  8
1
 62
     7
100
AcDbLine
 10
-150.9496139999309
 20
373.5079326500143
 30
0.0
 11
-150.949613999931
 21
334.0079326500143
 31
0.0
  0
LINE
  5
1BC
330
1E
100
AcDbEntity
  8
1
  6
DASHDOT
 62
     3
100
AcDbLine
 10
-130.949613999931
 20
318.5079326500143
 30
0.0
 11
-127.229401847135
 21
318.5079326500143
 31
0.0
  0
LINE
  5
1BD
330
1E
100
AcDbEntity
  8
1
  6
DASHDOT
 62
     3
100
AcDbLine
 10
-224.2885462460799
 20
318.5079326500143
 30
0.0
 11
-221.213171489275
 21
318.5079326500143
 31
0.0
  0
ARC
  5
1BE
330
1E
100
AcDbEntity
  8
1
 62
     7
100
AcDbCircle
 10
-373.8922889702539
 20
318.5079326500143
 30
0.0
 40
55.0
100
AcDbArc
 50
0.0
 51
72.91605766539195
  0
ARC
  5
1BF
330
1E
100
AcDbEntity
  8
1
  6
DASHDOT
 62
     3
100
AcDbCircle
 10
-39.96994437662875
 20
318.5079326500143
 30
0.0
 40
24.99999999999994
100
AcDbArc
 50
320.1003445813266
 51
339.6704996579541
  0
ARC
  5
1C0
330
1E
100
AcDbEntity
  8
1
  6
DASHDOT
 62
     3
100
AcDbCircle
 10
-39.96994437662875
 20
318.5079326500143
 30
0.0
 40
24.99999999999998
100
AcDbArc
 50
260.1003445813266
 51
279.6704996579538
  0
ARC
  5
1C1
330
1E
100
AcDbEntity
  8
1
  6
DASHDOT
 62
     3
100
AcDbCircle
 10
-39.96994437662875
 20
318.5079326500143
 30
0.0
 40
24.99999999999999
100
AcDbArc
 50
200.1003445813267
 51
219.6704996579541
  0
ARC
  5
1C2
330
1E
100
AcDbEntity
  8
1
  6
DASHDOT
 62
     3
100
AcDbCircle
 10
-39.96994437662875
 20
318.5079326500143
 30
0.0
 40
25.00000000000003
100
AcDbArc
 50
140.1003445813265
 51
159.6704996579536
  0
ARC
  5
1C3
330
1E
100
AcDbEntity
  8
1
  6
DASHDOT
 62
     3
100
AcDbCircle
 10
-39.96994437662875
 20
318.5079326500143
 30
0.0
 40
25.00000000000009
100
AcDbArc
 50
80.1003445813267
 51
99.67049965795402
  0
ARC
  5
1C4
330
1E
100
AcDbEntity
  8
1
  6
DASHDOT
 62
     3
100
AcDbCircle
 10
-39.96994437662875
 20
318.5079326500143
 30
0.0
 40
25.00000000000001
100
AcDbArc
 50
20.1003445813267
 51
39.670499657954
  0
ARC
  5
1C5
330
1E
100
AcDbEntity
  8
1
 62
     7
100
AcDbCircle
 10
-373.8922889702539
 20
318.5079326500143
 30
0.0
 40
9.999999999999932
100
AcDbArc
 50
104.47751218593
 51
75.52248781406999
  0
ARC
  5
1C6
330
1E
100
AcDbEntity
  8
1
 62
     7
100
AcDbCircle
 10
-39.96994437662875
 20
318.5079326500143
 30
0.0
 40
40.0
100
AcDbArc
 50
0.0
 51
70.31956248040422
  0
ARC
  5
1C7
330
1E
100
AcDbEntity
  8
1
 62
     7
100
AcDbCircle
 10
-39.96994437662875
 20
318.5079326500143
 30
0.0
 40
39.99999999999992
100
AcDbArc
 50
109.6804375195957
 51
190.3195624804042
  0
ARC
  5
1C8
330
1E
100
AcDbEntity
  8
1
 62
     7
100
AcDbCircle
 10
-39.96994437662875
 20
318.5079326500143
 30
0.0
 40
39.99999999999995
100
AcDbArc
 50
349.6804375195957
 51
0.0
  0
ARC
  5
1C9
330
1E
100
AcDbEntity
  8
1
 62
     7
100
AcDbCircle
 10
-39.96994437662875
 20
318.5079326500143
 30
0.0
 40
40.0
100
AcDbArc
 50
229.6804375195956
 51
310.3195624804042
  0
ARC
  5
1CA
330
1E
100
AcDbEntity
  8
1
 62
     7
100
AcDbCircle
 10
-233.0229450016531
 20
285.3496926891399
 30
0.0
 40
4.239290908983044
100
AcDbArc
 50
43.31658442849232
 51
93.59206387866363
  0
ARC
  5
1CB
330
1E
100
AcDbEntity
  8
1
 62
     7
100
AcDbCircle
 10
-232.8170117746898
 20
303.9717878908081
 30
0.0
 40
2.878465528609877
100
AcDbArc
 50
260.5716250924824
 51
0.0
  0
ARC
  5
1CC
330
1E
100
AcDbEntity
  8
1
 62
     7
100
AcDbCircle
 10
-373.8922889702539
 20
318.5079326500143
 30
0.0
 40
54.99999999999989
100
AcDbArc
 50
77.08394233460849
 51
81.6363982109733
  0
ARC
  5
1CD
330
1E
100
AcDbEntity
  8
1
 62
     7
100
AcDbCircle
 10
-373.8922889702539
 20
318.5079326500143
 30
0.0
 40
51.74999999999993
100
AcDbArc
 50
98.89298195859126
 51
270.0
  0
ARC
  5
1CE
330
1E
100
AcDbEntity
  8
1
 62
     7
100
AcDbCircle
 10
-373.8922889702539
 20
318.5079326500143
 30
0.0
 40
51.7499999999999
100
AcDbArc
 50
270.0
 51
81.10701804140886
  0
ARC
  5
1CF
330
1E
100
AcDbEntity
  8
1
 62
     7
100
AcDbCircle
 10
-373.8922889702539
 20
319.4704326500143
 30
0.0
 40
16.83750000000002
100
AcDbArc
 50
300.2713464848801
 51
239.7286535151197
  0
ARC
  5
1D0
330
1E
100
AcDbEntity
  8
1
 62
     7
100
AcDbCircle
 10
-373.8922889702539
 20
318.5079326500143
 30
0.0
 40
55.00000000000007
100
AcDbArc
 50
98.36360178902681
 51
180.0
  0
ARC
  5
1D1
330
1E
100
AcDbEntity
  8
1
 62
     7
100
AcDbCircle
 10
-373.8922889702539
 20
318.5079326500143
 30
0.0
 40
55.0000000000001
100
AcDbArc
 50
180.0
 51
0.0
  0
ARC
  5
1D2
330
1E
100
AcDbEntity
  8
1
 62
     7
100
AcDbCircle
 10
-235.129575504265
 20
356.1793025335624
 30
0.0
 40
1.341144476983505
100
AcDbArc
 50
359.2489573033557
 51
97.83325856045109
  0
ARC
  5
1D3
330
1E
100
AcDbEntity
  8
1
 62
     7
100
AcDbCircle
 10
-233.444950457377
 20
352.5348316314186
 30
0.0
 40
0.3547534947089535
100
AcDbArc
 50
194.4080979694533
 51
277.2733077982923
  0
ARC
  5
1D4
330
1E
100
AcDbEntity
  8
1
 62
     7
100
AcDbCircle
 10
-235.129575504265
 20
280.836562766466
 30
0.0
 40
1.341144476983422
100
AcDbArc
 50
262.1667414395475
 51
0.7510426966539994
  0
ARC
  5
1D5
330
1E
100
AcDbEntity
  8
1
 62
     7
100
AcDbCircle
 10
-39.96994437662875
 20
359.0079326500143
 30
0.0
 40
10.0
100
AcDbArc
 50
90.0
 51
167.1996738688738
  0
ARC
  5
1D6
330
1E
100
AcDbEntity
  8
1
 62
     7
100
AcDbCircle
 10
-39.96994437662875
 20
359.0079326500143
 30
0.0
 40
9.999999999999991
100
AcDbArc
 50
12.8003261311262
 51
90.0
  0
ARC
  5
1D7
330
1E
100
AcDbEntity
  8
1
 62
     7
100
AcDbCircle
 10
-55.73348764600669
 20
361.7544416416141
 30
0.0
 40
6.03546361962196
100
AcDbArc
 50
292.3246040776493
 51
345.2800519525492
  0
ARC
  5
1D8
330
1E
100
AcDbEntity
  8
1
 62
     7
100
AcDbCircle
 10
-39.96994437662875
 20
359.0079326500143
 30
0.0
 40
10.0
100
AcDbArc
 50
167.1996738688738
 51
173.0332704641065
  0
ARC
  5
1D9
330
1E
100
AcDbEntity
  8
1
 62
     7
100
AcDbCircle
 10
-24.2064011072508
 20
361.7544416416141
 30
0.0
 40
6.035463619621908
100
AcDbArc
 50
194.7199480474508
 51
247.6753959223509
  0
ARC
  5
1DA
330
1E
100
AcDbEntity
  8
1
 62
     7
100
AcDbCircle
 10
-39.96994437662875
 20
359.0079326500143
 30
0.0
 40
10.00000000000003
100
AcDbArc
 50
6.966729535893463
 51
12.8003261311262
  0
ARC
  5
1DB
330
1E
100
AcDbEntity
  8
1
 62
     7
100
AcDbCircle
 10
-39.96994437662875
 20
359.0079326500143
 30
0.0
 40
9.999999999999991
100
AcDbArc
 50
12.8003261311262
 51
90.0
  0
ARC
  5
1DC
330
1E
100
AcDbEntity
  8
1
 62
     7
100
AcDbCircle
 10
-75.04397322989856
 20
298.2579326500143
 30
0.0
 40
10.00000000000001
100
AcDbArc
 50
132.800326131126
 51
209.9999999999999
  0
ARC
  5
1DD
330
1E
100
AcDbEntity
  8
1
 62
     7
100
AcDbCircle
 10
-75.04397322989856
 20
298.2579326500143
 30
0.0
 40
10.0
100
AcDbArc
 50
126.9667295358936
 51
132.800326131126
  0
ARC
  5
1DE
330
1E
100
AcDbEntity
  8
1
 62
     7
100
AcDbCircle
 10
-85.30429142303532
 20
310.536307079151
 30
0.0
 40
6.035463619621991
100
AcDbArc
 50
314.7199480474502
 51
7.675395922350238
  0
ARC
  5
1DF
330
1E
100
AcDbEntity
  8
1
 62
     7
100
AcDbCircle
 10
-75.04397322989856
 20
298.2579326500143
 30
0.0
 40
9.999999999999921
100
AcDbArc
 50
287.1996738688738
 51
293.0332704641064
  0
ARC
  5
1E0
330
1E
100
AcDbEntity
  8
1
 62
     7
100
AcDbCircle
 10
-69.54074815365739
 20
283.2330492292778
 30
0.0
 40
6.035463619621904
100
AcDbArc
 50
52.32460407764985
 51
105.2800519525493
  0
ARC
  5
1E1
330
1E
100
AcDbEntity
  8
1
 62
     7
100
AcDbCircle
 10
-75.04397322989856
 20
298.2579326500143
 30
0.0
 40
10.00000000000001
100
AcDbArc
 50
132.800326131126
 51
209.9999999999999
  0
ARC
  5
1E2
330
1E
100
AcDbEntity
  8
1
 62
     7
100
AcDbCircle
 10
-75.04397322989856
 20
298.2579326500143
 30
0.0
 40
10.00000000000001
100
AcDbArc
 50
209.9999999999999
 51
287.1996738688738
  0
ARC
  5
1E3
330
1E
100
AcDbEntity
  8
1
 62
     7
100
AcDbCircle
 10
-4.895915523359011
 20
298.2579326500143
 30
0.0
 40
10.00000000000003
100
AcDbArc
 50
252.8003261311263
 51
330.0000000000001
  0
ARC
  5
1E4
330
1E
100
AcDbEntity
  8
1
 62
     7
100
AcDbCircle
 10
-4.895915523359011
 20
298.2579326500143
 30
0.0
 40
10.00000000000005
100
AcDbArc
 50
246.9667295358934
 51
252.8003261311263
  0
ARC
  5
1E5
330
1E
100
AcDbEntity
  8
1
 62
     7
100
AcDbCircle
 10
-10.39914059960018
 20
283.2330492292778
 30
0.0
 40
6.035463619621855
100
AcDbArc
 50
74.7199480474507
 51
127.6753959223511
  0
ARC
  5
1E6
330
1E
100
AcDbEntity
  8
1
 62
     7
100
AcDbCircle
 10
-4.895915523359011
 20
298.2579326500143
 30
0.0
 40
9.999999999999943
100
AcDbArc
 50
47.19967386887346
 51
53.03327046410593
  0
ARC
  5
1E7
330
1E
100
AcDbEntity
  8
1
 62
     7
100
AcDbCircle
 10
5.364402669777768
 20
310.5363070791507
 30
0.0
 40
6.03546361962194
100
AcDbArc
 50
172.3246040776476
 51
225.2800519525494
  0
ARC
  5
1E8
330
1E
100
AcDbEntity
  8
1
 62
     7
100
AcDbCircle
 10
-4.895915523359011
 20
298.2579326500143
 30
0.0
 40
10.00000000000003
100
AcDbArc
 50
252.8003261311263
 51
330.0000000000001
  0
ARC
  5
1E9
330
1E
100
AcDbEntity
  8
1
 62
     7
100
AcDbCircle
 10
-4.895915523359011
 20
298.2579326500143
 30
0.0
 40
10.00000000000001
100
AcDbArc
 50
330.0000000000001
 51
47.19967386887346
  0
ARC
  5
1EA
330
1E
100
AcDbEntity
  8
1
 62
     7
100
AcDbCircle
 10
-39.96994437662875
 20
318.5079326500143
 30
0.0
 40
50.50000000000006
100
AcDbArc
 50
105.0
 51
210.0
  0
ARC
  5
1EB
330
1E
100
AcDbEntity
  8
1
 62
     7
100
AcDbCircle
 10
-39.96994437662875
 20
318.5079326500143
 30
0.0
 40
50.50000000000004
100
AcDbArc
 50
344.9999999999998
 51
90.0
  0
ARC
  5
1EC
330
1E
100
AcDbEntity
  8
1
 62
     7
100
AcDbCircle
 10
-39.96994437662875
 20
318.5079326500143
 30
0.0
 40
50.5
100
AcDbArc
 50
224.9999999999999
 51
329.9999999999998
  0
ARC
  5
1ED
330
1E
100
AcDbEntity
  8
1
 62
     7
100
AcDbCircle
 10
-45.96994437662876
 20
387.5079326500143
 30
0.0
 40
2.0
100
AcDbArc
 50
90.0
 51
180.0
  0
ARC
  5
1EE
330
1E
100
AcDbEntity
  8
1
 62
     7
100
AcDbCircle
 10
-33.96994437662876
 20
387.5079326500143
 30
0.0
 40
2.0
100
AcDbArc
 50
0.0
 51
90.0
  0
ARC
  5
1EF
330
1E
100
AcDbEntity
  8
1
 62
     7
100
AcDbCircle
 10
-10.03299931330629
 20
345.3233177492847
 30
0.0
 40
1.309710543032923
100
AcDbArc
 50
317.4415907324635
 51
43.15046134058778
  0
ARC
  5
1F0
330
1E
100
AcDbEntity
  8
1
 62
     7
100
AcDbCircle
 10
-39.96994437662875
 20
318.5079326500143
 30
0.0
 40
41.49999999999999
100
AcDbArc
 50
41.89270472784087
 51
75.20324438777625
  0
ARC
  5
1F1
330
1E
100
AcDbEntity
  8
1
 62
     7
100
AcDbCircle
 10
-39.96994437662875
 20
318.5079326500143
 30
0.0
 40
41.50000000000003
100
AcDbArc
 50
161.8927047278409
 51
195.2032443877761
  0
ARC
  5
1F2
330
1E
100
AcDbEntity
  8
1
 62
     7
100
AcDbCircle
 10
-78.16122161652095
 20
331.0263950369155
 30
0.0
 40
1.309710543032885
100
AcDbArc
 50
77.44159073246333
 51
163.1504613405889
  0
ARC
  5
1F3
330
1E
100
AcDbEntity
  8
1
 62
     7
100
AcDbCircle
 10
-75.04397322989856
 20
298.2579326500143
 30
0.0
 40
10.0
100
AcDbArc
 50
126.9667295358936
 51
132.800326131126
  0
ARC
  5
1F4
330
1E
100
AcDbEntity
  8
1
 62
     7
100
AcDbCircle
 10
-85.30429142303532
 20
310.536307079151
 30
0.0
 40
6.035463619621991
100
AcDbArc
 50
314.7199480474502
 51
7.675395922350238
  0
ARC
  5
1F5
330
1E
100
AcDbEntity
  8
1
 62
     7
100
AcDbCircle
 10
-39.96994437662875
 20
318.5079326500143
 30
0.0
 40
41.50000000000001
100
AcDbArc
 50
281.8927047278407
 51
315.2032443877761
  0
ARC
  5
1F6
330
1E
100
AcDbEntity
  8
1
 62
     7
100
AcDbCircle
 10
-31.71561220005908
 20
279.1740851638425
 30
0.0
 40
1.309710543032906
100
AcDbArc
 50
197.4415907324594
 51
283.1504613405871
  0
ARC
  5
1F7
330
1E
100
AcDbEntity
  8
1
 62
     7
100
AcDbCircle
 10
-4.895915523359011
 20
298.2579326500143
 30
0.0
 40
10.00000000000005
100
AcDbArc
 50
246.9667295358934
 51
252.8003261311263
  0
ARC
  5
1F8
330
1E
100
AcDbEntity
  8
1
 62
     7
100
AcDbCircle
 10
-10.39914059960018
 20
283.2330492292778
 30
0.0
 40
6.035463619621855
100
AcDbArc
 50
74.7199480474507
 51
127.6753959223511
  0
ARC
  5
1F9
330
1E
100
AcDbEntity
  8
1
 62
     7
100
AcDbCircle
 10
-178.4496139999311
 20
339.7579326500143
 30
0.0
 40
3.750000000000062
100
AcDbArc
 50
60.00000000000054
 51
119.9999999999995
  0
ARC
  5
1FA
330
1E
100
AcDbEntity
  8
1
 62
     7
100
AcDbCircle
 10
-178.4496139999311
 20
339.7579326500143
 30
0.0
 40
3.749999999999963
100
AcDbArc
 50
300.0000000000003
 51
60.00000000000054
  0
ARC
  5
1FB
330
1E
100
AcDbEntity
  8
1
 62
     7
100
AcDbCircle
 10
-178.4496139999311
 20
339.7579326500143
 30
0.0
 40
3.750000000000062
100
AcDbArc
 50
119.9999999999995
 51
239.9999999999996
  0
ARC
  5
1FC
330
1E
100
AcDbEntity
  8
1
 62
     7
100
AcDbCircle
 10
-178.4496139999311
 20
339.7579326500143
 30
0.0
 40
3.749999999999963
100
AcDbArc
 50
239.9999999999996
 51
300.0000000000003
  0
ARC
  5
1FD
330
1E
100
AcDbEntity
  8
1
 62
     7
100
AcDbCircle
 10
-136.849613999931
 20
364.0079326500143
 30
0.0
 40
11.99999999999998
100
AcDbArc
 50
163.8086483613833
 51
196.1913516386165
  0
ARC
  5
1FE
330
1E
100
AcDbEntity
  8
1
 62
     7
100
AcDbCircle
 10
-141.7906432581163
 20
356.1793025335626
 30
0.0
 40
1.341144476983507
100
AcDbArc
 50
359.2489573033533
 51
97.83325856044658
  0
ARC
  5
1FF
330
1E
100
AcDbEntity
  8
1
 62
     7
100
AcDbCircle
 10
-140.1060182112281
 20
352.5348316314186
 30
0.0
 40
0.3547534947089535
100
AcDbArc
 50
194.4080979694533
 51
277.2733077982912
  0
ARC
  5
200
330
1E
100
AcDbEntity
  8
1
 62
     7
100
AcDbCircle
 10
-141.777136980144
 20
356.1876549565622
 30
0.0
 40
0.3283040153035625
100
AcDbArc
 50
356.0470534440522
 51
77.30459360541714
  0
ARC
  5
201
330
1E
100
AcDbEntity
  8
1
 62
     7
100
AcDbCircle
 10
-140.0380678944677
 20
352.5845155498843
 30
0.0
 40
1.41986018894912
100
AcDbArc
 50
186.2034627320296
 51
260.7968244187071
  0
ARC
  5
202
330
1E
100
AcDbEntity
  8
1
 62
     7
100
AcDbCircle
 10
-140.0380678944677
 20
284.4313497501443
 30
0.0
 40
1.419860188949196
100
AcDbArc
 50
99.2031755812926
 51
173.7965372679771
  0
ARC
  5
203
330
1E
100
AcDbEntity
  8
1
 62
     7
100
AcDbCircle
 10
-141.777136980144
 20
280.8282103434665
 30
0.0
 40
0.3283040153034363
100
AcDbArc
 50
282.695406394585
 51
3.952946555947828
  0
ARC
  5
204
330
1E
100
AcDbEntity
  8
1
 62
     7
100
AcDbCircle
 10
-140.1060182112281
 20
284.4810336686101
 30
0.0
 40
0.3547534947090913
100
AcDbArc
 50
82.72669220170875
 51
165.5919020305467
  0
ARC
  5
205
330
1E
100
AcDbEntity
  8
1
 62
     7
100
AcDbCircle
 10
-141.7906432581163
 20
280.836562766466
 30
0.0
 40
1.341144476983405
100
AcDbArc
 50
262.1667414395524
 51
0.7510426966539994
  0
ARC
  5
206
330
1E
100
AcDbEntity
  8
1
 62
     7
100
AcDbCircle
 10
-178.4496139999311
 20
297.2579326500143
 30
0.0
 40
3.749999999999963
100
AcDbArc
 50
59.99999999999968
 51
120.0000000000003
  0
ARC
  5
207
330
1E
100
AcDbEntity
  8
1
 62
     7
100
AcDbCircle
 10
-178.4496139999311
 20
297.2579326500143
 30
0.0
 40
3.749999999999963
100
AcDbArc
 50
120.0000000000003
 51
240.0000000000006
  0
ARC
  5
208
330
1E
100
AcDbEntity
  8
1
 62
     7
100
AcDbCircle
 10
-178.4496139999311
 20
297.2579326500143
 30
0.0
 40
3.750000000000062
100
AcDbArc
 50
299.9999999999994
 51
59.99999999999968
  0
ARC
  5
209
330
1E
100
AcDbEntity
  8
1
 62
     7
100
AcDbCircle
 10
-178.4496139999311
 20
297.2579326500143
 30
0.0
 40
3.750000000000062
100
AcDbArc
 50
240.0000000000006
 51
299.9999999999994
  0
ARC
  5
20A
330
1E
100
AcDbEntity
  8
1
 62
     7
100
AcDbCircle
 10
-39.96994437662875
 20
383.5079326500143
 30
0.0
 40
2.75
100
AcDbArc
 50
0.0
 51
180.0
  0
ARC
  5
20B
330
1E
100
AcDbEntity
  8
1
 62
     7
100
AcDbCircle
 10
-39.96994437662875
 20
383.5079326500143
 30
0.0
 40
2.75
100
AcDbArc
 50
180.0
 51
0.0
  0
ARC
  5
20C
330
1E
100
AcDbEntity
  8
1
 62
     7
100
AcDbCircle
 10
-39.96994437662875
 20
318.5079326500143
 30
0.0
 40
55.0
100
AcDbArc
 50
0.0
 51
180.0
  0
ARC
  5
20D
330
1E
100
AcDbEntity
  8
1
 62
     7
100
AcDbCircle
 10
-39.96994437662875
 20
318.5079326500143
 30
0.0
 40
55.0
100
AcDbArc
 50
180.0
 51
0.0
  0
ARC
  5
20E
330
1E
100
AcDbEntity
  8
1
 62
     7
100
AcDbCircle
 10
-379.8922889702541
 20
387.5079326500143
 30
0.0
 40
2.0
100
AcDbArc
 50
90.0
 51
180.0
  0
ARC
  5
20F
330
1E
100
AcDbEntity
  8
1
 62
     7
100
AcDbCircle
 10
-362.8922889702539
 20
362.5079326500143
 30
0.0
 40
2.0
100
AcDbArc
 50
0.0
 51
90.0
  0
ARC
  5
210
330
1E
100
AcDbEntity
  8
1
 62
     7
100
AcDbCircle
 10
-384.8922889702541
 20
362.5079326500143
 30
0.0
 40
2.0
100
AcDbArc
 50
90.0
 51
180.0
  0
ARC
  5
211
330
1E
100
AcDbEntity
  8
1
 62
     7
100
AcDbCircle
 10
-383.8922889702541
 20
366.5079326500143
 30
0.0
 40
2.0
100
AcDbArc
 50
270.0
 51
0.0
  0
ARC
  5
212
330
1E
100
AcDbEntity
  8
1
 62
     7
100
AcDbCircle
 10
-363.8922889702539
 20
366.5079326500143
 30
0.0
 40
2.0
100
AcDbArc
 50
180.0
 51
270.0
  0
ARC
  5
213
330
1E
100
AcDbEntity
  8
1
 62
     7
100
AcDbCircle
 10
-367.8922889702539
 20
387.5079326500143
 30
0.0
 40
2.0
100
AcDbArc
 50
0.0
 51
90.0
  0
ARC
  5
214
330
1E
100
AcDbEntity
  8
1
 62
     7
100
AcDbCircle
 10
-379.8922889702541
 20
387.5079326500143
 30
0.0
 40
2.0
100
AcDbArc
 50
90.0
 51
180.0
  0
ARC
  5
215
330
1E
100
AcDbEntity
  8
1
 62
     7
100
AcDbCircle
 10
-383.8922889702539
 20
302.3378202908321
 30
0.0
 40
3.0
100
AcDbArc
 50
0.0
 51
59.72865351512012
  0
ARC
  5
216
330
1E
100
AcDbEntity
  8
1
 62
     7
100
AcDbCircle
 10
-363.8922889702539
 20
302.3378202908321
 30
0.0
 40
2.999999999999926
100
AcDbArc
 50
120.2713464848808
 51
180.0
  0
ARC
  5
217
330
1E
100
AcDbEntity
  8
1
 62
     7
100
AcDbCircle
 10
-378.8922889702539
 20
301.7109941933151
 30
0.0
 40
2.0
100
AcDbArc
 50
180.0
 51
270.0
  0
ARC
  5
218
330
1E
100
AcDbEntity
  8
1
 62
     7
100
AcDbCircle
 10
-368.8922889702539
 20
301.7109941933151
 30
0.0
 40
2.0
100
AcDbArc
 50
270.0
 51
0.0
  0
ARC
  5
219
330
1E
100
AcDbEntity
  8
1
 62
     7
100
AcDbCircle
 10
-146.8371061776501
 20
366.9079326500143
 30
0.0
 40
1.600000000000023
100
AcDbArc
 50
90.0
 51
163.8086483613833
  0
ARC
  5
21A
330
1E
100
AcDbEntity
  8
1
 62
     7
100
AcDbCircle
 10
-146.8371061776501
 20
361.1079326500143
 30
0.0
 40
1.599999999999952
100
AcDbArc
 50
196.1913516386145
 51
270.0
  0
ARC
  5
21B
330
1E
100
AcDbEntity
  8
1
 62
     7
100
AcDbCircle
 10
-145.849613999931
 20
368.2079326500143
 30
0.0
 40
0.3000000000000966
100
AcDbArc
 50
0.0
 51
90.0
  0
ARC
  5
21C
330
1E
100
AcDbEntity
  8
1
 62
     7
100
AcDbCircle
 10
-145.849613999931
 20
359.8079326500143
 30
0.0
 40
0.3000000000000114
100
AcDbArc
 50
270.0
 51
0.0
  0
CIRCLE
  5
21D
330
1E
100
AcDbEntity
  8
1
 62
     7
100
AcDbCircle
 10
-373.8922889702539
 20
318.5079326500143
 30
0.0
 40
14.99999999999989
  0
CIRCLE
  5
21E
330
1E
100
AcDbEntity
  8
1
 62
     7
100
AcDbCircle
 10
-373.8922889702539
 20
383.5079326500143
 30
0.0
 40
2.75
  0
CIRCLE
  5
21F
330
1E
100
AcDbEntity
  8
1
 62
     7
100
AcDbCircle
 10
-378.8922889702539
 20
301.7609941933152
 30
0.0
 40
1.0
  0
CIRCLE
  5
220
330
1E
100
AcDbEntity
  8
1
 62
     7
100
AcDbCircle
 10
-368.8922889702539
 20
301.7609941933152
 30
0.0
 40
1.0
  0
CIRCLE
  5
221
330
1E
100
AcDbEntity
  8
1
 62
     7
100
AcDbCircle
 10
-373.8922889702539
 20
318.5079326500143
 30
0.0
 40
35.49999999999989
  0
CIRCLE
  5
222
330
1E
100
AcDbEntity
  8
1
 62
     7
100
AcDbCircle
 10
-373.8922889702539
 20
318.5079326500143
 30
0.0
 40
23.99999999999989
  0
CIRCLE
  5
223
330
1E
100
AcDbEntity
  8
1
 62
     7
100
AcDbCircle
 10
-39.96994437662875
 20
318.5079326500143
 30
0.0
 40
10.0
  0
CIRCLE
  5
224
330
1E
100
AcDbEntity
  8
1
 62
     7
100
AcDbCircle
 10
-39.96994437662875
 20
318.5079326500143
 30
0.0
 40
13.5
  0
CIRCLE
  5
225
330
1E
100
AcDbEntity
  8
1
 62
     7
100
AcDbCircle
 10
-39.96994437662875
 20
318.5079326500143
 30
0.0
 40
17.5
  0
CIRCLE
  5
226
330
1E
100
AcDbEntity
  8
1
 62
     7
100
AcDbCircle
 10
-39.96994437662875
 20
318.5079326500143
 30
0.0
 40
21.0
  0
CIRCLE
  5
227
330
1E
100
AcDbEntity
  8
1
 62
     7
100
AcDbCircle
 10
-39.96994437662875
 20
318.5079326500143
 30
0.0
 40
32.675
  0
CIRCLE
  5
228
330
1E
100
AcDbEntity
  8
1
 62
     7
100
AcDbCircle
 10
-39.96994437662875
 20
364.0079326500143
 30
0.0
 40
2.5
  0
CIRCLE
  5
229
330
1E
100
AcDbEntity
  8
1
 62
     7
100
AcDbCircle
 10
-39.96994437662875
 20
364.0079326500143
 30
0.0
 40
1.5
  0
CIRCLE
  5
22A
330
1E
100
AcDbEntity
  8
1
 62
     7
100
AcDbCircle
 10
-79.37410024882074
 20
295.7579326500143
 30
0.0
 40
1.500000000000027
  0
CIRCLE
  5
22B
330
1E
100
AcDbEntity
  8
1
 62
     7
100
AcDbCircle
 10
-79.37410024882074
 20
295.7579326500143
 30
0.0
 40
2.500000000000014
  0
CIRCLE
  5
22C
330
1E
100
AcDbEntity
  8
1
 62
     7
100
AcDbCircle
 10
-0.5657885044368101
 20
295.7579326500143
 30
0.0
 40
1.500000000000027
  0
CIRCLE
  5
22D
330
1E
100
AcDbEntity
  8
1
 62
     7
100
AcDbCircle
 10
-0.5657885044368101
 20
295.7579326500143
 30
0.0
 40
2.500000000000107
  0
CIRCLE
  5
22E
330
1E
100
AcDbEntity
  8
1
 62
     7
100
AcDbCircle
 10
-39.96994437662875
 20
343.5079326500143
 30
0.0
 40
2.75
  0
CIRCLE
  5
22F
330
1E
100
AcDbEntity
  8
1
 62
     3
100
AcDbCircle
 10
-18.3193092820178
 20
331.0079326500143
 30
0.0
 40
2.500000000000002
  0
CIRCLE
  5
230
330
1E
100
AcDbEntity
  8
1
 62
     7
100
AcDbCircle
 10
-18.3193092820178
 20
331.0079326500143
 30
0.0
 40
1.5
  0
CIRCLE
  5
231
330
1E
100
AcDbEntity
  8
1
 62
     3
100
AcDbCircle
 10
-39.96994437662875
 20
318.5079326500143
 30
0.0
 40
29.99999999999996
  0
CIRCLE
  5
232
330
1E
100
AcDbEntity
  8
1
 62
     7
100
AcDbCircle
 10
-61.62057947123973
 20
306.0079326500143
 30
0.0
 40
2.750000000000071
  0
CIRCLE
  5
233
330
1E
100
AcDbEntity
  8
1
 62
     7
100
AcDbCircle
 10
-18.3193092820178
 20
306.0079326500143
 30
0.0
 40
2.749999999999982
  0
CIRCLE
  5
234
330
1E
100
AcDbEntity
  8
1
 62
     7
100
AcDbCircle
 10
-61.62057947123973
 20
331.0079326500143
 30
0.0
 40
1.50000000000002
  0
CIRCLE
  5
235
330
1E
100
AcDbEntity
  8
1
 62
     3
100
AcDbCircle
 10
-61.62057947123973
 20
331.0079326500143
 30
0.0
 40
2.500000000000014
  0
CIRCLE
  5
236
330
1E
100
AcDbEntity
  8
1
 62
     7
100
AcDbCircle
 10
-39.96994437662877
 20
293.5079326500143
 30
0.0
 40
1.500000000000014
  0
CIRCLE
  5
237
330
1E
100
AcDbEntity
  8
1
 62
     3
100
AcDbCircle
 10
-39.96994437662877
 20
293.5079326500143
 30
0.0
 40
2.5
  0
CIRCLE
  5
238
330
1E
100
AcDbEntity
  8
1
  6
DASHDOT
 62
     3
100
AcDbCircle
 10
-39.96994437662875
 20
318.5079326500143
 30
0.0
 40
31.5
  0
ARC
  5
239
330
1E
100
AcDbEntity
  8
1
 62
     7
100
AcDbCircle
 10
-232.9385462460799
 20
357.0079326500143
 30
0.0
 40
2.0
100
AcDbArc
 50
0.0
 51
55.48268408222605
  0
ARC
  5
23A
330
1E
100
AcDbEntity
  8
1
 62
     7
100
AcDbCircle
 10
-232.9385462460799
 20
357.0079326500143
 30
0.0
 40
2.000000000000042
100
AcDbArc
 50
85.93082267093036
 51
90.0
  0
ARC
  5
23B
330
1E
100
AcDbEntity
  8
1
 62
     7
100
AcDbCircle
 10
-230.9385462460799
 20
353.5079326500143
 30
0.0
 40
1.0
100
AcDbArc
 50
0.0
 51
90.0
  0
ARC
  5
23C
330
1E
100
AcDbEntity
  8
1
 62
     7
100
AcDbCircle
 10
-137.599613999931
 20
353.5079326500143
 30
0.0
 40
1.0
100
AcDbArc
 50
0.0
 51
90.0
  0
ARC
  5
23D
330
1E
100
AcDbEntity
  8
1
 62
     7
100
AcDbCircle
 10
-139.599613999931
 20
357.0079326500143
 30
0.0
 40
2.0
100
AcDbArc
 50
0.0
 51
90.0
  0
TEXT
  5
23E
330
1E
100
AcDbEntity
  8
1
 62
     7
100
AcDbText
 10
-433.2083905544934
 20
417.505139770122
 30
0.0
 40
6.0
  1
MSC 2.5T
 41
0.9
  7
SIMPLEX
 72
     1
 11
-414.1798191259219
 21
417.505139770122
 31
0.0
100
AcDbText
  0
ENDSEC
  0
SECTION
  2
OBJECTS
  0
DICTIONARY
  5
C
330
0
100
AcDbDictionary
281
     1
  3
ACAD_GROUP
350
D
  3
ACAD_PLOTSTYLENAME
350
E
  3
ACAD_MLINESTYLE
350
16
  3
ACAD_PLOTSETTINGS
350
18
  3
ACAD_LAYOUT
350
19
  0
DICTIONARY
  5
D
102
{ACAD_REACTORS
330
C
102
}
330
C
100
AcDbDictionary
281
     1
  0
ACDBDICTIONARYWDFLT
  5
E
102
{ACAD_REACTORS
330
C
102
}
330
C
100
AcDbDictionary
281
     1
  3
Normal
350
F
100
AcDbDictionaryWithDefault
340
F
  0
DICTIONARY
  5
16
102
{ACAD_REACTORS
330
C
102
}
330
C
100
AcDbDictionary
281
     1
  3
Standard
350
17
  0
DICTIONARY
  5
18
102
{ACAD_REACTORS
330
C
102
}
330
C
100
AcDbDictionary
281
     1
  0
DICTIONARY
  5
19
102
{ACAD_REACTORS
330
C
102
}
330
C
100
AcDbDictionary
281
     1
  3
ﾚｲｱｳﾄ1
350
1D
  3
Model
350
21
  0
ACDBPLACEHOLDER
  5
F
102
{ACAD_REACTORS
330
E
102
}
330
E
  0
MLINESTYLE
  5
17
102
{ACAD_REACTORS
330
16
102
}
330
16
100
AcDbMlineStyle
  2
STANDARD
 70
     0
  3

 62
   256
 51
90.0
 52
90.0
 71
     2
 49
0.5
 62
   256
  6
BYLAYER
 49
-0.5
 62
   256
  6
BYLAYER
  0
LAYOUT
  5
1D
102
{ACAD_REACTORS
330
19
102
}
330
19
100
AcDbPlotSettings
  1

  2
Canon BJ F100
  4

  6

 40
0.0
 41
0.0
 42
0.0
 43
0.0
 44
0.0
 45
0.0
 46
0.0
 47
0.0
 48
0.0
 49
0.0
140
0.0
141
0.0
142
1.0
143
1.0
 70
   688
 72
     0
 73
     0
 74
     5
  7

 75
    16
147
1.0
148
0.0
149
0.0
100
AcDbLayout
  1
ﾚｲｱｳﾄ1
 70
     1
 71
     1
 10
0.0
 20
0.0
 11
12.0
 21
9.0
 12
0.0
 22
0.0
 32
0.0
 14
1.000000000000000E+20
 24
1.000000000000000E+20
 34
1.000000000000000E+20
 15
-1.000000000000000E+20
 25
-1.000000000000000E+20
 35
-1.000000000000000E+20
146
0.0
 13
0.0
 23
0.0
 33
0.0
 16
1.0
 26
0.0
 36
0.0
 17
0.0
 27
1.0
 37
0.0
 76
     0
330
1A
  0
LAYOUT
  5
21
102
{ACAD_REACTORS
330
19
102
}
330
19
100
AcDbPlotSettings
  1

  2
Canon BJ F100
  4

  6

 40
0.0
 41
0.0
 42
0.0
 43
0.0
 44
0.0
 45
0.0
 46
0.0
 47
0.0
 48
0.0
 49
0.0
140
0.0
141
0.0
142
1.0
143
1.0
 70
  1712
 72
     0
 73
     0
 74
     0
  7

 75
     0
147
1.0
148
0.0
149
0.0
100
AcDbLayout
  1
Model
 70
     1
 71
     0
 10
0.0
 20
0.0
 11
12.0
 21
9.0
 12
0.0
 22
0.0
 32
0.0
 14
0.0
 24
0.0
 34
0.0
 15
0.0
 25
0.0
 35
0.0
146
0.0
 13
0.0
 23
0.0
 33
0.0
 16
1.0
 26
0.0
 36
0.0
 17
0.0
 27
1.0
 37
0.0
 76
     0
330
1E
  0
ENDSEC
  0
EOF
