  0
SECTION
  2
HEADER
  9
$ACADVER
  1
AC1009
  9
$INSBASE
 10
0.0
 20
0.0
 30
0.0
  9
$EXTMIN
 10
-84.0
 20
-130.82909454722491
 30
0.0
  9
$EXTMAX
 10
881.29999999999973
 20
232.14026549148991
 30
0.0
  9
$LIMMIN
 10
-84.0
 20
-130.0
  9
$LIMMAX
 10
881.29999999999973
 20
232.14026549148991
  9
$ORTHOMODE
 70
     0
  9
$REGENMODE
 70
     1
  9
$FILLMODE
 70
     1
  9
$QTEXTMODE
 70
     0
  9
$MIRRTEXT
 70
     1
  9
$DRAGMODE
 70
     2
  9
$LTSCALE
 40
1.0
  9
$OSMODE
 70
    37
  9
$ATTMODE
 70
     1
  9
$TEXTSIZE
 40
3.5
  9
$TRACEWID
 40
0.5
  9
$TEXTSTYLE
  7
STANDARD
  9
$CLAYER
  8
0
  9
$CELTYPE
  6
BYLAYER
  9
$CECOLOR
 62
   256
  9
$DIMSCALE
 40
1.0
  9
$DIMASZ
 40
0.18
  9
$DIMEXO
 40
0.0625
  9
$DIMDLI
 40
0.38
  9
$DIMRND
 40
0.0
  9
$DIMDLE
 40
0.0
  9
$DIMEXE
 40
0.18
  9
$DIMTP
 40
0.0
  9
$DIMTM
 40
0.0
  9
$DIMTXT
 40
0.18
  9
$DIMCEN
 40
0.09
  9
$DIMTSZ
 40
0.0
  9
$DIMTOL
 70
     0
  9
$DIMLIM
 70
     0
  9
$DIMTIH
 70
     1
  9
$DIMTOH
 70
     1
  9
$DIMSE1
 70
     0
  9
$DIMSE2
 70
     0
  9
$DIMTAD
 70
     0
  9
$DIMZIN
 70
     0
  9
$DIMBLK
  1

  9
$DIMASO
 70
     1
  9
$DIMSHO
 70
     1
  9
$DIMPOST
  1

  9
$DIMAPOST
  1

  9
$DIMALT
 70
     0
  9
$DIMALTD
 70
     2
  9
$DIMALTF
 40
25.399999999999999
  9
$DIMLFAC
 40
1.0
  9
$DIMTOFL
 70
     0
  9
$DIMTVP
 40
0.0
  9
$DIMTIX
 70
     0
  9
$DIMSOXD
 70
     0
  9
$DIMSAH
 70
     0
  9
$DIMBLK1
  1

  9
$DIMBLK2
  1

  9
$DIMSTYLE
  2
STANDARD
  9
$DIMCLRD
 70
     0
  9
$DIMCLRE
 70
     0
  9
$DIMCLRT
 70
     0
  9
$DIMTFAC
 40
1.0
  9
$DIMGAP
 40
0.09
  9
$LUNITS
 70
     2
  9
$LUPREC
 70
     4
  9
$SKETCHINC
 40
0.1
  9
$FILLETRAD
 40
2.0
  9
$AUNITS
 70
     0
  9
$AUPREC
 70
     0
  9
$MENU
  1
ACAD
  9
$ELEVATION
 40
0.0
  9
$PELEVATION
 40
0.0
  9
$THICKNESS
 40
0.0
  9
$LIMCHECK
 70
     0
  9
$BLIPMODE
 70
     0
  9
$CHAMFERA
 40
0.0
  9
$CHAMFERB
 40
0.0
  9
$SKPOLY
 70
     0
  9
$TDCREATE
 40
2452094.5489097219
  9
$TDUPDATE
 40
2452094.5502656251
  9
$TDINDWG
 40
0.0013611111
  9
$TDUSRTIMER
 40
0.0013611111
  9
$USRTIMER
 70
     1
  9
$ANGBASE
 50
0.0
  9
$ANGDIR
 70
     0
  9
$PDMODE
 70
     0
  9
$PDSIZE
 40
0.0
  9
$PLINEWID
 40
0.0
  9
$COORDS
 70
     1
  9
$SPLFRAME
 70
     0
  9
$SPLINETYPE
 70
     6
  9
$SPLINESEGS
 70
     8
  9
$ATTDIA
 70
     0
  9
$ATTREQ
 70
     1
  9
$HANDLING
 70
 10241
  9
$HANDSEED
  5
30C
  9
$SURFTAB1
 70
     6
  9
$SURFTAB2
 70
     6
  9
$SURFTYPE
 70
     6
  9
$SURFU
 70
     6
  9
$SURFV
 70
     6
  9
$UCSNAME
  2

  9
$UCSORG
 10
0.0
 20
0.0
 30
0.0
  9
$UCSXDIR
 10
1.0
 20
0.0
 30
0.0
  9
$UCSYDIR
 10
0.0
 20
1.0
 30
0.0
  9
$PUCSNAME
  2

  9
$PUCSORG
 10
0.0
 20
0.0
 30
0.0
  9
$PUCSXDIR
 10
1.0
 20
0.0
 30
0.0
  9
$PUCSYDIR
 10
0.0
 20
1.0
 30
0.0
  9
$USERI1
 70
     0
  9
$USERI2
 70
     0
  9
$USERI3
 70
     0
  9
$USERI4
 70
     0
  9
$USERI5
 70
     0
  9
$USERR1
 40
0.0
  9
$USERR2
 40
0.0
  9
$USERR3
 40
0.0
  9
$USERR4
 40
0.0
  9
$USERR5
 40
0.0
  9
$WORLDVIEW
 70
     1
  9
$SHADEDGE
 70
     3
  9
$SHADEDIF
 70
    70
  9
$TILEMODE
 70
     1
  9
$MAXACTVP
 70
    64
  9
$PLIMCHECK
 70
     0
  9
$PEXTMIN
 10
1.0000000000000000E+020
 20
1.0000000000000000E+020
 30
1.0000000000000000E+020
  9
$PEXTMAX
 10
-1.0000000000000000E+020
 20
-1.0000000000000000E+020
 30
-1.0000000000000000E+020
  9
$PLIMMIN
 10
0.0
 20
0.0
  9
$PLIMMAX
 10
12.0
 20
9.0
  9
$UNITMODE
 70
     0
  9
$VISRETAIN
 70
     1
  9
$PLINEGEN
 70
     0
  9
$PSLTSCALE
 70
     1
  0
ENDSEC
  0
SECTION
  2
TABLES
  0
TABLE
  2
VPORT
 70
     2
  0
VPORT
  2
*ACTIVE
 70
     0
 10
0.0
 20
0.0
 11
1.0
 21
1.0
 12
-16.515838204245942
 22
202.33760447006719
 13
0.0
 23
0.0
 14
1.0
 24
1.0
 15
0.0
 25
0.0
 16
0.0
 26
0.0
 36
1.0
 17
0.0
 27
0.0
 37
0.0
 40
8.9999999202423169
 41
2.5693779904306222
 42
50.0
 43
0.0
 44
0.0
 50
0.0
 51
0.0
 71
     0
 72
   100
 73
     1
 74
     1
 75
     0
 76
     0
 77
     0
 78
     0
  0
ENDTAB
  0
TABLE
  2
LTYPE
 70
     9
  0
LTYPE
  2
CONTINUOUS
 70
     0
  3
Solid line
 72
    65
 73
     0
 40
0.0
  0
LTYPE
  2
BORDER
 70
     0
  3
__ __ . __ __ .
 72
    65
 73
     6
 40
44.454605263157873
 49
12.70131578947367
 49
-6.3506578947368384
 49
12.70131578947367
 49
-6.3506578947368384
 49
0.0
 49
-6.3506578947368384
  0
LTYPE
  2
CENTER
 70
     0
  3
____ _ ____ _
 72
    65
 73
     4
 40
50.8052631578947
 49
31.753289473684202
 49
-6.3506578947368384
 49
6.3506578947368384
 49
-6.3506578947368384
  0
LTYPE
  2
DASHDOT
 70
     0
  3
__ . __ . __ .
 72
    65
 73
     4
 40
25.40263157894735
 49
12.70131578947367
 49
-6.3506578947368384
 49
0.0
 49
-6.3506578947368384
  0
LTYPE
  2
DASHED
 70
     0
  3
__ __ __ __ __
 72
    65
 73
     2
 40
19.05197368421052
 49
12.70131578947367
 49
-6.3506578947368384
  0
LTYPE
  2
DIVIDE
 70
     0
  3
__ . . __ . . 
 72
    65
 73
     6
 40
31.753289473684202
 49
12.70131578947367
 49
-6.3506578947368384
 49
0.0
 49
-6.3506578947368384
 49
0.0
 49
-6.3506578947368384
  0
LTYPE
  2
DOT
 70
     0
  3
..............
 72
    65
 73
     4
 40
12.70131578947367
 49
0.0
 49
-6.3506578947368384
 49
0.0
 49
-6.3506578947368384
  0
LTYPE
  2
HIDDEN
 70
     0
  3
_ _ _ _ _ _ _
 72
    65
 73
     2
 40
9.525986842105258
 49
6.3506578947368384
 49
-3.1753289473684192
  0
LTYPE
  2
PHANTOM
 70
     0
  3
_____ _ _ _____ _ _ 
 72
    65
 73
     6
 40
63.506578947368411
 49
31.753289473684202
 49
-6.3506578947368384
 49
6.3506578947368384
 49
-6.3506578947368384
 49
6.3506578947368384
 49
-6.3506578947368384
  0
ENDTAB
  0
TABLE
  2
LAYER
 70
     2
  0
LAYER
  2
0
 70
     0
 62
     7
  6
CONTINUOUS
  0
LAYER
  2
1
 70
     0
 62
     7
  6
CONTINUOUS
  0
ENDTAB
  0
TABLE
  2
STYLE
 70
     4
  0
STYLE
  2
STANDARD
 70
     0
 40
0.0
 41
1.0
 50
0.0
 71
     0
 42
3.5
  3
txt
  4

  0
STYLE
  2
SIMPLEX
 70
     0
 40
0.0
 41
1.0
 50
0.0
 71
     0
 42
3.5
  3
simplex
  4

  0
STYLE
  2
COMPLEX
 70
     0
 40
0.0
 41
1.0
 50
0.0
 71
     0
 42
3.5
  3
complex
  4

  0
STYLE
  2
ITALIC
 70
     0
 40
0.0
 41
1.0
 50
0.0
 71
     0
 42
3.5
  3
italic
  4

  0
ENDTAB
  0
TABLE
  2
VIEW
 70
     0
  0
ENDTAB
  0
TABLE
  2
UCS
 70
     0
  0
ENDTAB
  0
TABLE
  2
APPID
 70
     1
  0
APPID
  2
ACAD
 70
     0
  0
ENDTAB
  0
TABLE
  2
DIMSTYLE
 70
     1
  0
DIMSTYLE
  2
STANDARD
 70
     0
  3

  4

  5

  6

  7

 40
1.0
 41
0.18
 42
0.0625
 43
0.38
 44
0.18
 45
0.0
 46
0.0
 47
0.0
 48
0.0
140
0.18
141
0.09
142
0.0
143
25.399999999999999
144
1.0
145
0.0
146
1.0
147
0.09
 71
     0
 72
     0
 73
     1
 74
     1
 75
     0
 76
     0
 77
     0
 78
     0
170
     0
171
     2
172
     0
173
     0
174
     0
175
     0
176
     0
177
     0
178
     0
  0
ENDTAB
  0
ENDSEC
  0
SECTION
  2
BLOCKS
  0
BLOCK
  8
0
  2
$MODEL_SPACE
 70
     0
 10
0.0
 20
0.0
 30
0.0
  3
$MODEL_SPACE
  1

  0
ENDBLK
  5
20
  8
0
  0
BLOCK
 67
     1
  8
0
  2
$PAPER_SPACE
 70
     0
 10
0.0
 20
0.0
 30
0.0
  3
$PAPER_SPACE
  1

  0
ENDBLK
  5
1C
 67
     1
  8
0
  0
ENDSEC
  0
SECTION
  2
ENTITIES
  0
LINE
  5
33
  8
1
 62
     7
 10
703.71940382674916
 20
169.4594254321606
 30
0.0
 11
705.27231809736406
 21
163.6638704744262
 31
0.0
  0
LINE
  5
34
  8
1
 62
     7
 10
704.39555190515148
 20
169.64059876373241
 30
0.0
 11
705.9484661757665
 21
163.84504380599799
 31
0.0
  0
LINE
  5
35
  8
1
 62
     7
 10
705.0716999835538
 20
169.82177209530411
 30
0.0
 11
706.62461425416882
 21
164.0262171375696
 31
0.0
  0
LINE
  5
36
  8
1
 62
     7
 10
706.42399614035844
 20
170.1841187584476
 30
0.0
 11
707.97691041097357
 21
164.38856380071331
 31
0.0
  0
LINE
  5
37
  8
1
 62
     7
 10
707.10014421876065
 20
170.36529209001941
 30
0.0
 11
708.65305848937578
 21
164.56973713228501
 31
0.0
  0
LINE
  5
38
  8
1
 62
     7
 10
707.77629229716297
 20
170.54646542159111
 30
0.0
 11
709.32920656777833
 21
164.75091046385671
 31
0.0
  0
LINE
  5
39
  8
1
 62
     7
 10
707.30076233257125
 20
164.2073904691415
 30
0.0
 11
717.6535241366721
 21
125.5703574175788
 31
0.0
  0
LINE
  5
3A
  8
1
 62
     7
 10
704.78935518421963
 20
163.53446095187491
 30
0.0
 11
715.14884695655735
 21
124.87231131691919
 31
0.0
  0
LINE
  5
3B
  8
1
 62
     7
 10
709.81216948092276
 20
164.8803199864081
 30
0.0
 11
720.17166125326048
 21
126.2181703514522
 31
0.0
  0
LINE
  5
3C
  8
1
 62
     7
 10
704.78935518421963
 20
163.53446095187491
 30
0.0
 11
709.81216948092276
 21
164.8803199864081
 31
0.0
  0
LINE
  5
3D
  8
1
 62
     7
 10
515.09999999999968
 20
129.99999999999989
 30
0.0
 11
513.69999999999982
 21
129.99999999999989
 31
0.0
  0
LINE
  5
3E
  8
1
 62
     7
 10
515.09999999999968
 20
129.99999999999989
 30
0.0
 11
515.09999999999968
 21
98.000000000000057
 31
0.0
  0
LINE
  5
3F
  8
1
 62
     7
 10
87.323745819465216
 20
162.33609589813429
 30
0.0
 11
85.770831548850055
 21
156.54054094039989
 31
0.0
  0
LINE
  5
40
  8
1
 62
     7
 10
87.999893897867551
 20
162.15492256656239
 30
0.0
 11
86.446979627252404
 21
156.35936760882799
 31
0.0
  0
LINE
  5
41
  8
1
 62
     7
 10
88.6760419762699
 20
161.97374923499081
 30
0.0
 11
87.123127705654767
 21
156.17819427725641
 31
0.0
  0
LINE
  5
42
  8
1
 62
     7
 10
90.02833813307457
 20
161.61140257184709
 30
0.0
 11
88.475423862459465
 21
155.81584761411281
 31
0.0
  0
LINE
  5
43
  8
1
 62
     7
 10
90.704486211476919
 20
161.43022924027539
 30
0.0
 11
89.151571940861814
 21
155.634674282541
 31
0.0
  0
LINE
  5
44
  8
1
 62
     7
 10
91.380634289879282
 20
161.2490559087037
 30
0.0
 11
89.827720019264163
 21
155.4535009509693
 31
0.0
  0
LINE
  5
45
  8
1
 62
     7
 10
87.799275784057087
 20
155.99702094568451
 30
0.0
 11
77.446513979956279
 21
117.3599878941218
 31
0.0
  0
LINE
  5
46
  8
1
 62
     7
 10
85.28786863570555
 20
156.66995046295099
 30
0.0
 11
74.927905938234403
 21
118.00604331147051
 31
0.0
  0
LINE
  5
47
  8
1
 62
     7
 10
90.310682932408696
 20
155.324091428418
 30
0.0
 11
79.950720234937563
 21
116.6601842769374
 31
0.0
  0
LINE
  5
48
  8
1
 62
     7
 10
85.28786863570555
 20
156.66995046295099
 30
0.0
 11
90.310682932408696
 21
155.324091428418
 31
0.0
  0
LINE
  5
49
  8
1
 62
     7
 10
324.69999999999982
 20
-79.988405414335304
 30
0.0
 11
326.75069772500279
 21
-79.988405414335304
 31
0.0
  0
LINE
  5
4A
  8
1
 62
     7
 10
305.00000000000011
 20
0.0000000000000071
 30
0.0
 11
305.00000000000011
 21
130.0
 31
0.0
  0
LINE
  5
4B
  8
1
 62
     7
 10
305.7000000000001
 20
0.0000000000000071
 30
0.0
 11
305.7000000000001
 21
-129.99999999999989
 31
0.0
  0
LINE
  5
4C
  8
1
 62
     7
 10
324.69999999999982
 20
-129.99999999999989
 30
0.0
 11
323.30000000000001
 21
-129.99999999999989
 31
0.0
  0
LINE
  5
4D
  8
1
 62
     7
 10
264.69999999999987
 20
161.5
 30
0.0
 11
267.30000000000001
 21
161.5
 31
0.0
  0
LINE
  5
4E
  8
1
 62
     7
 10
267.30000000000001
 20
161.5
 30
0.0
 11
267.30000000000001
 21
121.5
 31
0.0
  0
LINE
  5
4F
  8
1
 62
     7
 10
264.69999999999987
 20
161.5
 30
0.0
 11
264.69999999999987
 21
121.5
 31
0.0
  0
LINE
  5
50
  8
1
 62
     7
 10
266.80000000000001
 20
167.5
 30
0.0
 11
266.80000000000001
 21
161.5
 31
0.0
  0
LINE
  5
51
  8
1
 62
     7
 10
266.39999999999992
 20
167.5
 30
0.0
 11
266.39999999999992
 21
161.5
 31
0.0
  0
LINE
  5
52
  8
1
 62
     7
 10
266.0
 20
167.5
 30
0.0
 11
266.0
 21
161.5
 31
0.0
  0
LINE
  5
53
  8
1
 62
     7
 10
265.60000000000002
 20
167.5
 30
0.0
 11
265.60000000000002
 21
161.5
 31
0.0
  0
LINE
  5
54
  8
1
 62
     7
 10
265.2000000000001
 20
167.5
 30
0.0
 11
265.2000000000001
 21
161.5
 31
0.0
  0
LINE
  5
55
  8
1
 62
     7
 10
345.69999999999987
 20
-70.14999999999992
 30
0.0
 11
349.0
 21
-70.14999999999992
 31
0.0
  0
LINE
  5
56
  8
1
 62
     7
 10
343.69999999999982
 20
-83.000000000000014
 30
0.0
 11
343.39999999999981
 21
-83.000000000000071
 31
0.0
  0
LINE
  5
57
  8
1
 62
     7
 10
345.69999999999987
 20
-80.999999999999986
 30
0.0
 11
343.69999999999982
 21
-83.000000000000014
 31
0.0
  0
LINE
  5
58
  8
1
 62
     7
 10
343.69999999999982
 20
-83.000000000000014
 30
0.0
 11
343.39999999999981
 21
-83.000000000000071
 31
0.0
  0
LINE
  5
59
  8
1
 62
     7
 10
345.69999999999987
 20
0.0
 30
0.0
 11
345.69999999999987
 21
-80.999999999999986
 31
0.0
  0
LINE
  5
5A
  8
1
 62
     7
 10
329.80000000000001
 20
-49.548387096773283
 30
0.0
 11
329.80000000000001
 21
-99.000000000000057
 31
0.0
  0
LINE
  5
5B
  8
1
 62
     7
 10
329.80000000000001
 20
76.000000000000028
 30
0.0
 11
329.80000000000001
 21
73.750000000000028
 31
0.0
  0
LINE
  5
5C
  8
1
 62
     7
 10
343.69999999999982
 20
83.000000000000014
 30
0.0
 11
345.69999999999987
 21
81.0
 31
0.0
  0
LINE
  5
5D
  8
1
 62
     7
 10
345.69999999999987
 20
81.0
 30
0.0
 11
345.69999999999987
 21
0.0
 31
0.0
  0
LINE
  5
5E
  8
1
 62
     7
 10
319.0
 20
125.9787454673945
 30
0.0
 11
319.0
 21
0.0000000000000046
 31
0.0
  0
LINE
  5
5F
  8
1
  6
DASHDOT
 62
     3
 10
540.39999999999986
 20
0.0
 30
0.0
 11
547.39999999999975
 21
0.0
 31
0.0
  0
LINE
  5
60
  8
1
 62
     7
 10
511.39999999999981
 20
33.0
 30
0.0
 11
511.39999999999981
 21
69.14999999999992
 31
0.0
  0
LINE
  5
61
  8
1
 62
     7
 10
511.39999999999981
 20
-33.0
 30
0.0
 11
511.39999999999981
 21
-53.0
 31
0.0
  0
LINE
  5
62
  8
1
 62
     7
 10
515.09999999999968
 20
-130.0
 30
0.0
 11
513.69999999999982
 21
-130.0
 31
0.0
  0
LINE
  5
63
  8
1
  6
DASHDOT
 62
     3
 10
751.29999999999973
 20
146.82862860563401
 30
0.0
 11
751.29999999999973
 21
132.82862860563401
 31
0.0
  0
LINE
  5
64
  8
1
  6
DASHDOT
 62
     3
 10
744.13220626296902
 20
140.0
 30
0.0
 11
758.13220626296891
 21
140.0
 31
0.0
  0
LINE
  5
65
  8
1
 62
     7
 10
505.39999999999981
 20
-130.0
 30
0.0
 11
496.0999999999998
 21
-130.0
 31
0.0
  0
LINE
  5
66
  8
1
 62
     7
 10
536.09999999999968
 20
-81.0
 30
0.0
 11
536.09999999999968
 21
-65.100000000000023
 31
0.0
  0
LINE
  5
67
  8
1
 62
     7
 10
536.09999999999968
 20
-81.0
 30
0.0
 11
534.0999999999998
 21
-83.0
 31
0.0
  0
LINE
  5
68
  8
1
 62
     7
 10
533.79999999999973
 20
83.000000000000071
 30
0.0
 11
534.0999999999998
 21
83.0
 31
0.0
  0
LINE
  5
69
  8
1
 62
     7
 10
534.0999999999998
 20
83.0
 30
0.0
 11
536.09999999999968
 21
81.0
 31
0.0
  0
LINE
  5
6A
  8
1
 62
     7
 10
536.09999999999968
 20
81.0
 30
0.0
 11
536.09999999999968
 21
65.100000000000023
 31
0.0
  0
LINE
  5
6B
  8
1
 62
     7
 10
534.39999999999975
 20
93.500000000000057
 30
0.0
 11
534.39999999999975
 21
86.500000000000057
 31
0.0
  0
LINE
  5
6C
  8
1
 62
     7
 10
526.49999999999977
 20
-73.0
 30
0.0
 11
526.49999999999977
 21
-65.100000000000023
 31
0.0
  0
LINE
  5
6D
  8
1
 62
     7
 10
511.39999999999981
 20
-65.100000000000023
 30
0.0
 11
540.39999999999986
 21
-65.100000000000023
 31
0.0
  0
LINE
  5
6E
  8
1
 62
     7
 10
511.69999999999987
 20
-77.299999999999955
 30
0.0
 11
515.09999999999968
 21
-77.299999999999955
 31
0.0
  0
LINE
  5
6F
  8
1
 62
     7
 10
518.59999999999945
 20
-74.149999999999977
 30
0.0
 11
518.59999999999968
 21
-76.399999999999963
 31
0.0
  0
LINE
  5
70
  8
1
 62
     7
 10
520.19999999999982
 20
81.000000000000057
 30
0.0
 11
520.19999999999982
 21
73.750000000000071
 31
0.0
  0
LINE
  5
71
  8
1
 62
     7
 10
517.09999999999957
 20
82.000000000000085
 30
0.0
 11
515.09999999999968
 21
82.000000000000085
 31
0.0
  0
LINE
  5
72
  8
1
 62
     7
 10
341.39999999999981
 20
-8.9999999999999947
 30
0.0
 11
326.69999999999987
 21
-8.9999999999999947
 31
0.0
  0
LINE
  5
73
  8
1
  6
DASHDOT
 62
     3
 10
46.0
 20
143.31566301987999
 30
0.0
 11
46.0
 21
136.68433698011989
 31
0.0
  0
LINE
  5
74
  8
1
  6
DASHDOT
 62
     3
 10
49.315663019879949
 20
140.0
 30
0.0
 11
42.684336980120051
 21
140.0
 31
0.0
  0
LINE
  5
75
  8
1
 62
     7
 10
31.0
 20
105.886751345948
 30
0.0
 11
28.5
 21
104.4433756729739
 31
0.0
  0
LINE
  5
76
  8
1
 62
     7
 10
28.5
 20
104.4433756729739
 30
0.0
 11
28.5
 21
101.5566243270259
 31
0.0
  0
LINE
  5
77
  8
1
 62
     7
 10
28.5
 20
101.5566243270259
 30
0.0
 11
31.0
 21
100.1132486540518
 31
0.0
  0
LINE
  5
78
  8
1
 62
     7
 10
31.0
 20
100.1132486540518
 30
0.0
 11
33.5
 21
101.5566243270259
 31
0.0
  0
LINE
  5
79
  8
1
 62
     7
 10
33.5
 20
101.5566243270259
 30
0.0
 11
33.5
 21
104.4433756729739
 31
0.0
  0
LINE
  5
7A
  8
1
 62
     7
 10
33.5
 20
104.4433756729739
 30
0.0
 11
31.0
 21
105.886751345948
 31
0.0
  0
LINE
  5
7B
  8
1
 62
     7
 10
61.0
 20
105.886751345948
 30
0.0
 11
58.5
 21
104.4433756729739
 31
0.0
  0
LINE
  5
7C
  8
1
 62
     7
 10
58.5
 20
104.4433756729739
 30
0.0
 11
58.5
 21
101.5566243270259
 31
0.0
  0
LINE
  5
7D
  8
1
 62
     7
 10
58.5
 20
101.5566243270259
 30
0.0
 11
61.0
 21
100.1132486540518
 31
0.0
  0
LINE
  5
7E
  8
1
 62
     7
 10
61.0
 20
100.1132486540518
 30
0.0
 11
63.5
 21
101.5566243270259
 31
0.0
  0
LINE
  5
7F
  8
1
 62
     7
 10
63.5
 20
101.5566243270259
 30
0.0
 11
63.5
 21
104.4433756729739
 31
0.0
  0
LINE
  5
80
  8
1
 62
     7
 10
63.5
 20
104.4433756729739
 30
0.0
 11
61.0
 21
105.886751345948
 31
0.0
  0
LINE
  5
81
  8
1
 62
     7
 10
68.5
 20
92.0
 30
0.0
 11
23.5
 21
92.0
 31
0.0
  0
LINE
  5
82
  8
1
 62
     7
 10
68.5
 20
111.0
 30
0.0
 11
68.5
 21
92.0
 31
0.0
  0
LINE
  5
83
  8
1
 62
     7
 10
63.0
 20
114.0
 30
0.0
 11
65.5
 21
114.0
 31
0.0
  0
LINE
  5
84
  8
1
 62
     7
 10
60.000000000000227
 20
149.0
 30
0.0
 11
60.0
 21
117.0
 31
0.0
  0
LINE
  5
85
  8
1
 62
     7
 10
35.000000000000227
 20
152.0
 30
0.0
 11
57.0
 21
152.0
 31
0.0
  0
LINE
  5
86
  8
1
 62
     7
 10
32.00000000000022
 20
117.0
 30
0.0
 11
32.00000000000022
 21
149.0
 31
0.0
  0
LINE
  5
87
  8
1
 62
     7
 10
26.5
 20
114.0
 30
0.0
 11
29.000000000000231
 21
114.0
 31
0.0
  0
LINE
  5
88
  8
1
 62
     7
 10
23.5
 20
92.0
 30
0.0
 11
23.50000000000022
 21
111.0
 31
0.0
  0
LINE
  5
89
  8
1
 62
     7
 10
331.71344181781632
 20
81.000000000000028
 30
0.0
 11
332.39999999999981
 21
81.000000000000028
 31
0.0
  0
LINE
  5
8A
  8
1
 62
     7
 10
331.40564630205438
 20
74.695799911995664
 30
0.0
 11
331.39999999999981
 21
73.750000000000028
 31
0.0
  0
LINE
  5
8B
  8
1
 62
     7
 10
330.99049429657782
 20
99.000000000000057
 30
0.0
 11
329.80000000000001
 21
74.667627512416416
 31
0.0
  0
LINE
  5
8C
  8
1
 62
     7
 10
332.59227167828612
 20
99.000000000000057
 30
0.0
 11
331.40564630205438
 21
74.695799911995664
 31
0.0
  0
LINE
  5
8D
  8
1
 62
     7
 10
430.39999999999981
 20
-25.0
 30
0.0
 11
515.39999999999986
 21
-25.0
 31
0.0
  0
LINE
  5
8E
  8
1
  6
DASHDOT
 62
     3
 10
751.29999999999973
 20
15.08877842578022
 30
0.0
 11
751.29999999999973
 21
-15.08877842578022
 31
0.0
  0
LINE
  5
8F
  8
1
  6
DASHDOT
 62
     3
 10
766.38877842577995
 20
0.0
 30
0.0
 11
736.21122157421951
 21
0.0
 31
0.0
  0
LINE
  5
90
  8
1
 62
     7
 10
540.39999999999986
 20
-69.149999999999977
 30
0.0
 11
539.39999999999975
 21
-70.149999999999963
 31
0.0
  0
LINE
  5
91
  8
1
 62
     7
 10
511.39999999999981
 20
-59.0
 30
0.0
 11
540.39999999999986
 21
-59.0
 31
0.0
  0
LINE
  5
92
  8
1
 62
     7
 10
511.39999999999981
 20
-51.0
 30
0.0
 11
540.39999999999986
 21
-51.0
 31
0.0
  0
LINE
  5
93
  8
1
 62
     7
 10
496.0999999999998
 20
-33.0
 30
0.0
 11
496.0999999999998
 21
-130.0
 31
0.0
  0
LINE
  5
94
  8
1
 62
     7
 10
540.39999999999986
 20
-69.149999999999977
 30
0.0
 11
540.39999999999986
 21
69.14999999999992
 31
0.0
  0
LINE
  5
95
  8
1
 62
     7
 10
515.39999999999986
 20
-45.0
 30
0.0
 11
540.39999999999986
 21
-45.0
 31
0.0
  0
LINE
  5
96
  8
1
 62
     7
 10
515.39999999999986
 20
-40.0
 30
0.0
 11
511.39999999999981
 21
-40.0
 31
0.0
  0
LINE
  5
97
  8
1
  6
DASHDOT
 62
     3
 10
542.3242262994338
 20
-55.0
 30
0.0
 11
509.18908518155888
 21
-55.0
 31
0.0
  0
LINE
  5
98
  8
1
 62
     3
 10
540.39999999999986
 20
-60.0
 30
0.0
 11
511.39999999999981
 21
-60.0
 31
0.0
  0
LINE
  5
99
  8
1
 62
     3
 10
540.39999999999986
 20
-50.0
 30
0.0
 11
511.39999999999981
 21
-50.0
 31
0.0
  0
LINE
  5
9A
  8
1
 62
     7
 10
511.39999999999981
 20
50.0
 30
0.0
 11
540.39999999999986
 21
50.0
 31
0.0
  0
LINE
  5
9B
  8
1
 62
     7
 10
511.39999999999981
 20
60.0
 30
0.0
 11
540.39999999999986
 21
60.0
 31
0.0
  0
LINE
  5
9C
  8
1
  6
DASHDOT
 62
     3
 10
509.18908518155888
 20
55.0
 30
0.0
 11
542.3242262994338
 21
55.0
 31
0.0
  0
LINE
  5
9D
  8
1
 62
     7
 10
511.39999999999981
 20
40.0
 30
0.0
 11
515.39999999999986
 21
40.0
 31
0.0
  0
LINE
  5
9E
  8
1
 62
     7
 10
539.39999999999975
 20
70.14999999999992
 30
0.0
 11
540.39999999999986
 21
69.14999999999992
 31
0.0
  0
LINE
  5
9F
  8
1
 62
     7
 10
540.39999999999986
 20
65.100000000000023
 30
0.0
 11
511.39999999999981
 21
65.100000000000023
 31
0.0
  0
LINE
  5
A0
  8
1
 62
     7
 10
515.39999999999986
 20
45.0
 30
0.0
 11
515.39999999999986
 21
-45.0
 31
0.0
  0
LINE
  5
A1
  8
1
 62
     7
 10
540.0
 20
45.0
 30
0.0
 11
515.0
 21
45.0
 31
0.0
  0
LINE
  5
A2
  8
1
 62
     7
 10
495.39999999999981
 20
25.0
 30
0.0
 11
515.39999999999986
 21
25.0
 31
0.0
  0
LINE
  5
A3
  8
1
 62
     7
 10
495.39999999999981
 20
30.0
 30
0.0
 11
515.39999999999986
 21
30.0
 31
0.0
  0
LINE
  5
A4
  8
1
 62
     7
 10
822.65944200122362
 20
65.702587751731357
 30
0.0
 11
824.78251405536878
 21
67.825659805876469
 31
0.0
  0
LINE
  5
A5
  8
1
 62
     7
 10
819.12565980587635
 20
73.48251405536881
 30
0.0
 11
817.0025877517312
 21
71.359442001223613
 31
0.0
  0
LINE
  5
A6
  8
1
 62
     7
 10
845.95038344880766
 20
21.220389086763578
 30
0.0
 11
848.85055380883466
 21
21.997487392645539
 31
0.0
  0
LINE
  5
A7
  8
1
 62
     7
 10
846.78000144801467
 20
29.724894002958081
 30
0.0
 11
843.87983108798733
 21
28.947795697076121
 31
0.0
  0
LINE
  5
A8
  8
1
 62
     7
 10
843.87983108798733
 20
-28.947795697076561
 30
0.0
 11
846.78000144801445
 21
-29.724894002958539
 31
0.0
  0
LINE
  5
A9
  8
1
 62
     7
 10
848.85055380883466
 20
-21.997487392646011
 30
0.0
 11
845.95038344880743
 21
-21.22038908676415
 31
0.0
  0
LINE
  5
AA
  8
1
 62
     7
 10
817.0025877517312
 20
-71.359442001224124
 30
0.0
 11
819.12565980587635
 21
-73.482514055369165
 31
0.0
  0
LINE
  5
AB
  8
1
 62
     7
 10
824.78251405536878
 20
-67.825659805876853
 30
0.0
 11
822.65944200122362
 21
-65.702587751731699
 31
0.0
  0
LINE
  5
AC
  8
1
 62
     7
 10
772.52038908676332
 20
-94.650383448808043
 30
0.0
 11
773.29748739264517
 21
-97.550553808835033
 31
0.0
  0
LINE
  5
AD
  8
1
 62
     7
 10
781.02489400295804
 20
-95.480001448014946
 30
0.0
 11
780.24779569707596
 21
-92.579831087987841
 31
0.0
  0
LINE
  5
AE
  8
1
 62
     7
 10
722.35220430292316
 20
-92.579831087987728
 30
0.0
 11
721.57510599704131
 21
-95.480001448014846
 31
0.0
  0
LINE
  5
AF
  8
1
 62
     7
 10
729.30251260735383
 20
-97.550553808835033
 30
0.0
 11
730.0796109132358
 21
-94.650383448807929
 31
0.0
  0
LINE
  5
B0
  8
1
 62
     7
 10
679.94055799877583
 20
-65.702587751731471
 30
0.0
 11
677.81748594463056
 21
-67.825659805876739
 31
0.0
  0
LINE
  5
B1
  8
1
 62
     7
 10
683.47434019412299
 20
-73.482514055369023
 30
0.0
 11
685.59741224826803
 21
-71.359442001223911
 31
0.0
  0
LINE
  5
B2
  8
1
 62
     7
 10
656.64961655119191
 20
-21.22038908676393
 30
0.0
 11
653.74944619116479
 21
-21.99748739264578
 31
0.0
  0
LINE
  5
B3
  8
1
 62
     7
 10
655.81999855198478
 20
-29.724894002958312
 30
0.0
 11
658.72016891201201
 21
-28.947795697076341
 31
0.0
  0
LINE
  5
B4
  8
1
 62
     7
 10
658.72016891201201
 20
28.947795697076341
 30
0.0
 11
655.81999855198478
 21
29.724894002958312
 31
0.0
  0
LINE
  5
B5
  8
1
 62
     7
 10
653.74944619116479
 20
21.99748739264578
 30
0.0
 11
656.64961655119191
 21
21.22038908676382
 31
0.0
  0
LINE
  5
B6
  8
1
 62
     7
 10
685.59741224826826
 20
71.35944200122384
 30
0.0
 11
683.47434019412299
 21
73.482514055368938
 31
0.0
  0
LINE
  5
B7
  8
1
 62
     7
 10
677.81748594463056
 20
67.825659805876512
 30
0.0
 11
679.94055799877583
 21
65.702587751731471
 31
0.0
  0
LINE
  5
B8
  8
1
 62
     7
 10
730.07961091323591
 20
94.650383448807773
 30
0.0
 11
729.30251260735395
 21
97.550553808834835
 31
0.0
  0
LINE
  5
B9
  8
1
 62
     7
 10
721.57510599704131
 20
95.480001448014605
 30
0.0
 11
722.35220430292316
 21
92.579831087987657
 31
0.0
  0
LINE
  5
BA
  8
1
 62
     7
 10
773.29748739264562
 20
97.550553808834835
 30
0.0
 11
772.52038908676343
 21
94.650383448807773
 31
0.0
  0
LINE
  5
BB
  8
1
 62
     7
 10
780.24779569707596
 20
92.579831087987657
 30
0.0
 11
781.02489400295804
 21
95.480001448014718
 31
0.0
  0
LINE
  5
BC
  8
1
  6
DASHDOT
 62
     3
 10
784.91487229682878
 20
-33.614872296828928
 30
0.0
 11
795.36675940252849
 21
-44.066759402528987
 31
0.0
  0
LINE
  5
BD
  8
1
  6
DASHDOT
 62
     3
 10
717.68512770317068
 20
-33.614872296828928
 30
0.0
 11
707.23324059747074
 21
-44.066759402528987
 31
0.0
  0
LINE
  5
BE
  8
1
 62
     3
 10
717.68512770317068
 20
33.614872296828821
 30
0.0
 11
707.23324059747074
 21
44.066759402528866
 31
0.0
  0
LINE
  5
BF
  8
1
  6
DASHDOT
 62
     3
 10
784.91487229682878
 20
33.614872296828821
 30
0.0
 11
795.36675940252849
 21
44.066759402528866
 31
0.0
  0
LINE
  5
C0
  8
1
 62
     7
 10
765.2999999999995
 20
149.0
 30
0.0
 11
765.2999999999995
 21
129.74686894102669
 31
0.0
  0
LINE
  5
C1
  8
1
 62
     7
 10
737.29999999999973
 20
149.0
 30
0.0
 11
737.29999999999973
 21
129.7468689410268
 31
0.0
  0
LINE
  5
C2
  8
1
 62
     7
 10
751.2999999999995
 20
152.0
 30
0.0
 11
762.29999999999939
 21
152.0
 31
0.0
  0
LINE
  5
C3
  8
1
 62
     7
 10
740.29999999999973
 20
152.0
 30
0.0
 11
751.2999999999995
 21
152.0
 31
0.0
  0
LINE
  5
C4
  8
1
 62
     7
 10
512.39999999999975
 20
70.14999999999992
 30
0.0
 11
539.39999999999975
 21
70.14999999999992
 31
0.0
  0
LINE
  5
C5
  8
1
 62
     7
 10
496.0999999999998
 20
-85.148127408552895
 30
0.0
 11
505.39999999999981
 21
-85.148127408552895
 31
0.0
  0
LINE
  5
C6
  8
1
 62
     7
 10
496.0999999999998
 20
36.368048335002641
 30
0.0
 11
496.0999999999998
 21
33.0
 31
0.0
  0
LINE
  5
C7
  8
1
 62
     7
 10
496.0999999999998
 20
85.000000000000071
 30
0.0
 11
499.0999999999998
 21
85.000000000000071
 31
0.0
  0
LINE
  5
C8
  8
1
 62
     7
 10
496.0999999999998
 20
129.99999999999989
 30
0.0
 11
505.39999999999981
 21
129.99999999999989
 31
0.0
  0
LINE
  5
C9
  8
1
 62
     7
 10
496.0999999999998
 20
129.99999999999989
 30
0.0
 11
496.0999999999998
 21
36.368048335002641
 31
0.0
  0
LINE
  5
CA
  8
1
 62
     7
 10
531.49999999999977
 20
-85.0
 30
0.0
 11
531.49999999999977
 21
-88.0
 31
0.0
  0
LINE
  5
CB
  8
1
 62
     7
 10
533.49999999999989
 20
-83.0
 30
0.0
 11
534.0999999999998
 21
-83.0
 31
0.0
  0
LINE
  5
CC
  8
1
 62
     7
 10
520.1999999999997
 20
-99.0
 30
0.0
 11
521.79999999999961
 21
-99.0
 31
0.0
  0
LINE
  5
CD
  8
1
 62
     7
 10
521.79999999999961
 20
-99.0
 30
0.0
 11
521.79999999999961
 21
-73.75
 31
0.0
  0
LINE
  5
CE
  8
1
 62
     7
 10
520.1999999999997
 20
-73.75
 30
0.0
 11
520.1999999999997
 21
-99.0
 31
0.0
  0
LINE
  5
CF
  8
1
 62
     7
 10
524.49999999999989
 20
-90.0
 30
0.0
 11
529.49999999999989
 21
-90.0
 31
0.0
  0
LINE
  5
D0
  8
1
 62
     7
 10
524.49999999999989
 20
-90.0
 30
0.0
 11
524.49999999999989
 21
-75.0
 31
0.0
  0
LINE
  5
D1
  8
1
 62
     7
 10
526.09999999999945
 20
-71.75
 30
0.0
 11
522.19999999999959
 21
-71.75
 31
0.0
  0
LINE
  5
D2
  8
1
 62
     7
 10
526.09999999999945
 20
-70.149999999999963
 30
0.0
 11
526.09999999999945
 21
-71.75
 31
0.0
  0
LINE
  5
D3
  8
1
 62
     7
 10
515.09999999999968
 20
-78.399999999999977
 30
0.0
 11
516.59999999999957
 21
-78.399999999999977
 31
0.0
  0
LINE
  5
D4
  8
1
 62
     7
 10
521.79999999999961
 20
-73.75
 30
0.0
 11
520.1999999999997
 21
-73.75
 31
0.0
  0
LINE
  5
D5
  8
1
 62
     7
 10
515.09999999999968
 20
-79.988405414335276
 30
0.0
 11
516.50433903939586
 21
-79.988405414335276
 31
0.0
  0
LINE
  5
D6
  8
1
 62
     7
 10
518.59999999999968
 20
76.39999999999992
 30
0.0
 11
518.59999999999968
 21
73.816363790427161
 31
0.0
  0
LINE
  5
D7
  8
1
 62
     7
 10
516.50433903939586
 20
79.988405414335304
 30
0.0
 11
515.09999999999968
 21
79.988405414335304
 31
0.0
  0
LINE
  5
D8
  8
1
 62
     7
 10
520.19999999999982
 20
73.750000000000071
 30
0.0
 11
521.79999999999973
 21
73.750000000000071
 31
0.0
  0
LINE
  5
D9
  8
1
 62
     7
 10
517.1028511076704
 20
81.000000000000057
 30
0.0
 11
522.79999999999973
 21
81.000000000000057
 31
0.0
  0
LINE
  5
DA
  8
1
 62
     7
 10
515.09999999999968
 20
78.39999999999992
 30
0.0
 11
516.59999999999957
 21
78.39999999999992
 31
0.0
  0
LINE
  5
DB
  8
1
 62
     7
 10
526.09999999999957
 20
71.750000000000071
 30
0.0
 11
526.09999999999957
 21
70.14999999999992
 31
0.0
  0
LINE
  5
DC
  8
1
 62
     7
 10
522.19999999999982
 20
71.750000000000071
 30
0.0
 11
526.09999999999957
 21
71.750000000000071
 31
0.0
  0
LINE
  5
DD
  8
1
 62
     7
 10
511.39999999999981
 20
69.14999999999992
 30
0.0
 11
512.39999999999975
 21
70.14999999999992
 31
0.0
  0
LINE
  5
DE
  8
1
 62
     3
 10
513.89999999999975
 20
86.500000000000057
 30
0.0
 11
534.39999999999975
 21
86.500000000000057
 31
0.0
  0
LINE
  5
DF
  8
1
 62
     3
 10
513.89999999999975
 20
95.000000000000057
 30
0.0
 11
513.89999999999975
 21
93.500000000000057
 31
0.0
  0
LINE
  5
E0
  8
1
 62
     3
 10
513.89999999999975
 20
93.500000000000057
 30
0.0
 11
511.69999999999987
 21
94.770170592217127
 31
0.0
  0
LINE
  5
E1
  8
1
 62
     3
 10
513.89999999999975
 20
93.500000000000057
 30
0.0
 11
513.89999999999975
 21
85.000000000000071
 31
0.0
  0
LINE
  5
E2
  8
1
 62
     3
 10
513.89999999999975
 20
86.500000000000057
 30
0.0
 11
511.30192378864638
 21
85.000000000000071
 31
0.0
  0
LINE
  5
E3
  8
1
 62
     7
 10
532.89999999999975
 20
85.000000000000071
 30
0.0
 11
531.79999999999961
 21
85.000000000000071
 31
0.0
  0
LINE
  5
E4
  8
1
 62
     7
 10
532.89999999999975
 20
85.000000000000071
 30
0.0
 11
534.39999999999975
 21
86.500000000000057
 31
0.0
  0
LINE
  5
E5
  8
1
 62
     7
 10
534.39999999999975
 20
93.500000000000057
 30
0.0
 11
532.89999999999975
 21
95.000000000000057
 31
0.0
  0
LINE
  5
E6
  8
1
 62
     7
 10
532.89999999999975
 20
95.000000000000057
 30
0.0
 11
531.79999999999961
 21
95.000000000000057
 31
0.0
  0
LINE
  5
E7
  8
1
 62
     7
 10
532.89999999999975
 20
85.000000000000071
 30
0.0
 11
532.89999999999975
 21
95.000000000000057
 31
0.0
  0
LINE
  5
E8
  8
1
 62
     7
 10
499.39999999999981
 20
97.399999999999935
 30
0.0
 11
499.39999999999981
 21
85.000000000000071
 31
0.0
  0
LINE
  5
E9
  8
1
 62
     7
 10
509.39999999999981
 20
82.000000000000085
 30
0.0
 11
499.99999999999977
 21
82.000000000000085
 31
0.0
  0
LINE
  5
EA
  8
1
 62
     7
 10
509.39999999999981
 20
82.000000000000085
 30
0.0
 11
509.39999999999981
 21
98.000000000000057
 31
0.0
  0
LINE
  5
EB
  8
1
 62
     7
 10
509.39999999999981
 20
98.000000000000057
 30
0.0
 11
499.99999999999977
 21
98.000000000000057
 31
0.0
  0
LINE
  5
EC
  8
1
 62
     7
 10
499.99999999999977
 20
98.000000000000057
 30
0.0
 11
499.39999999999981
 21
97.399999999999935
 31
0.0
  0
LINE
  5
ED
  8
1
 62
     7
 10
499.99999999999977
 20
82.000000000000085
 30
0.0
 11
499.39999999999981
 21
82.600000000000037
 31
0.0
  0
LINE
  5
EE
  8
1
 62
     7
 10
499.99999999999977
 20
82.000000000000085
 30
0.0
 11
499.99999999999977
 21
98.000000000000057
 31
0.0
  0
LINE
  5
EF
  8
1
 62
     7
 10
499.39999999999981
 20
85.000000000000071
 30
0.0
 11
499.39999999999981
 21
82.600000000000037
 31
0.0
  0
LINE
  5
F0
  8
1
 62
     7
 10
513.69999999999982
 20
127.6999999999999
 30
0.0
 11
515.09999999999968
 21
127.6999999999999
 31
0.0
  0
LINE
  5
F1
  8
1
 62
     7
 10
515.09999999999968
 20
75.300000000000026
 30
0.0
 11
513.69999999999982
 21
75.299999999999955
 31
0.0
  0
LINE
  5
F2
  8
1
 62
     7
 10
511.69999999999987
 20
85.000000000000071
 30
0.0
 11
511.69999999999987
 21
77.299999999999955
 31
0.0
  0
LINE
  5
F3
  8
1
 62
     7
 10
515.09999999999968
 20
95.000000000000057
 30
0.0
 11
509.39999999999981
 21
95.000000000000057
 31
0.0
  0
LINE
  5
F4
  8
1
 62
     7
 10
511.69999999999987
 20
125.6999999999999
 30
0.0
 11
511.69999999999987
 21
94.770170592217127
 31
0.0
  0
LINE
  5
F5
  8
1
 62
     7
 10
511.69999999999987
 20
94.770170592217127
 30
0.0
 11
511.30192378864638
 21
95.000000000000057
 31
0.0
  0
LINE
  5
F6
  8
1
 62
     7
 10
511.69999999999987
 20
100.0000000000001
 30
0.0
 11
515.09999999999968
 21
100.0000000000001
 31
0.0
  0
LINE
  5
F7
  8
1
 62
     7
 10
515.09999999999968
 20
73.000000000000071
 30
0.0
 11
515.09999999999968
 21
85.000000000000071
 31
0.0
  0
LINE
  5
F8
  8
1
 62
     7
 10
515.09999999999968
 20
98.000000000000057
 30
0.0
 11
517.09999999999957
 21
98.000000000000057
 31
0.0
  0
LINE
  5
F9
  8
1
 62
     7
 10
515.09999999999968
 20
98.000000000000057
 30
0.0
 11
515.09999999999968
 21
95.000000000000057
 31
0.0
  0
LINE
  5
FA
  8
1
 62
     7
 10
517.09999999999957
 20
98.000000000000057
 30
0.0
 11
517.09999999999957
 21
95.000000000000057
 31
0.0
  0
LINE
  5
FB
  8
1
 62
     7
 10
517.09999999999957
 20
95.000000000000057
 30
0.0
 11
515.09999999999968
 21
95.000000000000057
 31
0.0
  0
LINE
  5
FC
  8
1
 62
     7
 10
531.79999999999961
 20
85.000000000000071
 30
0.0
 11
509.39999999999981
 21
85.000000000000071
 31
0.0
  0
LINE
  5
FD
  8
1
 62
     7
 10
517.09999999999957
 20
99.000000000000057
 30
0.0
 11
517.09999999999957
 21
98.000000000000057
 31
0.0
  0
LINE
  5
FE
  8
1
 62
     7
 10
531.79999999999961
 20
97.000000000000057
 30
0.0
 11
531.79999999999961
 21
95.000000000000057
 31
0.0
  0
LINE
  5
FF
  8
1
 62
     7
 10
531.79999999999961
 20
95.000000000000057
 30
0.0
 11
518.69999999999982
 21
95.000000000000057
 31
0.0
  0
LINE
  5
100
  8
1
 62
     7
 10
529.79999999999973
 20
99.000000000000057
 30
0.0
 11
517.09999999999957
 21
99.000000000000057
 31
0.0
  0
LINE
  5
101
  8
1
 62
     7
 10
518.69999999999982
 20
99.000000000000057
 30
0.0
 11
518.69999999999982
 21
95.000000000000057
 31
0.0
  0
LINE
  5
102
  8
1
 62
     7
 10
518.69999999999982
 20
95.000000000000057
 30
0.0
 11
517.09999999999957
 21
95.000000000000057
 31
0.0
  0
LINE
  5
103
  8
1
 62
     7
 10
518.69999999999982
 20
85.000000000000071
 30
0.0
 11
518.69999999999982
 21
81.000000000000057
 31
0.0
  0
LINE
  5
104
  8
1
 62
     7
 10
524.79999999999973
 20
79.000000000000071
 30
0.0
 11
524.79999999999973
 21
75.000000000000071
 31
0.0
  0
LINE
  5
105
  8
1
 62
     7
 10
526.79999999999973
 20
73.000000000000071
 30
0.0
 11
526.79999999999973
 21
65.100000000000023
 31
0.0
  0
LINE
  5
106
  8
1
 62
     7
 10
515.09999999999968
 20
-100.0
 30
0.0
 11
511.69999999999987
 21
-100.0
 31
0.0
  0
LINE
  5
107
  8
1
 62
     7
 10
515.09999999999968
 20
-130.0
 30
0.0
 11
515.09999999999945
 21
-73.0
 31
0.0
  0
LINE
  5
108
  8
1
 62
     7
 10
512.39999999999975
 20
-70.149999999999963
 30
0.0
 11
511.39999999999981
 21
-69.149999999999977
 31
0.0
  0
LINE
  5
109
  8
1
 62
     7
 10
511.39999999999981
 20
-53.0
 30
0.0
 11
511.39999999999981
 21
-65.100000000000023
 31
0.0
  0
LINE
  5
10A
  8
1
 62
     7
 10
511.39999999999981
 20
-69.149999999999977
 30
0.0
 11
511.39999999999981
 21
-65.100000000000023
 31
0.0
  0
LINE
  5
10B
  8
1
 62
     7
 10
512.39999999999975
 20
-70.149999999999963
 30
0.0
 11
539.39999999999975
 21
-70.149999999999963
 31
0.0
  0
LINE
  5
10C
  8
1
 62
     7
 10
521.79999999999973
 20
81.000000000000057
 30
0.0
 11
521.79999999999973
 21
73.750000000000071
 31
0.0
  0
LINE
  5
10D
  8
1
 62
     7
 10
515.09999999999968
 20
77.500000000000071
 30
0.0
 11
511.69999999999987
 21
77.500000000000071
 31
0.0
  0
LINE
  5
10E
  8
1
 62
     7
 10
511.69999999999987
 20
-93.0
 30
0.0
 11
515.09999999999968
 21
-93.0
 31
0.0
  0
LINE
  5
10F
  8
1
 62
     7
 10
440.39999999999992
 20
-65.0
 30
0.0
 11
440.39999999999992
 21
-36.0
 31
0.0
  0
LINE
  5
110
  8
1
 62
     7
 10
440.39999999999992
 20
-65.0
 30
0.0
 11
465.39999999999992
 21
-65.0
 31
0.0
  0
LINE
  5
111
  8
1
 62
     7
 10
440.39999999999992
 20
64.999999999999972
 30
0.0
 11
440.39999999999992
 21
36.0
 31
0.0
  0
LINE
  5
112
  8
1
 62
     7
 10
440.39999999999992
 20
64.999999999999972
 30
0.0
 11
465.39999999999992
 21
64.999999999999972
 31
0.0
  0
LINE
  5
113
  8
1
 62
     7
 10
327.21603673105358
 20
-70.14999999999992
 30
0.0
 11
329.80000000000001
 21
-15.999999999999989
 31
0.0
  0
LINE
  5
114
  8
1
 62
     7
 10
324.69999999999982
 20
-70.14999999999992
 30
0.0
 11
324.69999999999982
 21
-7.9999999999999947
 31
0.0
  0
LINE
  5
115
  8
1
 62
     7
 10
324.69999999999982
 20
-70.14999999999992
 30
0.0
 11
327.21603673105358
 21
-70.14999999999992
 31
0.0
  0
LINE
  5
116
  8
1
 62
     7
 10
329.63026615969568
 20
70.149999999999892
 30
0.0
 11
326.69999999999987
 21
8.0000000000000053
 31
0.0
  0
LINE
  5
117
  8
1
 62
     7
 10
324.69999999999982
 20
70.149999999999892
 30
0.0
 11
324.69999999999982
 21
98.000000000000043
 31
0.0
  0
LINE
  5
118
  8
1
 62
     7
 10
324.69999999999982
 20
70.149999999999892
 30
0.0
 11
329.63026615969568
 21
70.149999999999892
 31
0.0
  0
LINE
  5
119
  8
1
 62
     7
 10
329.80000000000001
 20
-49.548387096773283
 30
0.0
 11
328.30000000000001
 21
-81.000000000000057
 31
0.0
  0
LINE
  5
11A
  8
1
 62
     7
 10
329.80000000000001
 20
-71.750000000000071
 30
0.0
 11
336.39999999999981
 21
-71.750000000000071
 31
0.0
  0
LINE
  5
11B
  8
1
 62
     7
 10
326.7028511076706
 20
-81.000000000000057
 30
0.0
 11
327.21603673105358
 21
-70.14999999999992
 31
0.0
  0
LINE
  5
11C
  8
1
 62
     7
 10
331.39999999999981
 20
-15.999999999999989
 30
0.0
 11
329.80000000000001
 21
-49.548387096773283
 31
0.0
  0
LINE
  5
11D
  8
1
 62
     7
 10
331.39999999999981
 20
-15.999999999999989
 30
0.0
 11
329.80000000000001
 21
-15.999999999999989
 31
0.0
  0
LINE
  5
11E
  8
1
 62
     7
 10
326.69999999999987
 20
-8.9999999999999947
 30
0.0
 11
326.69999999999987
 21
-7.9999999999999947
 31
0.0
  0
LINE
  5
11F
  8
1
 62
     7
 10
324.69999999999982
 20
-7.9999999999999947
 30
0.0
 11
324.69999999999982
 21
0.0000000000000052
 31
0.0
  0
LINE
  5
120
  8
1
 62
     7
 10
326.69999999999987
 20
-7.9999999999999947
 30
0.0
 11
326.69999999999987
 21
0.0000000000000053
 31
0.0
  0
LINE
  5
121
  8
1
 62
     7
 10
341.39999999999981
 20
-19.999999999999989
 30
0.0
 11
336.39999999999981
 21
-19.999999999999989
 31
0.0
  0
LINE
  5
122
  8
1
 62
     7
 10
329.80000000000001
 20
-8.9999999999999947
 30
0.0
 11
329.80000000000001
 21
-15.999999999999989
 31
0.0
  0
LINE
  5
123
  8
1
 62
     7
 10
331.39999999999981
 20
-8.9999999999999947
 30
0.0
 11
331.39999999999981
 21
-15.999999999999989
 31
0.0
  0
LINE
  5
124
  8
1
 62
     7
 10
324.69999999999982
 20
-98.000000000000057
 30
0.0
 11
324.69999999999982
 21
-70.14999999999992
 31
0.0
  0
LINE
  5
125
  8
1
 62
     7
 10
324.69999999999982
 20
-7.9999999999999947
 30
0.0
 11
326.69999999999987
 21
-7.9999999999999947
 31
0.0
  0
LINE
  5
126
  8
1
 62
     7
 10
326.69999999999987
 20
-99.000000000000057
 30
0.0
 11
326.69999999999987
 21
-81.000000000000057
 31
0.0
  0
LINE
  5
127
  8
1
 62
     7
 10
328.2999999999999
 20
0.0000000000000054
 30
0.0
 11
328.2999999999999
 21
-8.9999999999999947
 31
0.0
  0
LINE
  5
128
  8
1
 62
     7
 10
336.39999999999981
 20
-73.000000000000071
 30
0.0
 11
336.39999999999981
 21
-10.999999999999989
 31
0.0
  0
LINE
  5
129
  8
1
 62
     7
 10
350.0
 20
-69.14999999999992
 30
0.0
 11
349.0
 21
-70.14999999999992
 31
0.0
  0
LINE
  5
12A
  8
1
 62
     7
 10
350.0
 20
-69.14999999999992
 30
0.0
 11
350.0
 21
0.0000000000000068
 31
0.0
  0
LINE
  5
12B
  8
1
 62
     7
 10
315.00000000000011
 20
-129.99999999999989
 30
0.0
 11
305.7000000000001
 21
-129.99999999999989
 31
0.0
  0
LINE
  5
12C
  8
1
 62
     7
 10
305.69999999999987
 20
129.99999999999989
 30
0.0
 11
305.7000000000001
 21
0.0000000000000071
 31
0.0
  0
LINE
  5
12D
  8
1
 62
     7
 10
324.69999999999982
 20
-98.000000000000057
 30
0.0
 11
324.69999999999982
 21
-129.99999999999989
 31
0.0
  0
LINE
  5
12E
  8
1
 62
     7
 10
315.0
 20
0.0000000000000046
 30
0.0
 11
315.00000000000011
 21
-121.89999999999991
 31
0.0
  0
LINE
  5
12F
  8
1
 62
     7
 10
326.69999999999987
 20
-98.000000000000057
 30
0.0
 11
324.69999999999982
 21
-98.000000000000057
 31
0.0
  0
LINE
  5
130
  8
1
 62
     7
 10
324.69999999999982
 20
-82.000000000000085
 30
0.0
 11
326.69999999999987
 21
-82.000000000000085
 31
0.0
  0
LINE
  5
131
  8
1
 62
     7
 10
341.39999999999981
 20
97.000000000000043
 30
0.0
 11
341.39999999999981
 21
-97.000000000000057
 31
0.0
  0
LINE
  5
132
  8
1
 62
     7
 10
339.39999999999981
 20
-99.000000000000057
 30
0.0
 11
326.69999999999987
 21
-99.000000000000057
 31
0.0
  0
LINE
  5
133
  8
1
 62
     7
 10
328.30000000000001
 20
-81.000000000000057
 30
0.0
 11
328.30000000000001
 21
-99.000000000000057
 31
0.0
  0
LINE
  5
134
  8
1
 62
     7
 10
328.30000000000001
 20
-81.000000000000057
 30
0.0
 11
332.39999999999981
 21
-81.000000000000057
 31
0.0
  0
LINE
  5
135
  8
1
 62
     7
 10
334.39999999999981
 20
-75.000000000000071
 30
0.0
 11
334.39999999999981
 21
-79.000000000000071
 31
0.0
  0
LINE
  5
136
  8
1
 62
     7
 10
324.69999999999982
 20
0.0000000000000052
 30
0.0
 11
324.69999999999982
 21
8.0000000000000053
 31
0.0
  0
LINE
  5
137
  8
1
 62
     7
 10
326.69999999999987
 20
0.0000000000000053
 30
0.0
 11
326.69999999999987
 21
8.0000000000000053
 31
0.0
  0
LINE
  5
138
  8
1
 62
     7
 10
341.39999999999981
 20
20.000000000000011
 30
0.0
 11
336.39999999999981
 21
20.000000000000011
 31
0.0
  0
LINE
  5
139
  8
1
 62
     7
 10
329.77723502655482
 20
39.618449733388992
 30
0.0
 11
329.77723502655482
 21
9.0000000000000053
 31
0.0
  0
LINE
  5
13A
  8
1
 62
     7
 10
331.39999999999981
 20
71.790408205773502
 30
0.0
 11
331.39999999999981
 21
9.0000000000000053
 31
0.0
  0
LINE
  5
13B
  8
1
 62
     7
 10
329.80000000000001
 20
73.750000000000028
 30
0.0
 11
329.63026615969568
 21
70.149999999999892
 31
0.0
  0
LINE
  5
13C
  8
1
 62
     7
 10
331.39999999999981
 20
73.750000000000028
 30
0.0
 11
328.2999999999999
 21
9.0000000000000053
 31
0.0
  0
LINE
  5
13D
  8
1
 62
     7
 10
324.69999999999982
 20
8.0000000000000053
 30
0.0
 11
324.69999999999982
 21
70.149999999999892
 31
0.0
  0
LINE
  5
13E
  8
1
 62
     7
 10
326.69999999999987
 20
8.0000000000000053
 30
0.0
 11
324.69999999999982
 21
8.0000000000000053
 31
0.0
  0
LINE
  5
13F
  8
1
 62
     7
 10
326.69999999999987
 20
81.000000000000028
 30
0.0
 11
326.69999999999987
 21
99.000000000000057
 31
0.0
  0
LINE
  5
140
  8
1
 62
     7
 10
343.39999999999981
 20
83.000000000000014
 30
0.0
 11
343.69999999999982
 21
83.000000000000014
 31
0.0
  0
LINE
  5
141
  8
1
 62
     7
 10
328.2999999999999
 20
9.0000000000000053
 30
0.0
 11
328.2999999999999
 21
0.0000000000000054
 31
0.0
  0
LINE
  5
142
  8
1
 62
     7
 10
336.39999999999981
 20
11.0
 30
0.0
 11
336.39999999999981
 21
73.000000000000028
 31
0.0
  0
LINE
  5
143
  8
1
 62
     7
 10
341.39999999999981
 20
9.0000000000000053
 30
0.0
 11
328.2999999999999
 21
9.0000000000000053
 31
0.0
  0
LINE
  5
144
  8
1
  6
DASHDOT
 62
     3
 10
350.0
 20
0.0000000000000068
 30
0.0
 11
357.0
 21
0.0000000000000071
 31
0.0
  0
LINE
  5
145
  8
1
 62
     7
 10
349.0
 20
70.149999999999892
 30
0.0
 11
350.0
 21
69.149999999999892
 31
0.0
  0
LINE
  5
146
  8
1
 62
     7
 10
349.0
 20
70.149999999999892
 30
0.0
 11
345.69999999999987
 21
70.149999999999892
 31
0.0
  0
LINE
  5
147
  8
1
 62
     7
 10
350.0
 20
0.0000000000000068
 30
0.0
 11
350.0
 21
69.149999999999892
 31
0.0
  0
LINE
  5
148
  8
1
 62
     7
 10
305.69999999999987
 20
129.99999999999989
 30
0.0
 11
315.0
 21
129.99999999999989
 31
0.0
  0
LINE
  5
149
  8
1
 62
     7
 10
326.10433903939611
 20
79.988405414335304
 30
0.0
 11
324.69999999999982
 21
79.988405414335304
 31
0.0
  0
LINE
  5
14A
  8
1
 62
     7
 10
326.7028511076706
 20
81.000000000000028
 30
0.0
 11
330.1098199049074
 21
81.000000000000028
 31
0.0
  0
LINE
  5
14B
  8
1
 62
     7
 10
331.80000000000001
 20
71.750000000000028
 30
0.0
 11
336.39999999999981
 21
71.750000000000028
 31
0.0
  0
LINE
  5
14C
  8
1
 62
     7
 10
324.69999999999987
 20
129.99999999999989
 30
0.0
 11
324.69999999999982
 21
98.000000000000043
 31
0.0
  0
LINE
  5
14D
  8
1
 62
     7
 10
324.69999999999982
 20
98.000000000000043
 30
0.0
 11
326.69999999999987
 21
98.000000000000043
 31
0.0
  0
LINE
  5
14E
  8
1
 62
     7
 10
326.69999999999987
 20
82.000000000000014
 30
0.0
 11
324.69999999999982
 21
82.000000000000014
 31
0.0
  0
LINE
  5
14F
  8
1
 62
     7
 10
328.30000000000001
 20
99.000000000000057
 30
0.0
 11
328.30000000000001
 21
81.000000000000028
 31
0.0
  0
LINE
  5
150
  8
1
 62
     7
 10
326.69999999999987
 20
99.000000000000057
 30
0.0
 11
339.39999999999981
 21
99.000000000000057
 31
0.0
  0
LINE
  5
151
  8
1
 62
     7
 10
334.39999999999981
 20
79.000000000000028
 30
0.0
 11
334.39999999999981
 21
75.000000000000028
 31
0.0
  0
LINE
  5
152
  8
1
 62
     7
 10
241.19999999999999
 20
98.0
 30
0.0
 11
241.19999999999999
 21
108.0
 31
0.0
  0
LINE
  5
153
  8
1
 62
     7
 10
246.80000000000001
 20
108.0
 30
0.0
 11
246.80000000000001
 21
98.0
 31
0.0
  0
LINE
  5
154
  8
1
 62
     7
 10
241.19999999999999
 20
108.0
 30
0.0
 11
246.80000000000001
 21
108.0
 31
0.0
  0
LINE
  5
155
  8
1
 62
     7
 10
240.80000000000001
 20
107.3071796769725
 30
0.0
 11
241.19999999999999
 21
108.0
 31
0.0
  0
LINE
  5
156
  8
1
 62
     7
 10
240.80000000000001
 20
98.692820323027561
 30
0.0
 11
240.80000000000001
 21
107.3071796769725
 31
0.0
  0
LINE
  5
157
  8
1
 62
     7
 10
241.19999999999999
 20
98.0
 30
0.0
 11
240.80000000000001
 21
98.692820323027561
 31
0.0
  0
LINE
  5
158
  8
1
 62
     7
 10
246.80000000000001
 20
98.0
 30
0.0
 11
241.19999999999999
 21
98.0
 31
0.0
  0
LINE
  5
159
  8
1
 62
     7
 10
246.5
 20
69.75
 30
0.0
 11
245.27298404576661
 21
69.75
 31
0.0
  0
LINE
  5
15A
  8
1
 62
     7
 10
246.80000000000001
 20
79.949999999999974
 30
0.0
 11
246.80000000000001
 21
70.049999999999969
 31
0.0
  0
LINE
  5
15B
  8
1
 62
     7
 10
245.27298404576661
 20
80.25
 30
0.0
 11
246.5
 21
80.25
 31
0.0
  0
LINE
  5
15C
  8
1
 62
     7
 10
246.80000000000001
 20
69.5
 30
0.0
 11
247.40000000000001
 21
69.499999999999972
 31
0.0
  0
LINE
  5
15D
  8
1
 62
     7
 10
246.80000000000001
 20
80.5
 30
0.0
 11
246.80000000000001
 21
69.5
 31
0.0
  0
LINE
  5
15E
  8
1
 62
     7
 10
247.40000000000001
 20
80.5
 30
0.0
 11
246.80000000000001
 21
80.5
 31
0.0
  0
LINE
  5
15F
  8
1
 62
     7
 10
247.40000000000001
 20
82.499999999999915
 30
0.0
 11
250.0
 21
82.499999999999915
 31
0.0
  0
LINE
  5
160
  8
1
 62
     7
 10
247.40000000000001
 20
82.499999999999915
 30
0.0
 11
247.40000000000001
 21
-80.5
 31
0.0
  0
LINE
  5
161
  8
1
 62
     7
 10
246.80000000000001
 20
92.0
 30
0.0
 11
250.0
 21
91.999999999999929
 31
0.0
  0
LINE
  5
162
  8
1
 62
     7
 10
246.80000000000001
 20
152.0
 30
0.0
 11
246.80000000000001
 21
92.0
 31
0.0
  0
LINE
  5
163
  8
1
 62
     7
 10
468.39999999999981
 20
128.0
 30
0.0
 11
468.39999999999981
 21
122.55
 31
0.0
  0
LINE
  5
164
  8
1
 62
     7
 10
444.39999999999992
 20
121.5
 30
0.0
 11
480.39999999999981
 21
121.5
 31
0.0
  0
LINE
  5
165
  8
1
 62
     7
 10
437.19999999999982
 20
152.0
 30
0.0
 11
437.19999999999982
 21
91.999999999999943
 31
0.0
  0
LINE
  5
166
  8
1
 62
     7
 10
437.19999999999982
 20
134.74999999999989
 30
0.0
 11
440.39999999999992
 21
134.74999999999989
 31
0.0
  0
LINE
  5
167
  8
1
 62
     7
 10
437.19999999999982
 20
145.25
 30
0.0
 11
440.39999999999992
 21
145.25
 31
0.0
  0
LINE
  5
168
  8
1
 62
     7
 10
437.19999999999982
 20
91.999999999999943
 30
0.0
 11
440.39999999999992
 21
91.999999999999943
 31
0.0
  0
LINE
  5
169
  8
1
 62
     7
 10
437.19999999999982
 20
152.0
 30
0.0
 11
440.39999999999992
 21
152.0
 31
0.0
  0
LINE
  5
16A
  8
1
 62
     7
 10
492.39999999999981
 20
-48.5
 30
0.0
 11
492.39999999999981
 21
-85.0
 31
0.0
  0
LINE
  5
16B
  8
1
 62
     7
 10
495.39999999999981
 20
-85.0
 30
0.0
 11
492.39999999999981
 21
-85.0
 31
0.0
  0
LINE
  5
16C
  8
1
 62
     7
 10
495.39999999999981
 20
-48.5
 30
0.0
 11
492.39999999999981
 21
-48.5
 31
0.0
  0
LINE
  5
16D
  8
1
 62
     7
 10
470.39999999999981
 20
-130.0
 30
0.0
 11
495.39999999999981
 21
-130.0
 31
0.0
  0
LINE
  5
16E
  8
1
 62
     7
 10
430.39999999999981
 20
-36.5
 30
0.0
 11
430.39999999999981
 21
36.5
 31
0.0
  0
LINE
  5
16F
  8
1
 62
     7
 10
465.39999999999992
 20
-74.0
 30
0.0
 11
465.39999999999992
 21
-79.450000000000003
 31
0.0
  0
LINE
  5
170
  8
1
 62
     7
 10
484.89999999999981
 20
-95.5
 30
0.0
 11
484.89999999999981
 21
-122.55
 31
0.0
  0
LINE
  5
171
  8
1
 62
     7
 10
483.39999999999981
 20
-95.5
 30
0.0
 11
484.89999999999981
 21
-95.5
 31
0.0
  0
LINE
  5
172
  8
1
 62
     7
 10
483.39999999999981
 20
-79.450000000000003
 30
0.0
 11
483.39999999999981
 21
-95.5
 31
0.0
  0
LINE
  5
173
  8
1
 62
     7
 10
465.39999999999992
 20
-79.450000000000003
 30
0.0
 11
483.39999999999981
 21
-79.450000000000003
 31
0.0
  0
LINE
  5
174
  8
1
 62
     7
 10
470.39999999999981
 20
-74.0
 30
0.0
 11
465.39999999999992
 21
-74.0
 31
0.0
  0
LINE
  5
175
  8
1
 62
     7
 10
440.39999999999992
 20
-37.5
 30
0.0
 11
465.39999999999992
 21
-37.5
 31
0.0
  0
LINE
  5
176
  8
1
 62
     7
 10
470.39999999999981
 20
-46.0
 30
0.0
 11
470.39999999999981
 21
-74.0
 31
0.0
  0
LINE
  5
177
  8
1
 62
     7
 10
466.39999999999981
 20
-46.0
 30
0.0
 11
470.39999999999981
 21
-46.0
 31
0.0
  0
LINE
  5
178
  8
1
 62
     7
 10
470.39999999999981
 20
-130.0
 30
0.0
 11
468.39999999999981
 21
-128.0
 31
0.0
  0
LINE
  5
179
  8
1
 62
     7
 10
430.39999999999981
 20
-36.5
 30
0.0
 11
431.39999999999992
 21
-37.5
 31
0.0
  0
LINE
  5
17A
  8
1
 62
     7
 10
465.39999999999992
 20
-58.394709581221491
 30
0.0
 11
457.02499999999981
 21
-58.394709581221591
 31
0.0
  0
LINE
  5
17B
  8
1
 62
     7
 10
440.39999999999992
 20
-58.394709581221491
 30
0.0
 11
448.77499999999981
 21
-58.394709581221591
 31
0.0
  0
LINE
  5
17C
  8
1
 62
     7
 10
440.39999999999992
 20
-44.105290418778402
 30
0.0
 11
448.77499999999981
 21
-44.105290418778402
 31
0.0
  0
LINE
  5
17D
  8
1
 62
     7
 10
465.39999999999992
 20
-44.105290418778402
 30
0.0
 11
457.02499999999981
 21
-44.105290418778402
 31
0.0
  0
LINE
  5
17E
  8
1
 62
     7
 10
468.39999999999981
 20
-122.55
 30
0.0
 11
484.89999999999981
 21
-122.55
 31
0.0
  0
LINE
  5
17F
  8
1
 62
     7
 10
444.39999999999992
 20
-121.5
 30
0.0
 11
480.39999999999981
 21
-121.5
 31
0.0
  0
LINE
  5
180
  8
1
 62
     7
 10
480.39999999999981
 20
-121.5
 30
0.0
 11
480.39999999999981
 21
-80.5
 31
0.0
  0
LINE
  5
181
  8
1
 62
     7
 10
480.39999999999981
 20
-80.5
 30
0.0
 11
462.53240157255078
 21
-80.5
 31
0.0
  0
LINE
  5
182
  8
1
 62
     7
 10
462.53240157255078
 20
-70.0
 30
0.0
 11
462.53240157255078
 21
-80.5
 31
0.0
  0
LINE
  5
183
  8
1
 62
     7
 10
468.89999999999992
 20
-70.0
 30
0.0
 11
462.53240157255078
 21
-70.0
 31
0.0
  0
LINE
  5
184
  8
1
 62
     7
 10
468.89999999999992
 20
-60.0
 30
0.0
 11
468.89999999999992
 21
-70.0
 31
0.0
  0
LINE
  5
185
  8
1
 62
     7
 10
465.39999999999992
 20
-60.0
 30
0.0
 11
468.89999999999992
 21
-60.0
 31
0.0
  0
LINE
  5
186
  8
1
 62
     7
 10
441.39999999999981
 20
-65.0
 30
0.0
 11
440.39999999999992
 21
-66.0
 31
0.0
  0
LINE
  5
187
  8
1
 62
     7
 10
440.39999999999992
 20
-117.5
 30
0.0
 11
440.39999999999992
 21
-65.0
 31
0.0
  0
LINE
  5
188
  8
1
 62
     7
 10
444.39999999999992
 20
-121.5
 30
0.0
 11
440.39999999999992
 21
-117.5
 31
0.0
  0
LINE
  5
189
  8
1
 62
     7
 10
440.39999999999992
 20
-57.5
 30
0.0
 11
437.79999999999978
 21
-57.5
 31
0.0
  0
LINE
  5
18A
  8
1
 62
     7
 10
440.39999999999992
 20
-82.5
 30
0.0
 11
437.79999999999978
 21
-82.5
 31
0.0
  0
LINE
  5
18B
  8
1
 62
     7
 10
437.79999999999978
 20
-80.5
 30
0.0
 11
437.79999999999978
 21
-82.5
 31
0.0
  0
LINE
  5
18C
  8
1
 62
     7
 10
440.39999999999992
 20
-36.0
 30
0.0
 11
437.89999999999981
 21
-36.0
 31
0.0
  0
LINE
  5
18D
  8
1
 62
     7
 10
431.39999999999992
 20
-37.5
 30
0.0
 11
437.89999999999981
 21
-37.5
 31
0.0
  0
LINE
  5
18E
  8
1
 62
     7
 10
437.89999999999981
 20
-36.0
 30
0.0
 11
437.89999999999981
 21
-43.0
 31
0.0
  0
LINE
  5
18F
  8
1
 62
     7
 10
440.39999999999992
 20
-43.0
 30
0.0
 11
437.89999999999981
 21
-43.0
 31
0.0
  0
LINE
  5
190
  8
1
 62
     7
 10
468.39999999999981
 20
-128.0
 30
0.0
 11
468.39999999999981
 21
-122.55
 31
0.0
  0
LINE
  5
191
  8
1
 62
     7
 10
463.39999999999981
 20
-40.915217157336201
 30
0.0
 11
463.39999999999981
 21
-61.070896173838207
 31
0.0
  0
LINE
  5
192
  8
1
 62
     7
 10
442.39999999999981
 20
-40.915217157336201
 30
0.0
 11
442.39999999999981
 21
-61.070896173838207
 31
0.0
  0
LINE
  5
193
  8
1
 62
     7
 10
442.39999999999981
 20
61.070896173838122
 30
0.0
 11
442.39999999999981
 21
40.915217157336293
 31
0.0
  0
LINE
  5
194
  8
1
 62
     7
 10
463.39999999999981
 20
61.070896173838122
 30
0.0
 11
463.39999999999981
 21
40.915217157336293
 31
0.0
  0
LINE
  5
195
  8
1
 62
     7
 10
437.79999999999978
 20
69.499999999999972
 30
0.0
 11
437.19999999999982
 21
69.499999999999972
 31
0.0
  0
LINE
  5
196
  8
1
 62
     7
 10
437.79999999999978
 20
69.499999999999972
 30
0.0
 11
437.19999999999982
 21
69.499999999999972
 31
0.0
  0
LINE
  5
197
  8
1
 62
     7
 10
437.19999999999982
 20
80.499999999999972
 30
0.0
 11
437.79999999999978
 21
80.499999999999972
 31
0.0
  0
LINE
  5
198
  8
1
 62
     7
 10
437.89999999999981
 20
43.0
 30
0.0
 11
440.39999999999992
 21
43.0
 31
0.0
  0
LINE
  5
199
  8
1
 62
     7
 10
437.89999999999981
 20
43.0
 30
0.0
 11
437.89999999999981
 21
36.0
 31
0.0
  0
LINE
  5
19A
  8
1
 62
     7
 10
437.89999999999981
 20
37.5
 30
0.0
 11
431.39999999999992
 21
37.5
 31
0.0
  0
LINE
  5
19B
  8
1
 62
     7
 10
437.89999999999981
 20
36.0
 30
0.0
 11
440.39999999999992
 21
36.0
 31
0.0
  0
LINE
  5
19C
  8
1
 62
     7
 10
437.79999999999978
 20
82.499999999999986
 30
0.0
 11
437.79999999999978
 21
80.499999999999972
 31
0.0
  0
LINE
  5
19D
  8
1
 62
     7
 10
437.79999999999978
 20
82.499999999999986
 30
0.0
 11
440.39999999999992
 21
82.499999999999986
 31
0.0
  0
LINE
  5
19E
  8
1
 62
     7
 10
437.79999999999978
 20
57.499999999999972
 30
0.0
 11
440.39999999999992
 21
57.499999999999972
 31
0.0
  0
LINE
  5
19F
  8
1
 62
     7
 10
440.39999999999992
 20
117.5
 30
0.0
 11
444.39999999999992
 21
121.5
 31
0.0
  0
LINE
  5
1A0
  8
1
 62
     7
 10
440.39999999999992
 20
152.0
 30
0.0
 11
440.39999999999992
 21
64.999999999999972
 31
0.0
  0
LINE
  5
1A1
  8
1
 62
     7
 10
468.89999999999992
 20
59.999999999999972
 30
0.0
 11
465.39999999999992
 21
59.999999999999972
 31
0.0
  0
LINE
  5
1A2
  8
1
 62
     7
 10
468.89999999999992
 20
69.999999999999972
 30
0.0
 11
468.89999999999992
 21
59.999999999999972
 31
0.0
  0
LINE
  5
1A3
  8
1
 62
     7
 10
462.53240157255078
 20
69.999999999999972
 30
0.0
 11
468.89999999999992
 21
69.999999999999972
 31
0.0
  0
LINE
  5
1A4
  8
1
 62
     7
 10
462.53240157255078
 20
80.499999999999972
 30
0.0
 11
462.53240157255078
 21
69.999999999999972
 31
0.0
  0
LINE
  5
1A5
  8
1
 62
     7
 10
462.53240157255078
 20
80.499999999999972
 30
0.0
 11
480.39999999999981
 21
80.499999999999972
 31
0.0
  0
LINE
  5
1A6
  8
1
 62
     7
 10
480.39999999999981
 20
80.499999999999972
 30
0.0
 11
480.39999999999981
 21
121.5
 31
0.0
  0
LINE
  5
1A7
  8
1
 62
     7
 10
484.89999999999981
 20
122.55
 30
0.0
 11
468.39999999999981
 21
122.55
 31
0.0
  0
LINE
  5
1A8
  8
1
 62
     7
 10
457.02499999999981
 20
44.105290418778402
 30
0.0
 11
465.39999999999992
 21
44.105290418778402
 31
0.0
  0
LINE
  5
1A9
  8
1
 62
     7
 10
448.77499999999981
 20
44.105290418778402
 30
0.0
 11
440.39999999999992
 21
44.105290418778402
 31
0.0
  0
LINE
  5
1AA
  8
1
 62
     7
 10
448.77499999999981
 20
58.394709581221584
 30
0.0
 11
440.39999999999992
 21
58.394709581221584
 31
0.0
  0
LINE
  5
1AB
  8
1
 62
     7
 10
457.02499999999981
 20
58.394709581221584
 30
0.0
 11
465.39999999999992
 21
58.394709581221584
 31
0.0
  0
LINE
  5
1AC
  8
1
 62
     7
 10
465.39999999999992
 20
45.0
 30
0.0
 11
466.39999999999981
 21
46.0
 31
0.0
  0
LINE
  5
1AD
  8
1
 62
     7
 10
431.39999999999992
 20
37.5
 30
0.0
 11
430.39999999999981
 21
36.5
 31
0.0
  0
LINE
  5
1AE
  8
1
 62
     7
 10
468.39999999999981
 20
128.0
 30
0.0
 11
470.39999999999981
 21
130.0
 31
0.0
  0
LINE
  5
1AF
  8
1
 62
     7
 10
470.39999999999981
 20
46.0
 30
0.0
 11
466.39999999999981
 21
46.0
 31
0.0
  0
LINE
  5
1B0
  8
1
 62
     7
 10
470.39999999999981
 20
73.999999999999972
 30
0.0
 11
470.39999999999981
 21
46.0
 31
0.0
  0
LINE
  5
1B1
  8
1
 62
     7
 10
465.39999999999992
 20
37.5
 30
0.0
 11
440.39999999999992
 21
37.5
 31
0.0
  0
LINE
  5
1B2
  8
1
 62
     7
 10
465.39999999999992
 20
73.999999999999972
 30
0.0
 11
470.39999999999981
 21
73.999999999999972
 31
0.0
  0
LINE
  5
1B3
  8
1
 62
     7
 10
483.39999999999981
 20
79.449999999999974
 30
0.0
 11
465.39999999999992
 21
79.449999999999974
 31
0.0
  0
LINE
  5
1B4
  8
1
 62
     7
 10
483.39999999999981
 20
95.499999999999943
 30
0.0
 11
483.39999999999981
 21
79.449999999999974
 31
0.0
  0
LINE
  5
1B5
  8
1
 62
     7
 10
484.89999999999981
 20
95.499999999999943
 30
0.0
 11
483.39999999999981
 21
95.499999999999943
 31
0.0
  0
LINE
  5
1B6
  8
1
 62
     7
 10
465.39999999999992
 20
79.449999999999974
 30
0.0
 11
465.39999999999992
 21
73.999999999999972
 31
0.0
  0
LINE
  5
1B7
  8
1
 62
     7
 10
495.39999999999981
 20
130.0
 30
0.0
 11
470.39999999999981
 21
130.0
 31
0.0
  0
LINE
  5
1B8
  8
1
 62
     7
 10
492.39999999999981
 20
48.5
 30
0.0
 11
495.39999999999981
 21
48.5
 31
0.0
  0
LINE
  5
1B9
  8
1
 62
     7
 10
492.39999999999981
 20
84.999999999999986
 30
0.0
 11
495.39999999999981
 21
84.999999999999986
 31
0.0
  0
LINE
  5
1BA
  8
1
 62
     7
 10
492.39999999999981
 20
84.999999999999986
 30
0.0
 11
492.39999999999981
 21
48.5
 31
0.0
  0
LINE
  5
1BB
  8
1
 62
     7
 10
484.89999999999981
 20
95.499999999999943
 30
0.0
 11
484.89999999999981
 21
122.55
 31
0.0
  0
LINE
  5
1BC
  8
1
 62
     7
 10
38.5
 20
23.848480035423581
 30
0.0
 11
38.5
 21
30.0
 31
0.0
  0
LINE
  5
1BD
  8
1
 62
     7
 10
38.5
 20
30.0
 30
0.0
 11
53.5
 21
30.0
 31
0.0
  0
LINE
  5
1BE
  8
1
 62
     7
 10
53.5
 20
30.0
 30
0.0
 11
53.5
 21
23.848480035423581
 31
0.0
  0
LINE
  5
1BF
  8
1
 62
     7
 10
46.465000000000153
 20
78.099999999999966
 30
0.0
 11
45.535000000000068
 21
78.099999999999966
 31
0.0
  0
LINE
  5
1C0
  8
1
 62
     7
 10
42.900000000000091
 20
75.464999999999975
 30
0.0
 11
42.900000000000091
 21
74.534999999999968
 31
0.0
  0
LINE
  5
1C1
  8
1
 62
     7
 10
45.535000000000068
 20
71.899999999999963
 30
0.0
 11
46.465000000000153
 21
71.899999999999963
 31
0.0
  0
LINE
  5
1C2
  8
1
 62
     7
 10
49.100000000000144
 20
74.534999999999968
 30
0.0
 11
49.100000000000144
 21
75.464999999999975
 31
0.0
  0
LINE
  5
1C3
  8
1
 62
     7
 10
-28.534999999999851
 20
3.099999999999993
 30
0.0
 11
-29.464999999999922
 21
3.099999999999993
 31
0.0
  0
LINE
  5
1C4
  8
1
 62
     7
 10
-25.89999999999986
 20
-0.4650000000000887
 30
0.0
 11
-25.89999999999986
 21
0.4650000000000034
 31
0.0
  0
LINE
  5
1C5
  8
1
 62
     7
 10
-29.464999999999922
 20
-3.100000000000108
 30
0.0
 11
-28.534999999999851
 21
-3.100000000000108
 31
0.0
  0
LINE
  5
1C6
  8
1
 62
     7
 10
-32.099999999999909
 20
0.4650000000000034
 30
0.0
 11
-32.099999999999909
 21
-0.4650000000000887
 31
0.0
  0
LINE
  5
1C7
  8
1
 62
     7
 10
42.900000000000091
 20
-74.534999999999997
 30
0.0
 11
42.900000000000091
 21
-75.465000000000003
 31
0.0
  0
LINE
  5
1C8
  8
1
 62
     7
 10
46.465000000000153
 20
-71.90000000000002
 30
0.0
 11
45.535000000000068
 21
-71.90000000000002
 31
0.0
  0
LINE
  5
1C9
  8
1
 62
     7
 10
49.100000000000144
 20
-75.465000000000003
 30
0.0
 11
49.100000000000144
 21
-74.534999999999997
 31
0.0
  0
LINE
  5
1CA
  8
1
 62
     7
 10
45.535000000000068
 20
-78.09999999999998
 30
0.0
 11
46.465000000000153
 21
-78.09999999999998
 31
0.0
  0
LINE
  5
1CB
  8
1
 62
     7
 10
120.5350000000001
 20
-3.100000000000108
 30
0.0
 11
121.4650000000002
 21
-3.100000000000108
 31
0.0
  0
LINE
  5
1CC
  8
1
 62
     7
 10
117.90000000000001
 20
0.4650000000000034
 30
0.0
 11
117.90000000000001
 21
-0.4650000000000887
 31
0.0
  0
LINE
  5
1CD
  8
1
 62
     7
 10
121.4650000000002
 20
3.099999999999993
 30
0.0
 11
120.5350000000001
 21
3.099999999999993
 31
0.0
  0
LINE
  5
1CE
  8
1
 62
     7
 10
124.09999999999999
 20
-0.4650000000000887
 30
0.0
 11
124.09999999999999
 21
0.4650000000000034
 31
0.0
  0
LINE
  5
1CF
  8
1
 62
     7
 10
430.39999999999981
 20
30.0
 30
0.0
 11
495.39999999999981
 21
30.0
 31
0.0
  0
LINE
  5
1D0
  8
1
 62
     7
 10
430.39999999999981
 20
25.0
 30
0.0
 11
495.39999999999981
 21
25.0
 31
0.0
  0
LINE
  5
1D1
  8
1
 62
     7
 10
58.5
 20
-37.201789096474599
 30
0.0
 11
58.5
 21
-40.642346141747709
 31
0.0
  0
LINE
  5
1D2
  8
1
 62
     7
 10
33.5
 20
-37.201789096474599
 30
0.0
 11
33.5
 21
-40.642346141747709
 31
0.0
  0
LINE
  5
1D3
  8
1
 62
     7
 10
53.5
 20
-36.742346141747703
 30
0.0
 11
53.5
 21
-43.142346141747709
 31
0.0
  0
LINE
  5
1D4
  8
1
 62
     7
 10
53.5
 20
-43.142346141747709
 30
0.0
 11
56.0
 21
-43.142346141747709
 31
0.0
  0
LINE
  5
1D5
  8
1
 62
     7
 10
38.5
 20
-36.742346141747703
 30
0.0
 11
38.5
 21
-43.142346141747709
 31
0.0
  0
LINE
  5
1D6
  8
1
 62
     7
 10
38.5
 20
-43.142346141747709
 30
0.0
 11
36.0
 21
-43.142346141747709
 31
0.0
  0
LINE
  5
1D7
  8
1
 62
     7
 10
437.19999999999982
 20
97.999999999999972
 30
0.0
 11
431.59999999999968
 21
97.999999999999972
 31
0.0
  0
LINE
  5
1D8
  8
1
 62
     7
 10
431.59999999999968
 20
97.999999999999972
 30
0.0
 11
431.19999999999982
 21
98.692820323027519
 31
0.0
  0
LINE
  5
1D9
  8
1
 62
     7
 10
431.19999999999982
 20
98.692820323027519
 30
0.0
 11
431.19999999999982
 21
107.3071796769724
 31
0.0
  0
LINE
  5
1DA
  8
1
 62
     7
 10
431.19999999999982
 20
107.3071796769724
 30
0.0
 11
431.59999999999968
 21
108.0
 31
0.0
  0
LINE
  5
1DB
  8
1
 62
     7
 10
431.59999999999968
 20
108.0
 30
0.0
 11
437.19999999999982
 21
108.0
 31
0.0
  0
LINE
  5
1DC
  8
1
 62
     7
 10
437.19999999999982
 20
108.0
 30
0.0
 11
437.19999999999982
 21
97.999999999999972
 31
0.0
  0
LINE
  5
1DD
  8
1
 62
     7
 10
431.59999999999968
 20
97.999999999999972
 30
0.0
 11
431.59999999999968
 21
108.0
 31
0.0
  0
LINE
  5
1DE
  8
1
  6
DASHDOT
 62
     3
 10
58.5
 20
0.0
 30
0.0
 11
33.5
 21
0.0
 31
0.0
  0
LINE
  5
1DF
  8
1
  6
DASHDOT
 62
     3
 10
46.0
 20
12.5
 30
0.0
 11
46.0
 21
-12.5
 31
0.0
  0
LINE
  5
1E0
  8
1
 62
     7
 10
437.19999999999982
 20
80.499999999999972
 30
0.0
 11
437.19999999999982
 21
69.499999999999972
 31
0.0
  0
LINE
  5
1E1
  8
1
 62
     7
 10
435.67298404576633
 20
80.249999999999957
 30
0.0
 11
436.89999999999981
 21
80.249999999999957
 31
0.0
  0
LINE
  5
1E2
  8
1
 62
     7
 10
436.89999999999981
 20
69.749999999999972
 30
0.0
 11
435.67298404576633
 21
69.749999999999972
 31
0.0
  0
LINE
  5
1E3
  8
1
 62
     7
 10
437.79999999999978
 20
-80.5
 30
0.0
 11
437.19999999999982
 21
-80.5
 31
0.0
  0
LINE
  5
1E4
  8
1
 62
     7
 10
437.79999999999978
 20
-80.5
 30
0.0
 11
437.19999999999982
 21
-80.5
 31
0.0
  0
LINE
  5
1E5
  8
1
 62
     7
 10
437.19999999999982
 20
-69.5
 30
0.0
 11
437.79999999999978
 21
-69.5
 31
0.0
  0
LINE
  5
1E6
  8
1
 62
     7
 10
437.19999999999982
 20
-69.5
 30
0.0
 11
437.19999999999982
 21
-80.5
 31
0.0
  0
LINE
  5
1E7
  8
1
 62
     7
 10
435.67298404576633
 20
-69.75
 30
0.0
 11
436.89999999999981
 21
-69.75
 31
0.0
  0
LINE
  5
1E8
  8
1
 62
     7
 10
436.89999999999981
 20
-80.25
 30
0.0
 11
435.67298404576633
 21
-80.25
 31
0.0
  0
LINE
  5
1E9
  8
1
 62
     7
 10
465.39999999999992
 20
37.5
 30
0.0
 11
465.39999999999992
 21
64.999999999999972
 31
0.0
  0
LINE
  5
1EA
  8
1
 62
     7
 10
465.39999999999992
 20
-37.5
 30
0.0
 11
465.39999999999992
 21
-65.0
 31
0.0
  0
LINE
  5
1EB
  8
1
 62
     7
 10
466.39999999999981
 20
-46.0
 30
0.0
 11
465.39999999999992
 21
-45.0
 31
0.0
  0
LINE
  5
1EC
  8
1
 62
     7
 10
495.39999999999981
 20
-130.0
 30
0.0
 11
495.39999999999981
 21
130.0
 31
0.0
  0
LINE
  5
1ED
  8
1
  6
DASHDOT
 62
     3
 10
430.39999999999981
 20
0.0
 30
0.0
 11
423.39999999999992
 21
0.0
 31
0.0
  0
LINE
  5
1EE
  8
1
 62
     7
 10
254.0
 20
121.5
 30
0.0
 11
277.99999999999989
 21
121.5
 31
0.0
  0
LINE
  5
1EF
  8
1
 62
     7
 10
246.80000000000001
 20
152.0
 30
0.0
 11
250.0
 21
152.0
 31
0.0
  0
LINE
  5
1F0
  8
1
 62
     7
 10
279.99999999999989
 20
-130.0
 30
0.0
 11
305.00000000000011
 21
-130.0
 31
0.0
  0
LINE
  5
1F1
  8
1
 62
     7
 10
240.0
 20
-36.5
 30
0.0
 11
240.0
 21
36.5
 31
0.0
  0
LINE
  5
1F2
  8
1
 62
     7
 10
279.99999999999989
 20
-130.0
 30
0.0
 11
277.99999999999989
 21
-128.0
 31
0.0
  0
LINE
  5
1F3
  8
1
 62
     7
 10
240.0
 20
-36.5
 30
0.0
 11
240.99999999999989
 21
-37.5
 31
0.0
  0
LINE
  5
1F4
  8
1
 62
     7
 10
254.0
 20
-121.5
 30
0.0
 11
277.99999999999989
 21
-121.5
 31
0.0
  0
LINE
  5
1F5
  8
1
 62
     7
 10
254.0
 20
-121.5
 30
0.0
 11
250.0
 21
-117.5
 31
0.0
  0
LINE
  5
1F6
  8
1
 62
     7
 10
249.99999999999989
 20
-82.5
 30
0.0
 11
247.40000000000001
 21
-82.5
 31
0.0
  0
LINE
  5
1F7
  8
1
 62
     7
 10
247.40000000000001
 20
-80.5
 30
0.0
 11
247.40000000000001
 21
-82.5
 31
0.0
  0
LINE
  5
1F8
  8
1
 62
     7
 10
240.99999999999989
 20
-37.5
 30
0.0
 11
247.40000000000001
 21
-37.5
 31
0.0
  0
LINE
  5
1F9
  8
1
 62
     7
 10
277.99999999999989
 20
-128.0
 30
0.0
 11
277.99999999999989
 21
128.0
 31
0.0
  0
LINE
  5
1FA
  8
1
 62
     7
 10
247.40000000000001
 20
37.5
 30
0.0
 11
241.0
 21
37.5
 31
0.0
  0
LINE
  5
1FB
  8
1
 62
     7
 10
250.0
 20
117.5
 30
0.0
 11
254.0
 21
121.5
 31
0.0
  0
LINE
  5
1FC
  8
1
 62
     7
 10
241.0
 20
37.5
 30
0.0
 11
240.0
 21
36.5
 31
0.0
  0
LINE
  5
1FD
  8
1
 62
     7
 10
277.99999999999989
 20
128.0
 30
0.0
 11
279.99999999999989
 21
130.0
 31
0.0
  0
LINE
  5
1FE
  8
1
 62
     7
 10
305.00000000000011
 20
130.0
 30
0.0
 11
279.99999999999989
 21
130.0
 31
0.0
  0
LINE
  5
1FF
  8
1
 62
     7
 10
247.40000000000001
 20
-80.5
 30
0.0
 11
246.80000000000001
 21
-80.5
 31
0.0
  0
LINE
  5
200
  8
1
 62
     7
 10
247.40000000000001
 20
-80.5
 30
0.0
 11
246.80000000000001
 21
-80.5
 31
0.0
  0
LINE
  5
201
  8
1
 62
     7
 10
246.80000000000001
 20
-69.5
 30
0.0
 11
247.40000000000001
 21
-69.5
 31
0.0
  0
LINE
  5
202
  8
1
 62
     7
 10
246.80000000000001
 20
-69.5
 30
0.0
 11
246.80000000000001
 21
-80.5
 31
0.0
  0
LINE
  5
203
  8
1
 62
     7
 10
245.27298404576661
 20
-69.75
 30
0.0
 11
246.49999999999989
 21
-69.75
 31
0.0
  0
LINE
  5
204
  8
1
 62
     7
 10
246.49999999999989
 20
-80.25
 30
0.0
 11
245.27298404576669
 21
-80.25
 31
0.0
  0
LINE
  5
205
  8
1
 62
     7
 10
305.00000000000011
 20
-130.0
 30
0.0
 11
305.00000000000011
 21
0.0000000000000071
 31
0.0
  0
LINE
  5
206
  8
1
  6
DASHDOT
 62
     3
 10
240.0
 20
0.0
 30
0.0
 11
233.0
 21
-0.0000000000000004
 31
0.0
  0
LINE
  5
207
  8
1
 62
     7
 10
437.79999999999978
 20
37.5
 30
0.0
 11
437.79999999999978
 21
80.499999999999972
 31
0.0
  0
LINE
  5
208
  8
1
 62
     7
 10
437.79999999999978
 20
-37.5
 30
0.0
 11
437.79999999999978
 21
-80.5
 31
0.0
  0
LINE
  5
209
  8
1
 62
     7
 10
250.0
 20
152.0
 30
0.0
 11
250.0
 21
-117.5
 31
0.0
  0
LINE
  5
20A
  8
1
  6
DASHDOT
 62
     3
 10
443.39999999999981
 20
140.0
 30
0.0
 11
434.19999999999982
 21
140.0
 31
0.0
  0
LINE
  5
20B
  8
1
  6
DASHDOT
 62
     3
 10
253.0
 20
140.0
 30
0.0
 11
243.80000000000001
 21
140.0
 31
0.0
  0
LINE
  5
20C
  8
1
 62
     3
 10
513.89999999999975
 20
93.500000000000057
 30
0.0
 11
534.39999999999975
 21
93.500000000000057
 31
0.0
  0
LINE
  5
20D
  8
1
  6
DASHDOT
 62
     3
 10
751.29999999999973
 20
62.758402345379487
 30
0.0
 11
751.29999999999973
 21
47.286757723018397
 31
0.0
  0
LINE
  5
20E
  8
1
  6
DASHDOT
 62
     3
 10
751.29999999999973
 20
-47.318544639943703
 30
0.0
 11
751.29999999999973
 21
-62.703698407829002
 31
0.0
  0
LINE
  5
20F
  8
1
  6
DASHDOT
 62
     3
 10
797.98955001792694
 20
-0.0000000000000057
 30
0.0
 11
814.37610000809696
 21
-0.0000000000000057
 31
0.0
  0
LINE
  5
210
  8
1
  6
DASHDOT
 62
     3
 10
703.96523263524205
 20
0.0000000000000058
 30
0.0
 11
688.53117686524797
 21
0.0000000000000058
 31
0.0
  0
LINE
  5
211
  8
1
 62
     7
 10
455.0999999999998
 20
161.5
 30
0.0
 11
457.69999999999987
 21
161.5
 31
0.0
  0
LINE
  5
212
  8
1
 62
     7
 10
457.69999999999987
 20
161.5
 30
0.0
 11
457.69999999999987
 21
121.5
 31
0.0
  0
LINE
  5
213
  8
1
 62
     7
 10
455.0999999999998
 20
161.5
 30
0.0
 11
455.0999999999998
 21
121.5
 31
0.0
  0
LINE
  5
214
  8
1
 62
     7
 10
457.19999999999987
 20
167.5
 30
0.0
 11
457.19999999999987
 21
161.5
 31
0.0
  0
LINE
  5
215
  8
1
 62
     7
 10
456.79999999999978
 20
167.5
 30
0.0
 11
456.79999999999978
 21
161.5
 31
0.0
  0
LINE
  5
216
  8
1
 62
     7
 10
456.39999999999992
 20
167.5
 30
0.0
 11
456.39999999999992
 21
161.5
 31
0.0
  0
LINE
  5
217
  8
1
 62
     7
 10
455.99999999999977
 20
167.5
 30
0.0
 11
455.99999999999977
 21
161.5
 31
0.0
  0
LINE
  5
218
  8
1
 62
     7
 10
455.60000000000002
 20
167.5
 30
0.0
 11
455.60000000000002
 21
161.5
 31
0.0
  0
LINE
  5
219
  8
1
 62
     7
 10
515.39999999999986
 20
-30.0
 30
0.0
 11
495.39999999999981
 21
-30.0
 31
0.0
  0
LINE
  5
21A
  8
1
 62
     7
 10
517.09999999999957
 20
81.000000000000057
 30
0.0
 11
517.0999999999998
 21
85.000000000000071
 31
0.0
  0
LINE
  5
21B
  8
1
 62
     7
 10
509.39999999999981
 20
98.000000000000057
 30
0.0
 11
509.39999999999981
 21
125.9787454673947
 31
0.0
  0
LINE
  5
21C
  8
1
 62
     7
 10
323.30000000000013
 20
129.99999999999989
 30
0.0
 11
324.69999999999987
 21
129.99999999999989
 31
0.0
  0
LINE
  5
21D
  8
1
 62
     7
 10
315.0
 20
129.99999999999989
 30
0.0
 11
315.0
 21
0.0000000000000046
 31
0.0
  0
LINE
  5
21E
  8
1
 62
     7
 10
319.0
 20
0.0000000000000046
 30
0.0
 11
319.0
 21
-125.9787454673945
 31
0.0
  0
LINE
  5
21F
  8
1
 62
     7
 10
315.00000000000011
 20
-121.89999999999991
 30
0.0
 11
315.00000000000011
 21
-129.99999999999989
 31
0.0
  0
LINE
  5
220
  8
1
 62
     7
 10
505.39999999999981
 20
129.99999999999989
 30
0.0
 11
505.39999999999981
 21
98.000000000000057
 31
0.0
  0
LINE
  5
221
  8
1
 62
     7
 10
509.39999999999981
 20
82.000000000000085
 30
0.0
 11
509.39999999999981
 21
77.021254532604914
 31
0.0
  0
LINE
  5
222
  8
1
 62
     7
 10
515.09999999999968
 20
73.000000000000071
 30
0.0
 11
513.69999999999982
 21
73.000000000000071
 31
0.0
  0
LINE
  5
223
  8
1
 62
     7
 10
505.39999999999981
 20
82.000000000000085
 30
0.0
 11
505.39999999999981
 21
33.0
 31
0.0
  0
LINE
  5
224
  8
1
 62
     7
 10
505.39999999999981
 20
-130.0
 30
0.0
 11
505.39999999999981
 21
-33.0
 31
0.0
  0
LINE
  5
225
  8
1
 62
     7
 10
515.09999999999968
 20
-127.6999999999999
 30
0.0
 11
513.69999999999982
 21
-127.6999999999999
 31
0.0
  0
LINE
  5
226
  8
1
 62
     7
 10
511.69999999999987
 20
-125.6999999999999
 30
0.0
 11
511.69999999999987
 21
-77.299999999999955
 31
0.0
  0
LINE
  5
227
  8
1
 62
     7
 10
513.69999999999982
 20
-73.0
 30
0.0
 11
515.09999999999945
 21
-73.0
 31
0.0
  0
LINE
  5
228
  8
1
 62
     7
 10
513.69999999999982
 20
-75.300000000000097
 30
0.0
 11
515.09999999999968
 21
-75.300000000000097
 31
0.0
  0
LINE
  5
229
  8
1
 62
     7
 10
507.69999999999987
 20
-81.100000000000094
 30
0.0
 11
507.69999999999987
 21
-121.89999999999991
 31
0.0
  0
ARC
  5
22A
  8
1
 62
     7
 10
46.0
 20
0.0
 30
0.0
 40
130.0
 50
0.0
 51
73.854008001611419
  0
ARC
  5
22B
  8
1
 62
     7
 10
343.39999999999981
 20
-85.000000000000014
 30
0.0
 40
1.999999999999956
 50
90.0
 51
180.0
  0
ARC
  5
22C
  8
1
 62
     7
 10
65.5
 20
111.0
 30
0.0
 40
3.0
 50
0.0
 51
90.0
  0
ARC
  5
22D
  8
1
 62
     7
 10
63.0
 20
117.0
 30
0.0
 40
3.0
 50
180.0
 51
270.0
  0
ARC
  5
22E
  8
1
 62
     7
 10
26.500000000000231
 20
111.0
 30
0.0
 40
3.0
 50
90.000000000004405
 51
180.0
  0
ARC
  5
22F
  8
1
 62
     7
 10
29.000000000000231
 20
117.0
 30
0.0
 40
3.0
 50
270.0
 51
0.0
  0
ARC
  5
230
  8
1
 62
     7
 10
35.0
 20
149.0
 30
0.0
 40
3.0
 50
89.999999999995666
 51
180.0
  0
ARC
  5
231
  8
1
 62
     7
 10
57.000000000000227
 20
149.0
 30
0.0
 40
3.0
 50
0.0
 51
90.0
  0
ARC
  5
232
  8
1
 62
     7
 10
529.49999999999989
 20
-88.0
 30
0.0
 40
2.0
 50
270.0
 51
0.0
  0
ARC
  5
233
  8
1
 62
     7
 10
343.39999999999981
 20
85.000000000000028
 30
0.0
 40
2.0
 50
180.0
 51
270.0
  0
ARC
  5
234
  8
1
 62
     7
 10
246.5
 20
70.049999999999969
 30
0.0
 40
0.2999999999999545
 50
270.0
 51
0.0
  0
ARC
  5
235
  8
1
 62
     7
 10
246.5
 20
79.949999999999974
 30
0.0
 40
0.299999999999983
 50
0.0
 51
90.0
  0
ARC
  5
236
  8
1
 62
     7
 10
245.27298404576661
 20
71.649999999999977
 30
0.0
 40
1.9000000000000239
 50
196.0728591688225
 51
270.0
  0
ARC
  5
237
  8
1
 62
     7
 10
245.27298404576661
 20
78.349999999999966
 30
0.0
 40
1.9000000000000341
 50
90.0
 51
163.92714083117809
  0
ARC
  5
238
  8
1
 62
     7
 10
56.0
 20
-40.642346141747709
 30
0.0
 40
2.5
 50
270.0
 51
0.0
  0
ARC
  5
239
  8
1
 62
     7
 10
36.0
 20
-40.642346141747709
 30
0.0
 40
2.5
 50
180.0
 51
270.0
  0
ARC
  5
23A
  8
1
 62
     7
 10
435.67298404576633
 20
78.349999999999966
 30
0.0
 40
1.900000000000005
 50
90.0
 51
163.92714083117721
  0
ARC
  5
23B
  8
1
 62
     7
 10
435.67298404576633
 20
71.649999999999977
 30
0.0
 40
1.8999999999999651
 50
196.07285916882259
 51
270.0
  0
ARC
  5
23C
  8
1
 62
     7
 10
436.89999999999981
 20
79.949999999999974
 30
0.0
 40
0.2999999999998977
 50
0.0
 51
90.0
  0
ARC
  5
23D
  8
1
 62
     7
 10
436.89999999999981
 20
70.049999999999969
 30
0.0
 40
0.2999999999999972
 50
270.0
 51
0.0
  0
ARC
  5
23E
  8
1
 62
     7
 10
435.67298404576633
 20
-71.65000000000002
 30
0.0
 40
1.900000000000005
 50
90.0
 51
163.92714083117721
  0
ARC
  5
23F
  8
1
 62
     7
 10
435.67298404576633
 20
-78.34999999999998
 30
0.0
 40
1.8999999999999651
 50
196.07285916882259
 51
270.0
  0
ARC
  5
240
  8
1
 62
     7
 10
436.89999999999981
 20
-70.049999999999983
 30
0.0
 40
0.2999999999998977
 50
0.0
 51
90.0
  0
ARC
  5
241
  8
1
 62
     7
 10
436.89999999999981
 20
-79.950000000000017
 30
0.0
 40
0.299999999999983
 50
270.0
 51
0.0
  0
ARC
  5
242
  8
1
 62
     7
 10
245.27298404576669
 20
-71.650000000000034
 30
0.0
 40
1.9000000000000341
 50
90.0
 51
163.92714083117849
  0
ARC
  5
243
  8
1
 62
     7
 10
245.27298404576661
 20
-78.350000000000023
 30
0.0
 40
1.900000000000015
 50
196.07285916882179
 51
270.0
  0
ARC
  5
244
  8
1
 62
     7
 10
246.49999999999989
 20
-70.050000000000011
 30
0.0
 40
0.3000000000002103
 50
0.0
 51
90.0
  0
ARC
  5
245
  8
1
 62
     7
 10
246.49999999999989
 20
-79.950000000000045
 30
0.0
 40
0.2999999999999545
 50
270.0
 51
0.0
  0
ARC
  5
246
  8
1
 62
     7
 10
516.19999999999982
 20
76.000000000000071
 30
0.0
 40
4.0
 50
0.0
 51
85.636447428074291
  0
ARC
  5
247
  8
1
 62
     7
 10
46.0
 20
0.0
 30
0.0
 40
24.999999999999961
 50
107.45760312372209
 51
72.542396876277877
  0
ARC
  5
248
  8
1
 62
     7
 10
46.0
 20
0.0
 30
0.0
 40
130.0
 50
76.145991998388624
 51
83.81769576360648
  0
ARC
  5
249
  8
1
 62
     7
 10
46.0
 20
0.0
 30
0.0
 40
121.5
 50
0.0
 51
83.383319986291909
  0
ARC
  5
24A
  8
1
 62
     7
 10
46.0
 20
0.0
 30
0.0
 40
121.5
 50
96.616680013707992
 51
0.0
  0
ARC
  5
24B
  8
1
 62
     7
 10
46.0
 20
0.0
 30
0.0
 40
130.0
 50
96.182304236393392
 51
0.0
  0
ARC
  5
24C
  8
1
 62
     7
 10
751.29999999999973
 20
0.0
 30
0.0
 40
89.999999999999844
 50
104.9935487178422
 51
165.0064512821576
  0
ARC
  5
24D
  8
1
 62
     7
 10
751.29999999999973
 20
0.0
 30
0.0
 40
90.000000000000099
 50
194.9935487178424
 51
255.0064512821576
  0
ARC
  5
24E
  8
1
 62
     7
 10
751.29999999999973
 20
0.0
 30
0.0
 40
90.000000000000099
 50
284.99354871784232
 51
345.00645128215751
  0
ARC
  5
24F
  8
1
 62
     7
 10
751.29999999999973
 20
0.0
 30
0.0
 40
89.999999999999787
 50
14.9935487178423
 51
75.006451282157713
  0
ARC
  5
250
  8
1
 62
     7
 10
751.29999999999973
 20
0.0
 30
0.0
 40
100.0000000000001
 50
17.292442775955731
 51
42.707557224043967
  0
ARC
  5
251
  8
1
 62
     7
 10
751.29999999999973
 20
0.0
 30
0.0
 40
100.0
 50
347.29244277595581
 51
12.70755722404397
  0
ARC
  5
252
  8
1
 62
     7
 10
751.29999999999973
 20
0.0
 30
0.0
 40
100.0000000000002
 50
317.29244277595581
 51
342.70755722404402
  0
ARC
  5
253
  8
1
 62
     7
 10
751.29999999999973
 20
0.0
 30
0.0
 40
100.0000000000002
 50
287.29244277595581
 51
312.70755722404402
  0
ARC
  5
254
  8
1
 62
     7
 10
751.29999999999973
 20
0.0
 30
0.0
 40
100.0000000000002
 50
257.29244277595569
 51
282.70755722404402
  0
ARC
  5
255
  8
1
 62
     7
 10
751.29999999999973
 20
0.0
 30
0.0
 40
100.0000000000002
 50
227.29244277595589
 51
252.707557224044
  0
ARC
  5
256
  8
1
 62
     7
 10
751.29999999999973
 20
0.0
 30
0.0
 40
100.0000000000002
 50
197.29244277595589
 51
222.707557224044
  0
ARC
  5
257
  8
1
 62
     7
 10
751.29999999999973
 20
0.0
 30
0.0
 40
100.0000000000002
 50
180.0
 51
192.70755722404411
  0
ARC
  5
258
  8
1
 62
     7
 10
751.29999999999973
 20
0.0
 30
0.0
 40
100.0000000000001
 50
137.292442775956
 51
162.707557224044
  0
ARC
  5
259
  8
1
 62
     7
 10
751.29999999999973
 20
0.0
 30
0.0
 40
99.999999999999872
 50
107.29244277595591
 51
132.70755722404419
  0
ARC
  5
25A
  8
1
 62
     7
 10
751.29999999999973
 20
0.0
 30
0.0
 40
99.999999999999943
 50
77.292442775955863
 51
102.707557224044
  0
ARC
  5
25B
  8
1
 62
     7
 10
819.88935777509471
 20
68.589357775094925
 30
0.0
 40
4.0008508829544986
 50
136.1816913510539
 51
313.81830864894778
  0
ARC
  5
25C
  8
1
 62
     7
 10
844.99480515003938
 20
25.105447374944319
 30
0.0
 40
4.0008508829544747
 50
106.1816913510537
 51
283.81830864894857
  0
ARC
  5
25D
  8
1
 62
     7
 10
857.40026754891721
 20
-29.514319551836252
 30
0.0
 40
20.151650227517958
 50
136.22284461364021
 51
161.99045826760761
  0
ARC
  5
25E
  8
1
 62
     7
 10
844.99480515003938
 20
-25.105447374944792
 30
0.0
 40
4.0008508829544818
 50
76.181691351054269
 51
253.8183086489461
  0
ARC
  5
25F
  8
1
 62
     7
 10
819.88935777509471
 20
-68.589357775095323
 30
0.0
 40
4.0008508829545777
 50
46.181691351052699
 51
223.81830864894729
  0
ARC
  5
260
  8
1
 62
     7
 10
776.40544737494417
 20
-93.694805150039755
 30
0.0
 40
4.000850882954686
 50
16.181691351052951
 51
193.8183086489469
  0
ARC
  5
261
  8
1
 62
     7
 10
721.78568044816336
 20
-106.1002675489175
 30
0.0
 40
20.15165022751804
 50
46.222844613639609
 51
71.99045826760694
  0
ARC
  5
262
  8
1
 62
     7
 10
726.19455262505528
 20
-93.694805150039755
 30
0.0
 40
4.0008508829543716
 50
346.18169135105381
 51
163.8183086489455
  0
ARC
  5
263
  8
1
 62
     7
 10
682.71064222490463
 20
-68.589357775095209
 30
0.0
 40
4.0008508829543343
 50
316.1816913510516
 51
133.81830864894621
  0
ARC
  5
264
  8
1
 62
     7
 10
657.60519484996007
 20
-25.105447374944561
 30
0.0
 40
4.000850882954464
 50
286.18169135105381
 51
103.8183086489458
  0
ARC
  5
265
  8
1
 62
     7
 10
645.19973245108213
 20
29.51431955183601
 30
0.0
 40
20.151650227517958
 50
316.22284461364029
 51
341.99045826760761
  0
ARC
  5
266
  8
1
 62
     7
 10
657.60519484996007
 20
25.10544737494444
 30
0.0
 40
4.0008508829544818
 50
256.18169135105421
 51
73.818308648946584
  0
ARC
  5
267
  8
1
 62
     7
 10
682.71064222490463
 20
68.589357775095152
 30
0.0
 40
4.0008508829546177
 50
226.1816913510533
 51
43.818308648946143
  0
ARC
  5
268
  8
1
 62
     7
 10
726.19455262505528
 20
93.694805150039656
 30
0.0
 40
4.0008508829547011
 50
196.1816913510537
 51
13.818308648944569
  0
ARC
  5
269
  8
1
 62
     7
 10
751.29999999999973
 20
0.0
 30
0.0
 40
100.0000000000002
 50
167.29244277595589
 51
180.0
  0
ARC
  5
26A
  8
1
 62
     7
 10
776.40544737494417
 20
93.694805150039556
 30
0.0
 40
4.0008508829543841
 50
166.18169135105299
 51
343.81830864894778
  0
ARC
  5
26B
  8
1
 62
     7
 10
857.40026754891721
 20
-29.514319551836252
 30
0.0
 40
20.151650227517958
 50
136.22284461364021
 51
161.99045826760761
  0
ARC
  5
26C
  8
1
 62
     7
 10
721.78568044816336
 20
-106.1002675489175
 30
0.0
 40
20.15165022751804
 50
46.222844613639609
 51
71.99045826760694
  0
ARC
  5
26D
  8
1
 62
     7
 10
645.19973245108213
 20
29.51431955183601
 30
0.0
 40
20.151650227517958
 50
316.22284461364029
 51
341.99045826760761
  0
ARC
  5
26E
  8
1
 62
     7
 10
830.29999999999973
 20
-0.0000000000002274
 30
0.0
 40
19.999999999999869
 50
308.8660930271958
 51
0.0
  0
ARC
  5
26F
  8
1
 62
     7
 10
751.2999999999995
 20
-79.000000000000099
 30
0.0
 40
19.999999999999691
 50
218.8660930271962
 51
270.0
  0
ARC
  5
270
  8
1
 62
     7
 10
672.29999999999973
 20
0.0
 30
0.0
 40
19.999999999999869
 50
128.8660930271958
 51
180.0
  0
ARC
  5
271
  8
1
 62
     7
 10
857.40026754891721
 20
29.51431955183601
 30
0.0
 40
20.151650227518171
 50
198.00954173239231
 51
223.77715538635979
  0
ARC
  5
272
  8
1
 62
     7
 10
830.29999999999973
 20
-0.0000000000002274
 30
0.0
 40
20.0
 50
0.0
 51
51.133906972804631
  0
ARC
  5
273
  8
1
 62
     7
 10
780.81431955183598
 20
-106.1002675489177
 30
0.0
 40
20.15165022751804
 50
108.00954173239241
 51
133.77715538636031
  0
ARC
  5
274
  8
1
 62
     7
 10
751.2999999999995
 20
-79.000000000000099
 30
0.0
 40
20.0
 50
270.0
 51
321.13390697280443
  0
ARC
  5
275
  8
1
 62
     7
 10
645.19973245108213
 20
-29.514319551836252
 30
0.0
 40
20.151650227517941
 50
18.00954173239246
 51
43.777155386360029
  0
ARC
  5
276
  8
1
 62
     7
 10
672.29999999999973
 20
0.0
 30
0.0
 40
20.0
 50
180.0
 51
231.13390697280431
  0
ARC
  5
277
  8
1
 62
     7
 10
857.40026754891721
 20
29.51431955183601
 30
0.0
 40
20.151650227518171
 50
198.00954173239231
 51
223.77715538635979
  0
ARC
  5
278
  8
1
 62
     7
 10
780.81431955183598
 20
-106.1002675489177
 30
0.0
 40
20.15165022751804
 50
108.00954173239241
 51
133.77715538636031
  0
ARC
  5
279
  8
1
 62
     7
 10
645.19973245108213
 20
-29.514319551836252
 30
0.0
 40
20.151650227517941
 50
18.00954173239246
 51
43.777155386360029
  0
ARC
  5
27A
  8
1
 62
     7
 10
780.81431955183598
 20
106.1002675489175
 30
0.0
 40
20.151650227518079
 50
226.22284461363981
 51
251.9904582676069
  0
ARC
  5
27B
  8
1
 62
     7
 10
751.29999999999973
 20
78.999999999999929
 30
0.0
 40
19.999999999999869
 50
38.866093027195788
 51
90.0
  0
ARC
  5
27C
  8
1
 62
     7
 10
751.29999999999973
 20
78.999999999999929
 30
0.0
 40
20.0
 50
90.0
 51
141.13390697280411
  0
ARC
  5
27D
  8
1
 62
     7
 10
721.78568044816336
 20
106.1002675489175
 30
0.0
 40
20.151650227518079
 50
288.00954173239302
 51
313.77715538636011
  0
ARC
  5
27E
  8
1
 62
     7
 10
751.29999999999973
 20
140.0
 30
0.0
 40
5.2500000000002256
 50
0.0
 51
180.0
  0
ARC
  5
27F
  8
1
 62
     7
 10
751.29999999999973
 20
140.0
 30
0.0
 40
5.2500000000002256
 50
180.0
 51
0.0
  0
ARC
  5
280
  8
1
 62
     7
 10
762.29999999999939
 20
149.0
 30
0.0
 40
3.0
 50
0.0
 51
90.0
  0
ARC
  5
281
  8
1
 62
     7
 10
740.29999999999973
 20
149.0
 30
0.0
 40
3.0
 50
90.0
 51
180.0
  0
ARC
  5
282
  8
1
 62
     7
 10
533.49999999999989
 20
-85.0
 30
0.0
 40
2.0
 50
90.0
 51
180.0
  0
ARC
  5
283
  8
1
 62
     7
 10
522.19999999999959
 20
-73.75
 30
0.0
 40
2.0
 50
90.0
 51
180.0
  0
ARC
  5
284
  8
1
 62
     7
 10
516.59999999999957
 20
-76.399999999999963
 30
0.0
 40
2.0
 50
270.0
 51
0.0
  0
ARC
  5
285
  8
1
 62
     7
 10
516.19999999999982
 20
-76.0
 30
0.0
 40
3.9999999999999249
 50
274.36355257192582
 51
0.0
  0
ARC
  5
286
  8
1
 62
     7
 10
522.59999999999945
 20
-74.149999999999977
 30
0.0
 40
4.0
 50
90.0
 51
180.0
  0
ARC
  5
287
  8
1
 62
     7
 10
522.43318189521312
 20
73.983181895213534
 30
0.0
 40
3.8368100971871821
 50
182.4919104716279
 51
272.49191047162861
  0
ARC
  5
288
  8
1
 62
     7
 10
516.59999999999957
 20
76.39999999999992
 30
0.0
 40
2.0
 50
0.0
 51
90.0
  0
ARC
  5
289
  8
1
 62
     7
 10
524.49999999999989
 20
-73.0
 30
0.0
 40
2.0
 50
270.0
 51
0.0
  0
ARC
  5
28A
  8
1
 62
     7
 10
522.19999999999982
 20
73.750000000000071
 30
0.0
 40
2.0
 50
180.0
 51
270.0
  0
ARC
  5
28B
  8
1
 62
     7
 10
513.69999999999982
 20
77.299999999999955
 30
0.0
 40
2.0
 50
180.0
 51
270.0
  0
ARC
  5
28C
  8
1
 62
     7
 10
529.79999999999973
 20
97.000000000000057
 30
0.0
 40
2.0
 50
0.0
 51
90.0
  0
ARC
  5
28D
  8
1
 62
     7
 10
533.79999999999973
 20
85.000000000000071
 30
0.0
 40
2.0
 50
180.0
 51
270.0
  0
ARC
  5
28E
  8
1
 62
     7
 10
524.79999999999973
 20
73.000000000000071
 30
0.0
 40
2.0
 50
0.0
 51
90.0
  0
ARC
  5
28F
  8
1
 62
     7
 10
522.79999999999973
 20
79.000000000000071
 30
0.0
 40
2.0
 50
0.0
 51
90.0
  0
ARC
  5
290
  8
1
 62
     7
 10
524.49999999999989
 20
-73.0
 30
0.0
 40
2.0
 50
270.0
 51
0.0
  0
ARC
  5
291
  8
1
 62
     7
 10
339.39999999999981
 20
-97.000000000000057
 30
0.0
 40
2.0
 50
270.0
 51
0.0
  0
ARC
  5
292
  8
1
 62
     7
 10
332.39999999999981
 20
-79.000000000000071
 30
0.0
 40
2.0
 50
270.0
 51
0.0
  0
ARC
  5
293
  8
1
 62
     7
 10
331.80000000000001
 20
73.750000000000028
 30
0.0
 40
2.0000000000000049
 50
255.7353961439255
 51
258.46304096718183
  0
ARC
  5
294
  8
1
 62
     7
 10
325.95796681253057
 20
76.146372226865765
 30
0.0
 40
3.8448203914375778
 50
357.81822371403712
 51
87.818223714038524
  0
ARC
  5
295
  8
1
 62
     7
 10
331.80000000000001
 20
73.750000000000028
 30
0.0
 40
2.0000000000000022
 50
258.46304096718183
 51
270.0
  0
ARC
  5
296
  8
1
 62
     7
 10
339.39999999999981
 20
97.000000000000043
 30
0.0
 40
2.0
 50
0.0
 51
90.0
  0
ARC
  5
297
  8
1
 62
     7
 10
332.39999999999981
 20
79.000000000000028
 30
0.0
 40
2.0
 50
0.0
 51
90.0
  0
ARC
  5
298
  8
1
 62
     7
 10
256.89999999999998
 20
74.999999999999915
 30
0.0
 40
14.00000000000003
 50
163.92714083117741
 51
196.07285916882211
  0
ARC
  5
299
  8
1
 62
     7
 10
49.100000000000144
 20
78.099999999999966
 30
0.0
 40
2.63499999999999
 50
180.0
 51
270.0
  0
ARC
  5
29A
  8
1
 62
     7
 10
42.900000000000091
 20
78.099999999999966
 30
0.0
 40
2.63499999999999
 50
270.0
 51
0.0
  0
ARC
  5
29B
  8
1
 62
     7
 10
42.900000000000091
 20
71.899999999999963
 30
0.0
 40
2.63499999999999
 50
0.0
 51
90.0
  0
ARC
  5
29C
  8
1
 62
     7
 10
49.100000000000144
 20
71.899999999999963
 30
0.0
 40
2.63499999999999
 50
90.0
 51
180.0
  0
ARC
  5
29D
  8
1
 62
     7
 10
-25.89999999999986
 20
3.099999999999993
 30
0.0
 40
2.63499999999999
 50
180.0
 51
270.0
  0
ARC
  5
29E
  8
1
 62
     7
 10
-25.89999999999986
 20
-3.100000000000108
 30
0.0
 40
2.635000000000018
 50
90.0
 51
180.0
  0
ARC
  5
29F
  8
1
 62
     7
 10
-32.099999999999909
 20
-3.100000000000108
 30
0.0
 40
2.634999999999986
 50
0.0
 51
90.0
  0
ARC
  5
2A0
  8
1
 62
     7
 10
-32.099999999999909
 20
3.099999999999993
 30
0.0
 40
2.63499999999999
 50
270.0
 51
0.0
  0
ARC
  5
2A1
  8
1
 62
     7
 10
42.900000000000091
 20
-71.90000000000002
 30
0.0
 40
2.63499999999999
 50
270.0
 51
0.0
  0
ARC
  5
2A2
  8
1
 62
     7
 10
49.100000000000144
 20
-71.90000000000002
 30
0.0
 40
2.63499999999999
 50
180.0
 51
270.0
  0
ARC
  5
2A3
  8
1
 62
     7
 10
49.100000000000144
 20
-78.09999999999998
 30
0.0
 40
2.63499999999999
 50
90.0
 51
180.0
  0
ARC
  5
2A4
  8
1
 62
     7
 10
42.900000000000091
 20
-78.09999999999998
 30
0.0
 40
2.63499999999999
 50
0.0
 51
90.0
  0
ARC
  5
2A5
  8
1
 62
     7
 10
117.90000000000001
 20
-3.100000000000108
 30
0.0
 40
2.63499999999999
 50
0.0
 51
90.0
  0
ARC
  5
2A6
  8
1
 62
     7
 10
117.90000000000001
 20
3.099999999999993
 30
0.0
 40
2.63499999999999
 50
270.0
 51
0.0
  0
ARC
  5
2A7
  8
1
 62
     7
 10
124.09999999999999
 20
3.099999999999993
 30
0.0
 40
2.634999999999891
 50
180.0
 51
270.0
  0
ARC
  5
2A8
  8
1
 62
     7
 10
124.09999999999999
 20
-3.100000000000108
 30
0.0
 40
2.635000000000018
 50
90.0
 51
180.0
  0
ARC
  5
2A9
  8
1
 62
     7
 10
46.0
 20
1.9250000000000109
 30
0.0
 40
41.075000000000067
 50
287.71734016861802
 51
252.28265983138189
  0
ARC
  5
2AA
  8
1
 62
     7
 10
447.29999999999978
 20
74.999999999999972
 30
0.0
 40
13.999999999999931
 50
163.92714083117741
 51
196.0728591688225
  0
ARC
  5
2AB
  8
1
 62
     7
 10
447.29999999999978
 20
-75.0
 30
0.0
 40
13.999999999999931
 50
163.92714083117741
 51
196.0728591688225
  0
ARC
  5
2AC
  8
1
 62
     7
 10
256.89999999999992
 20
-75.0
 30
0.0
 40
13.999999999999901
 50
163.92714083117761
 51
196.0728591688225
  0
ARC
  5
2AD
  8
1
  6
DASHDOT
 62
     3
 10
751.29999999999973
 20
0.0
 30
0.0
 40
55.00000000000005
 50
172.68797807373309
 51
180.0
  0
ARC
  5
2AE
  8
1
  6
DASHDOT
 62
     3
 10
751.29999999999973
 20
0.0
 30
0.0
 40
55.00000000000005
 50
352.68797807373312
 51
7.3120219262669179
  0
ARC
  5
2AF
  8
1
  6
DASHDOT
 62
     3
 10
751.29999999999973
 20
0.0
 30
0.0
 40
55.0
 50
307.68797807373301
 51
322.31202192626699
  0
ARC
  5
2B0
  8
1
  6
DASHDOT
 62
     3
 10
751.29999999999973
 20
0.0
 30
0.0
 40
55.0
 50
262.68797807373312
 51
277.31202192626682
  0
ARC
  5
2B1
  8
1
  6
DASHDOT
 62
     3
 10
751.29999999999973
 20
0.0
 30
0.0
 40
55.0
 50
217.68797807373289
 51
232.31202192626699
  0
ARC
  5
2B2
  8
1
 62
     3
 10
751.29999999999973
 20
0.0
 30
0.0
 40
55.0
 50
180.0
 51
187.31202192626679
  0
ARC
  5
2B3
  8
1
 62
     3
 10
751.29999999999973
 20
0.0
 30
0.0
 40
55.0
 50
127.68797807373291
 51
142.31202192626699
  0
ARC
  5
2B4
  8
1
  6
DASHDOT
 62
     3
 10
751.29999999999973
 20
0.0
 30
0.0
 40
55.0
 50
82.687978073733078
 51
97.312021926266937
  0
ARC
  5
2B5
  8
1
  6
DASHDOT
 62
     3
 10
751.29999999999973
 20
0.0
 30
0.0
 40
55.0
 50
37.687978073732999
 51
52.312021926266958
  0
ARC
  5
2B6
  8
1
 62
     7
 10
751.29999999999973
 20
0.0
 30
0.0
 40
100.0
 50
47.29244277595577
 51
72.707557224044109
  0
ARC
  5
2B7
  8
1
 62
     7
 10
508.36765725007211
 20
-126.2632243749225
 30
0.0
 40
3.3796049916377342
 50
9.5933267641838444
 51
84.356541257581156
  0
ARC
  5
2B8
  8
1
 62
     7
 10
508.36765725007211
 20
-76.736775625077513
 30
0.0
 40
3.3796049916377502
 50
275.64345874241877
 51
350.40667323581903
  0
CIRCLE
  5
2B9
  8
1
 62
     7
 10
751.29999999999973
 20
0.0
 30
0.0
 40
129.99999999999989
  0
CIRCLE
  5
2BA
  8
1
 62
     7
 10
46.0
 20
0.0
 30
0.0
 40
37.500000000000028
  0
CIRCLE
  5
2BB
  8
1
 62
     7
 10
31.0
 20
103.0
 30
0.0
 40
5.0
  0
CIRCLE
  5
2BC
  8
1
 62
     7
 10
61.0
 20
103.0
 30
0.0
 40
5.0
  0
CIRCLE
  5
2BD
  8
1
 62
     7
 10
46.0
 20
140.0
 30
0.0
 40
5.25
  0
CIRCLE
  5
2BE
  8
1
 62
     7
 10
806.29999999999973
 20
0.0
 30
0.0
 40
5.25
  0
CIRCLE
  5
2BF
  8
1
 62
     7
 10
751.29999999999973
 20
0.0
 30
0.0
 40
127.7000000000001
  0
CIRCLE
  5
2C0
  8
1
 62
     7
 10
841.29999999999961
 20
-0.0000000000002274
 30
0.0
 40
5.0
  0
CIRCLE
  5
2C1
  8
1
 62
     7
 10
751.2999999999995
 20
-90.0
 30
0.0
 40
5.0
  0
CIRCLE
  5
2C2
  8
1
 62
     7
 10
661.29999999999973
 20
0.0
 30
0.0
 40
5.0
  0
CIRCLE
  5
2C3
  8
1
 62
     7
 10
841.29999999999961
 20
-0.0000000000002274
 30
0.0
 40
4.0
  0
CIRCLE
  5
2C4
  8
1
 62
     7
 10
751.2999999999995
 20
-90.0
 30
0.0
 40
4.0
  0
CIRCLE
  5
2C5
  8
1
 62
     7
 10
661.29999999999973
 20
0.0
 30
0.0
 40
4.0
  0
CIRCLE
  5
2C6
  8
1
 62
     7
 10
841.29999999999961
 20
-0.0000000000002274
 30
0.0
 40
4.0
  0
CIRCLE
  5
2C7
  8
1
 62
     7
 10
751.2999999999995
 20
-90.0
 30
0.0
 40
4.0
  0
CIRCLE
  5
2C8
  8
1
 62
     7
 10
661.29999999999973
 20
0.0
 30
0.0
 40
4.0
  0
CIRCLE
  5
2C9
  8
1
 62
     7
 10
751.29999999999973
 20
89.999999999999943
 30
0.0
 40
4.0
  0
CIRCLE
  5
2CA
  8
1
 62
     7
 10
751.29999999999973
 20
89.999999999999943
 30
0.0
 40
5.0
  0
CIRCLE
  5
2CB
  8
1
 62
     7
 10
751.29999999999973
 20
0.0
 30
0.0
 40
83.0
  0
CIRCLE
  5
2CC
  8
1
 62
     7
 10
790.1908729652597
 20
-38.890872965260208
 30
0.0
 40
4.0
  0
CIRCLE
  5
2CD
  8
1
 62
     7
 10
712.40912703473964
 20
-38.890872965260087
 30
0.0
 40
4.0
  0
CIRCLE
  5
2CE
  8
1
 62
     7
 10
712.40912703473964
 20
38.890872965260087
 30
0.0
 40
4.0
  0
CIRCLE
  5
2CF
  8
1
 62
     3
 10
790.1908729652597
 20
-38.890872965260208
 30
0.0
 40
5.0
  0
CIRCLE
  5
2D0
  8
1
 62
     3
 10
712.40912703473964
 20
-38.890872965260087
 30
0.0
 40
5.0
  0
CIRCLE
  5
2D1
  8
1
 62
     3
 10
712.40912703473964
 20
38.890872965260087
 30
0.0
 40
5.0
  0
CIRCLE
  5
2D2
  8
1
 62
     7
 10
751.29999999999973
 20
-55.0
 30
0.0
 40
5.25
  0
CIRCLE
  5
2D3
  8
1
 62
     7
 10
696.29999999999973
 20
0.0000000000000067
 30
0.0
 40
5.2500000000001128
  0
CIRCLE
  5
2D4
  8
1
 62
     7
 10
790.1908729652597
 20
38.890872965260087
 30
0.0
 40
4.0
  0
CIRCLE
  5
2D5
  8
1
 62
     3
 10
790.1908729652597
 20
38.890872965260087
 30
0.0
 40
5.0
  0
CIRCLE
  5
2D6
  8
1
 62
     7
 10
751.29999999999973
 20
55.0
 30
0.0
 40
5.25
  0
CIRCLE
  5
2D7
  8
1
 62
     3
 10
751.29999999999973
 20
0.8166906474818915
 30
0.0
 40
64.5
  0
CIRCLE
  5
2D8
  8
1
  6
DASHDOT
 62
     3
 10
751.29999999999973
 20
0.0
 30
0.0
 40
67.5
  0
CIRCLE
  5
2D9
  8
1
 62
     7
 10
751.29999999999973
 20
0.0
 30
0.0
 40
70.150000000000091
  0
CIRCLE
  5
2DA
  8
1
 62
     7
 10
751.29999999999973
 20
0.0
 30
0.0
 40
45.0
  0
CIRCLE
  5
2DB
  8
1
 62
     7
 10
751.29999999999973
 20
0.0
 30
0.0
 40
40.0
  0
CIRCLE
  5
2DC
  8
1
 62
     7
 10
751.29999999999973
 20
0.0
 30
0.0
 40
30.0
  0
CIRCLE
  5
2DD
  8
1
 62
     7
 10
751.29999999999973
 20
0.0
 30
0.0
 40
25.0
  0
CIRCLE
  5
2DE
  8
1
 62
     7
 10
46.0
 20
0.0
 30
0.0
 40
57.5
  0
CIRCLE
  5
2DF
  8
1
 62
     7
 10
46.0
 20
74.999999999999972
 30
0.0
 40
5.25
  0
CIRCLE
  5
2E0
  8
1
 62
     7
 10
-29.0
 20
0.0
 30
0.0
 40
5.2500000000000817
  0
CIRCLE
  5
2E1
  8
1
 62
     7
 10
46.0
 20
-75.0
 30
0.0
 40
5.25
  0
CIRCLE
  5
2E2
  8
1
 62
     7
 10
121.0
 20
0.0
 30
0.0
 40
5.25
  0
CIRCLE
  5
2E3
  8
1
 62
     7
 10
56.0
 20
-39.942346141747691
 30
0.0
 40
1.25
  0
CIRCLE
  5
2E4
  8
1
 62
     7
 10
36.0
 20
-39.942346141747691
 30
0.0
 40
1.25
  0
CIRCLE
  5
2E5
  8
1
 62
     7
 10
452.89999999999992
 20
51.25
 30
0.0
 40
8.25
  0
CIRCLE
  5
2E6
  8
1
 62
     7
 10
452.89999999999992
 20
-51.25
 30
0.0
 40
8.25
  0
CIRCLE
  5
2E7
  8
1
 62
     7
 10
46.0
 20
0.0
 30
0.0
 40
82.499999999999915
  0
ARC
  5
2E8
  8
1
 62
     7
 10
334.39999999999981
 20
-73.000000000000071
 30
0.0
 40
2.0
 50
270.0
 51
0.0
  0
ARC
  5
2E9
  8
1
 62
     7
 10
334.39999999999981
 20
-10.999999999999989
 30
0.0
 40
2.0
 50
0.0
 51
90.0
  0
ARC
  5
2EA
  8
1
 62
     7
 10
334.39999999999981
 20
11.0
 30
0.0
 40
2.000000000000004
 50
270.0
 51
0.0
  0
ARC
  5
2EB
  8
1
 62
     7
 10
334.39999999999981
 20
73.000000000000028
 30
0.0
 40
2.0
 50
0.0
 51
90.0
  0
ARC
  5
2EC
  8
1
 62
     7
 10
323.30000000000001
 20
125.6999999999999
 30
0.0
 40
4.2999999999999821
 50
90.0
 51
174.6838059052323
  0
ARC
  5
2ED
  8
1
 62
     7
 10
318.30000000000001
 20
121.89999999999991
 30
0.0
 40
3.2999999999999821
 50
93.696173115499704
 51
180.0
  0
ARC
  5
2EE
  8
1
 62
     7
 10
318.02279768094621
 20
126.1910556829655
 30
0.0
 40
1.0000000000000291
 50
273.69617311549842
 51
354.68380590523111
  0
ARC
  5
2EF
  8
1
 62
     7
 10
323.30000000000001
 20
-125.6999999999999
 30
0.0
 40
4.300000000000022
 50
185.3161940947677
 51
270.0
  0
ARC
  5
2F0
  8
1
 62
     7
 10
318.30000000000013
 20
-121.89999999999991
 30
0.0
 40
3.3000000000000109
 50
180.0
 51
266.30382688449828
  0
ARC
  5
2F1
  8
1
 62
     7
 10
318.02279768094621
 20
-126.1910556829655
 30
0.0
 40
0.9999999999999406
 50
5.3161940947688864
 51
86.30382688450149
  0
ARC
  5
2F2
  8
1
 62
     7
 10
513.69999999999982
 20
125.6999999999999
 30
0.0
 40
2.0
 50
90.0
 51
180.0
  0
ARC
  5
2F3
  8
1
 62
     7
 10
513.69999999999982
 20
125.6999999999999
 30
0.0
 40
4.2999999999999821
 50
90.0
 51
174.6838059052323
  0
ARC
  5
2F4
  8
1
 62
     7
 10
508.69999999999982
 20
121.89999999999991
 30
0.0
 40
3.299999999999979
 50
93.696173115498752
 51
180.0
  0
ARC
  5
2F5
  8
1
 62
     7
 10
508.42279768094591
 20
126.1910556829655
 30
0.0
 40
1.0000000000000351
 50
273.69617311550491
 51
354.68380590523071
  0
ARC
  5
2F6
  8
1
 62
     7
 10
513.69999999999982
 20
77.299999999999955
 30
0.0
 40
4.3000000000000691
 50
185.3161940947663
 51
270.0
  0
ARC
  5
2F7
  8
1
 62
     7
 10
508.69999999999982
 20
81.100000000000037
 30
0.0
 40
3.299999999999955
 50
180.0
 51
266.3038268844993
  0
ARC
  5
2F8
  8
1
 62
     7
 10
508.42279768094591
 20
76.808944317034502
 30
0.0
 40
0.99999999999988
 50
5.3161940947667548
 51
86.303826884501305
  0
ARC
  5
2F9
  8
1
 62
     7
 10
513.69999999999982
 20
-125.7
 30
0.0
 40
4.2999999999999563
 50
185.3161940947665
 51
270.0
  0
ARC
  5
2FA
  8
1
 62
     7
 10
508.69999999999982
 20
-121.89999999999991
 30
0.0
 40
3.299999999999955
 50
180.0
 51
266.30382688450112
  0
ARC
  5
2FB
  8
1
 62
     7
 10
508.42279768094608
 20
-126.1910556829654
 30
0.0
 40
1.0000000000000451
 50
5.3161940947626087
 51
86.303826884497894
  0
ARC
  5
2FC
  8
1
 62
     7
 10
513.69999999999982
 20
-125.7
 30
0.0
 40
2.0000000000001141
 50
180.0
 51
270.0
  0
ARC
  5
2FD
  8
1
 62
     7
 10
508.69999999999982
 20
-121.89999999999991
 30
0.0
 40
1.0000000000000571
 50
180.0
 51
270.0
  0
ARC
  5
2FE
  8
1
 62
     7
 10
513.69999999999982
 20
-77.299999999999997
 30
0.0
 40
4.2999999999999972
 50
90.0
 51
174.68380590523361
  0
ARC
  5
2FF
  8
1
 62
     7
 10
508.69999999999982
 20
-81.100000000000094
 30
0.0
 40
3.2999999999999932
 50
93.696173115498709
 51
180.0
  0
ARC
  5
300
  8
1
 62
     7
 10
508.42279768094608
 20
-76.808944317034559
 30
0.0
 40
0.9999999999999618
 50
273.69617311550201
 51
354.68380590523412
  0
ARC
  5
301
  8
1
 62
     7
 10
513.69999999999982
 20
-77.299999999999997
 30
0.0
 40
1.9999999999999001
 50
90.0
 51
180.0
  0
ARC
  5
302
  8
1
 62
     7
 10
508.69999999999982
 20
-81.100000000000094
 30
0.0
 40
1.0
 50
90.0
 51
180.0
  0
TEXT
  5
304
  8
1
 62
     7
 10
-58.460441833645682
 20
220.14026549148991
 30
0.0
 40
12.0
  1
MSC 40T
 41
0.9
  7
SIMPLEX
 72
     1
 11
-22.974727547931391
 21
220.14026549148991
 31
0.0
  0
ENDSEC
  0
EOF
