  0
SECTION
  2
HEADER
  9
$ACADVER
  1
AC1009
  9
$INSBASE
 10
0.0
 20
0.0
 30
0.0
  9
$EXTMIN
 10
-1452.0923240866409
 20
-700.25044164743736
 30
0.0
  9
$EXTMAX
 10
-935.09600779642915
 20
-485.74814455493782
 30
0.0
  9
$LIMMIN
 10
-1453.46375265807
 20
-699.77262939431614
  9
$LIMMAX
 10
-935.52102612486522
 20
-485.74814455493782
  9
$ORTHOMODE
 70
     0
  9
$REGENMODE
 70
     1
  9
$FILLMODE
 70
     1
  9
$QTEXTMODE
 70
     0
  9
$MIRRTEXT
 70
     1
  9
$DRAGMODE
 70
     2
  9
$LTSCALE
 40
1.0
  9
$OSMODE
 70
    37
  9
$ATTMODE
 70
     1
  9
$TEXTSIZE
 40
3.5
  9
$TRACEWID
 40
0.5
  9
$TEXTSTYLE
  7
STANDARD
  9
$CLAYER
  8
0
  9
$CELTYPE
  6
BYLAYER
  9
$CECOLOR
 62
   256
  9
$DIMSCALE
 40
1.0
  9
$DIMASZ
 40
0.18
  9
$DIMEXO
 40
0.0625
  9
$DIMDLI
 40
0.38
  9
$DIMRND
 40
0.0
  9
$DIMDLE
 40
0.0
  9
$DIMEXE
 40
0.18
  9
$DIMTP
 40
0.0
  9
$DIMTM
 40
0.0
  9
$DIMTXT
 40
0.18
  9
$DIMCEN
 40
0.09
  9
$DIMTSZ
 40
0.0
  9
$DIMTOL
 70
     0
  9
$DIMLIM
 70
     0
  9
$DIMTIH
 70
     1
  9
$DIMTOH
 70
     1
  9
$DIMSE1
 70
     0
  9
$DIMSE2
 70
     0
  9
$DIMTAD
 70
     0
  9
$DIMZIN
 70
     0
  9
$DIMBLK
  1

  9
$DIMASO
 70
     1
  9
$DIMSHO
 70
     1
  9
$DIMPOST
  1

  9
$DIMAPOST
  1

  9
$DIMALT
 70
     0
  9
$DIMALTD
 70
     2
  9
$DIMALTF
 40
25.399999999999999
  9
$DIMLFAC
 40
1.0
  9
$DIMTOFL
 70
     0
  9
$DIMTVP
 40
0.0
  9
$DIMTIX
 70
     0
  9
$DIMSOXD
 70
     0
  9
$DIMSAH
 70
     0
  9
$DIMBLK1
  1

  9
$DIMBLK2
  1

  9
$DIMSTYLE
  2
STANDARD
  9
$DIMCLRD
 70
     0
  9
$DIMCLRE
 70
     0
  9
$DIMCLRT
 70
     0
  9
$DIMTFAC
 40
1.0
  9
$DIMGAP
 40
0.09
  9
$LUNITS
 70
     2
  9
$LUPREC
 70
     4
  9
$SKETCHINC
 40
0.1
  9
$FILLETRAD
 40
2.0
  9
$AUNITS
 70
     0
  9
$AUPREC
 70
     0
  9
$MENU
  1
ACAD
  9
$ELEVATION
 40
0.0
  9
$PELEVATION
 40
0.0
  9
$THICKNESS
 40
0.0
  9
$LIMCHECK
 70
     0
  9
$BLIPMODE
 70
     0
  9
$CHAMFERA
 40
0.0
  9
$CHAMFERB
 40
0.0
  9
$SKPOLY
 70
     0
  9
$TDCREATE
 40
2452094.5425601848
  9
$TDUPDATE
 40
2452094.5438596061
  9
$TDINDWG
 40
0.0013050926
  9
$TDUSRTIMER
 40
0.0013050926
  9
$USRTIMER
 70
     1
  9
$ANGBASE
 50
0.0
  9
$ANGDIR
 70
     0
  9
$PDMODE
 70
     0
  9
$PDSIZE
 40
0.0
  9
$PLINEWID
 40
0.0
  9
$COORDS
 70
     1
  9
$SPLFRAME
 70
     0
  9
$SPLINETYPE
 70
     6
  9
$SPLINESEGS
 70
     8
  9
$ATTDIA
 70
     0
  9
$ATTREQ
 70
     1
  9
$HANDLING
 70
 10241
  9
$HANDSEED
  5
262
  9
$SURFTAB1
 70
     6
  9
$SURFTAB2
 70
     6
  9
$SURFTYPE
 70
     6
  9
$SURFU
 70
     6
  9
$SURFV
 70
     6
  9
$UCSNAME
  2

  9
$UCSORG
 10
0.0
 20
0.0
 30
0.0
  9
$UCSXDIR
 10
1.0
 20
0.0
 30
0.0
  9
$UCSYDIR
 10
0.0
 20
1.0
 30
0.0
  9
$PUCSNAME
  2

  9
$PUCSORG
 10
0.0
 20
0.0
 30
0.0
  9
$PUCSXDIR
 10
1.0
 20
0.0
 30
0.0
  9
$PUCSYDIR
 10
0.0
 20
1.0
 30
0.0
  9
$USERI1
 70
     0
  9
$USERI2
 70
     0
  9
$USERI3
 70
     0
  9
$USERI4
 70
     0
  9
$USERI5
 70
     0
  9
$USERR1
 40
0.0
  9
$USERR2
 40
0.0
  9
$USERR3
 40
0.0
  9
$USERR4
 40
0.0
  9
$USERR5
 40
0.0
  9
$WORLDVIEW
 70
     1
  9
$SHADEDGE
 70
     3
  9
$SHADEDIF
 70
    70
  9
$TILEMODE
 70
     1
  9
$MAXACTVP
 70
    64
  9
$PLIMCHECK
 70
     0
  9
$PEXTMIN
 10
1.0000000000000000E+020
 20
1.0000000000000000E+020
 30
1.0000000000000000E+020
  9
$PEXTMAX
 10
-1.0000000000000000E+020
 20
-1.0000000000000000E+020
 30
-1.0000000000000000E+020
  9
$PLIMMIN
 10
0.0
 20
0.0
  9
$PLIMMAX
 10
12.0
 20
9.0
  9
$UNITMODE
 70
     0
  9
$VISRETAIN
 70
     1
  9
$PLINEGEN
 70
     0
  9
$PSLTSCALE
 70
     1
  0
ENDSEC
  0
SECTION
  2
TABLES
  0
TABLE
  2
VPORT
 70
     2
  0
VPORT
  2
*ACTIVE
 70
     0
 10
0.0
 20
0.0
 11
1.0
 21
1.0
 12
-1423.5820642526101
 22
-503.22087473666448
 13
0.0
 23
0.0
 14
1.0
 24
1.0
 15
0.0
 25
0.0
 16
0.0
 26
0.0
 36
1.0
 17
0.0
 27
0.0
 37
0.0
 40
8.9999990274769885
 41
2.5693779904306222
 42
50.0
 43
0.0
 44
0.0
 50
0.0
 51
0.0
 71
     0
 72
   100
 73
     1
 74
     1
 75
     0
 76
     0
 77
     0
 78
     0
  0
ENDTAB
  0
TABLE
  2
LTYPE
 70
     9
  0
LTYPE
  2
CONTINUOUS
 70
     0
  3
Solid line
 72
    65
 73
     0
 40
0.0
  0
LTYPE
  2
BORDER
 70
     0
  3
__ __ . __ __ .
 72
    65
 73
     6
 40
23.852625564029172
 49
6.815035875436906
 49
-3.407517937718453
 49
6.815035875436906
 49
-3.407517937718453
 49
0.0
 49
-3.407517937718453
  0
LTYPE
  2
CENTER
 70
     0
  3
____ _ ____ _
 72
    65
 73
     4
 40
27.260143501747621
 49
17.037589688592259
 49
-3.407517937718453
 49
3.407517937718453
 49
-3.407517937718453
  0
LTYPE
  2
DASHDOT
 70
     0
  3
__ . __ . __ .
 72
    65
 73
     4
 40
13.63007175087381
 49
6.815035875436906
 49
-3.407517937718453
 49
0.0
 49
-3.407517937718453
  0
LTYPE
  2
DASHED
 70
     0
  3
__ __ __ __ __
 72
    65
 73
     2
 40
10.222553813155351
 49
6.815035875436906
 49
-3.407517937718453
  0
LTYPE
  2
DIVIDE
 70
     0
  3
__ . . __ . . 
 72
    65
 73
     6
 40
17.037589688592259
 49
6.815035875436906
 49
-3.407517937718453
 49
0.0
 49
-3.407517937718453
 49
0.0
 49
-3.407517937718453
  0
LTYPE
  2
DOT
 70
     0
  3
..............
 72
    65
 73
     4
 40
6.815035875436906
 49
0.0
 49
-3.407517937718453
 49
0.0
 49
-3.407517937718453
  0
LTYPE
  2
HIDDEN
 70
     0
  3
_ _ _ _ _ _ _
 72
    65
 73
     2
 40
5.111276906577678
 49
3.407517937718453
 49
-1.703758968859225
  0
LTYPE
  2
PHANTOM
 70
     0
  3
_____ _ _ _____ _ _ 
 72
    65
 73
     6
 40
34.075179377184533
 49
17.037589688592259
 49
-3.407517937718453
 49
3.407517937718453
 49
-3.407517937718453
 49
3.407517937718453
 49
-3.407517937718453
  0
ENDTAB
  0
TABLE
  2
LAYER
 70
     2
  0
LAYER
  2
0
 70
     0
 62
     7
  6
CONTINUOUS
  0
LAYER
  2
1
 70
     0
 62
     7
  6
CONTINUOUS
  0
ENDTAB
  0
TABLE
  2
STYLE
 70
     4
  0
STYLE
  2
STANDARD
 70
     0
 40
0.0
 41
1.0
 50
0.0
 71
     0
 42
3.5
  3
txt
  4

  0
STYLE
  2
SIMPLEX
 70
     0
 40
0.0
 41
1.0
 50
0.0
 71
     0
 42
3.5
  3
simplex
  4

  0
STYLE
  2
COMPLEX
 70
     0
 40
0.0
 41
1.0
 50
0.0
 71
     0
 42
3.5
  3
complex
  4

  0
STYLE
  2
ITALIC
 70
     0
 40
0.0
 41
1.0
 50
0.0
 71
     0
 42
3.5
  3
italic
  4

  0
ENDTAB
  0
TABLE
  2
VIEW
 70
     0
  0
ENDTAB
  0
TABLE
  2
UCS
 70
     0
  0
ENDTAB
  0
TABLE
  2
APPID
 70
     1
  0
APPID
  2
ACAD
 70
     0
  0
ENDTAB
  0
TABLE
  2
DIMSTYLE
 70
     1
  0
DIMSTYLE
  2
STANDARD
 70
     0
  3

  4

  5

  6

  7

 40
1.0
 41
0.18
 42
0.0625
 43
0.38
 44
0.18
 45
0.0
 46
0.0
 47
0.0
 48
0.0
140
0.18
141
0.09
142
0.0
143
25.399999999999999
144
1.0
145
0.0
146
1.0
147
0.09
 71
     0
 72
     0
 73
     1
 74
     1
 75
     0
 76
     0
 77
     0
 78
     0
170
     0
171
     2
172
     0
173
     0
174
     0
175
     0
176
     0
177
     0
178
     0
  0
ENDTAB
  0
ENDSEC
  0
SECTION
  2
BLOCKS
  0
BLOCK
  8
0
  2
$MODEL_SPACE
 70
     0
 10
0.0
 20
0.0
 30
0.0
  3
$MODEL_SPACE
  1

  0
ENDBLK
  5
20
  8
0
  0
BLOCK
 67
     1
  8
0
  2
$PAPER_SPACE
 70
     0
 10
0.0
 20
0.0
 30
0.0
  3
$PAPER_SPACE
  1

  0
ENDBLK
  5
1C
 67
     1
  8
0
  0
ENDSEC
  0
SECTION
  2
ENTITIES
  0
POINT
  5
33
  8
1
  6
DOT
 62
     7
 10
-962.3875124724857
 20
-586.63911574193639
 30
0.0
  0
LINE
  5
34
  8
1
 62
     7
 10
-1231.11205751793
 20
-559.77262939431603
 30
0.0
 11
-1231.11205751793
 21
-699.77262939431591
 31
0.0
  0
LINE
  5
35
  8
1
 62
     7
 10
-1229.11205751793
 20
-562.09705706528189
 30
0.0
 11
-1229.11205751793
 21
-697.44820172334994
 31
0.0
  0
LINE
  5
36
  8
1
 62
     7
 10
-1225.7120575179299
 20
-699.77262939431591
 30
0.0
 11
-1226.5120575179301
 21
-699.77262939431591
 31
0.0
  0
LINE
  5
37
  8
1
 62
     7
 10
-1125.297357485812
 20
-677.27262939431591
 30
0.0
 11
-1125.297357485812
 21
-695.2726293943158
 31
0.0
  0
LINE
  5
38
  8
1
 62
     7
 10
-1125.297357485812
 20
-695.2726293943158
 30
0.0
 11
-1124.6393632807781
 21
-695.2726293943158
 31
0.0
  0
LINE
  5
39
  8
1
 62
     7
 10
-1126.8973574858121
 20
-693.87262939431594
 30
0.0
 11
-1126.8973574858121
 21
-699.77262939431569
 31
0.0
  0
LINE
  5
3A
  8
1
 62
     7
 10
-1123.297357485812
 20
-697.17262939431578
 30
0.0
 11
-1123.297357485812
 21
-675.37262939431571
 31
0.0
  0
LINE
  5
3B
  8
1
 62
     7
 10
-1121.4973574858141
 20
-698.17262939431566
 30
0.0
 11
-1122.297357485812
 21
-698.17262939431566
 31
0.0
  0
LINE
  5
3C
  8
1
 62
     7
 10
-1123.297357485812
 20
-695.0
 30
0.0
 11
-1121.497357485812
 21
-695.0
 31
0.0
  0
LINE
  5
3D
  8
1
 62
     7
 10
-1123.297357485812
 20
-689.27262939431591
 30
0.0
 11
-1121.497357485812
 21
-689.27262939431591
 31
0.0
  0
LINE
  5
3E
  8
1
 62
     7
 10
-1123.297357485812
 20
-683.27262939431591
 30
0.0
 11
-1121.497357485812
 21
-683.27262939431591
 31
0.0
  0
LINE
  5
3F
  8
1
 62
     7
 10
-1125.297357485812
 20
-677.27262939431591
 30
0.0
 11
-1125.197357485813
 21
-677.27262939431591
 31
0.0
  0
LINE
  5
40
  8
1
 62
     7
 10
-1123.297357485812
 20
-677.27262939431591
 30
0.0
 11
-1121.497357485812
 21
-677.27262939431591
 31
0.0
  0
LINE
  5
41
  8
1
 62
     7
 10
-1126.8973574858121
 20
-588.97262939431585
 30
0.0
 11
-1126.8973574858121
 21
-579.96281582303732
 31
0.0
  0
LINE
  5
42
  8
1
 62
     7
 10
-1122.297357485812
 20
-586.7726293943158
 30
0.0
 11
-1121.497357485812
 21
-586.7726293943158
 31
0.0
  0
LINE
  5
43
  8
1
 62
     7
 10
-1124.8973574858121
 20
-562.09705706528189
 30
0.0
 11
-1124.8973574858121
 21
-584.44820172334983
 31
0.0
  0
LINE
  5
44
  8
1
 62
     7
 10
-1123.297357485812
 20
-583.74014571133603
 30
0.0
 11
-1121.497357485812
 21
-583.74014571133603
 31
0.0
  0
LINE
  5
45
  8
1
 62
     7
 10
-1126.8973574858121
 20
-559.77262939431591
 30
0.0
 11
-1126.8973574858121
 21
-569.58244296559428
 31
0.0
  0
LINE
  5
46
  8
1
 62
     7
 10
-1121.497357485812
 20
-559.77262939431591
 30
0.0
 11
-1122.297357485812
 21
-559.77262939431591
 31
0.0
  0
LINE
  5
47
  8
1
 62
     7
 10
-1122.297357485812
 20
-561.37262939431582
 30
0.0
 11
-1121.497357485812
 21
-561.37262939431582
 31
0.0
  0
LINE
  5
48
  8
1
 62
     7
 10
-1220.9738756997481
 20
-580.77262939431603
 30
0.0
 11
-1220.86205751793
 21
-580.77262939431603
 31
0.0
  0
LINE
  5
49
  8
1
 62
     7
 10
-1132.4973574858129
 20
-648.77262939431614
 30
0.0
 11
-1132.4973574858129
 21
-699.77262939431569
 31
0.0
  0
LINE
  5
4A
  8
1
 62
     7
 10
-1125.497357485812
 20
-648.77262939431614
 30
0.0
 11
-1125.497357485812
 21
-668.8726293943156
 31
0.0
  0
LINE
  5
4B
  8
1
 62
     7
 10
-1134.497357485812
 20
-610.77262939431591
 30
0.0
 11
-1134.497357485812
 21
-584.77262939431591
 31
0.0
  0
LINE
  5
4C
  8
1
 62
     7
 10
-1132.197357485813
 20
-610.77262939431591
 30
0.0
 11
-1132.197357485813
 21
-559.77262939431591
 31
0.0
  0
LINE
  5
4D
  8
1
 62
     7
 10
-1125.497357485812
 20
-610.77262939431591
 30
0.0
 11
-1125.497357485812
 21
-590.67262939431578
 31
0.0
  0
LINE
  5
4E
  8
1
  6
DASHDOT
 62
     3
 10
-1381.988026671625
 20
-618.77262939431591
 30
0.0
 11
-1381.988026671625
 21
-640.7726293943158
 31
0.0
  0
LINE
  5
4F
  8
1
  6
DASHDOT
 62
     3
 10
-1392.988026671625
 20
-629.77262939431591
 30
0.0
 11
-1370.988026671625
 21
-629.77262939431591
 31
0.0
  0
LINE
  5
50
  8
1
  6
DASHDOT
 62
     3
 10
-1280.987455923809
 20
-629.77262939431591
 30
0.0
 11
-1277.7120575179299
 21
-629.77262939431591
 31
0.0
  0
LINE
  5
51
  8
1
  6
DASHDOT
 62
     3
 10
-1176.5646355690201
 20
-629.77262939431591
 30
0.0
 11
-1173.497357485812
 21
-629.77262939431591
 31
0.0
  0
LINE
  5
52
  8
1
 62
     7
 10
-1121.497357485812
 20
-696.77262939431591
 30
0.0
 11
-1123.297357485812
 21
-696.77262939431591
 31
0.0
  0
LINE
  5
53
  8
1
 62
     7
 10
-1121.497357485812
 20
-562.77262939431603
 30
0.0
 11
-1123.297357485812
 21
-562.77262939431603
 31
0.0
  0
LINE
  5
54
  8
1
  6
DASHDOT
 62
     3
 10
-1005.521026124865
 20
-618.77262939431603
 30
0.0
 11
-1005.521026124865
 21
-640.77262939431603
 31
0.0
  0
LINE
  5
55
  8
1
  6
DASHDOT
 62
     3
 10
-1016.521026124864
 20
-629.77262939431603
 30
0.0
 11
-994.52102612486499
 21
-629.77262939431603
 31
0.0
  0
LINE
  5
56
  8
1
 62
     7
 10
-1387.988026671625
 20
-543.77262939431603
 30
0.0
 11
-1375.988026671625
 21
-543.77262939431603
 31
0.0
  0
LINE
  5
57
  8
1
 62
     7
 10
-1358.4608775586651
 20
-536.17255858976716
 30
0.0
 11
-1359.237334693973
 21
-539.07033606863445
 31
0.0
  0
LINE
  5
58
  8
1
 62
     7
 10
-1357.977914645521
 20
-536.30196811231838
 30
0.0
 11
-1358.7543717808289
 21
-539.19974559118555
 31
0.0
  0
LINE
  5
59
  8
1
 62
     7
 10
-1357.4949517323751
 20
-536.43137763486982
 30
0.0
 11
-1358.271408867683
 21
-539.32915511373699
 31
0.0
  0
LINE
  5
5A
  8
1
 62
     7
 10
-1356.5290259060871
 20
-536.69019667997225
 30
0.0
 11
-1357.3054830413951
 21
-539.58797415883953
 31
0.0
  0
LINE
  5
5B
  8
1
 62
     7
 10
-1356.046062992943
 20
-536.81960620252357
 30
0.0
 11
-1356.8225201282501
 21
-539.71738368139074
 31
0.0
  0
LINE
  5
5C
  8
1
 62
     7
 10
-1355.563100079798
 20
-536.9490157250749
 30
0.0
 11
-1356.339557215106
 21
-539.84679320394196
 31
0.0
  0
LINE
  5
5D
  8
1
 62
     7
 10
-1357.7884459545389
 20
-539.4585646362882
 30
0.0
 11
-1364.7765601723061
 21
-565.53856194609318
 31
0.0
  0
LINE
  5
5E
  8
1
 62
     7
 10
-1355.856594301961
 20
-539.97620272649328
 30
0.0
 11
-1362.852494312154
 21
-566.08525700920609
 31
0.0
  0
LINE
  5
5F
  8
1
 62
     7
 10
-1359.720297607118
 20
-538.94092654608312
 30
0.0
 11
-1366.7161976173111
 21
-565.04998082879615
 31
0.0
  0
LINE
  5
60
  8
1
 62
     7
 10
-1359.720297607118
 20
-538.94092654608312
 30
0.0
 11
-1355.856594301961
 21
-539.97620272649328
 31
0.0
  0
LINE
  5
61
  8
1
 62
     7
 10
-1218.36205751793
 20
-638.77262939431603
 30
0.0
 11
-1218.36205751793
 21
-672.77262939431614
 31
0.0
  0
LINE
  5
62
  8
1
 62
     7
 10
-1223.11205751793
 20
-623.77262939431614
 30
0.0
 11
-1223.11205751793
 21
-635.77262939431603
 31
0.0
  0
LINE
  5
63
  8
1
 62
     7
 10
-1223.11205751793
 20
-635.77262939431603
 30
0.0
 11
-1221.36205751793
 21
-635.77262939431603
 31
0.0
  0
LINE
  5
64
  8
1
 62
     7
 10
-1273.7120575179299
 20
-543.77262939431614
 30
0.0
 11
-1273.7120575179299
 21
-694.27262939431591
 31
0.0
  0
LINE
  5
65
  8
1
 62
     7
 10
-1264.7120575179299
 20
-539.27262939431591
 30
0.0
 11
-1264.7120575179299
 21
-542.27262939431591
 31
0.0
  0
LINE
  5
66
  8
1
 62
     7
 10
-1264.2120575179299
 20
-539.27262939431591
 30
0.0
 11
-1264.2120575179299
 21
-542.27262939431591
 31
0.0
  0
LINE
  5
67
  8
1
 62
     7
 10
-1263.7120575179299
 20
-539.27262939431591
 30
0.0
 11
-1263.7120575179299
 21
-542.27262939431591
 31
0.0
  0
LINE
  5
68
  8
1
 62
     7
 10
-1265.2120575179299
 20
-542.27262939431591
 30
0.0
 11
-1265.2120575179299
 21
-563.27262939431591
 31
0.0
  0
LINE
  5
69
  8
1
 62
     7
 10
-1263.2120575179299
 20
-542.27262939431591
 30
0.0
 11
-1263.2120575179299
 21
-563.27262939431591
 31
0.0
  0
LINE
  5
6A
  8
1
 62
     7
 10
-1265.2120575179299
 20
-542.27262939431591
 30
0.0
 11
-1263.2120575179299
 21
-542.27262939431591
 31
0.0
  0
LINE
  5
6B
  8
1
 62
     7
 10
-1032.2047717617941
 20
-535.98308989878535
 30
0.0
 11
-1031.428314626487
 21
-538.88086737765263
 31
0.0
  0
LINE
  5
6C
  8
1
 62
     7
 10
-1031.72180884865
 20
-535.85368037623425
 30
0.0
 11
-1030.9453517133429
 21
-538.75145785510142
 31
0.0
  0
LINE
  5
6D
  8
1
 62
     7
 10
-1031.238845935505
 20
-535.72427085368281
 30
0.0
 11
-1030.4623888001979
 21
-538.62204833255009
 31
0.0
  0
LINE
  5
6E
  8
1
 62
     7
 10
-1030.2729201092161
 20
-535.4654518085805
 30
0.0
 11
-1029.496462973909
 21
-538.36322928744767
 31
0.0
  0
LINE
  5
6F
  8
1
 62
     7
 10
-1029.789957196072
 20
-535.33604228602917
 30
0.0
 11
-1029.013500060764
 21
-538.23381976489634
 31
0.0
  0
LINE
  5
70
  8
1
 62
     7
 10
-1029.3069942829261
 20
-535.20663276347796
 30
0.0
 11
-1028.53053714762
 21
-538.10441024234512
 31
0.0
  0
LINE
  5
71
  8
1
 62
     7
 10
-1029.9794258870529
 20
-538.49263880999877
 30
0.0
 11
-1023.6383592820411
 21
-562.15782155408135
 31
0.0
  0
LINE
  5
72
  8
1
 62
     7
 10
-1031.9112775396311
 20
-539.01027690020385
 30
0.0
 11
-1025.5628145949929
 21
-562.70306315955838
 31
0.0
  0
LINE
  5
73
  8
1
 62
     7
 10
-1028.047574234475
 20
-537.97500071979368
 30
0.0
 11
-1021.699111289837
 21
-561.66778697914799
 31
0.0
  0
LINE
  5
74
  8
1
 62
     7
 10
-1031.9112775396311
 20
-539.01027690020385
 30
0.0
 11
-1028.047574234475
 21
-537.97500071979368
 31
0.0
  0
LINE
  5
75
  8
1
 62
     7
 10
-1013.521026124865
 20
-545.77262939431591
 30
0.0
 11
-1013.521026124865
 21
-560.23127479146137
 31
0.0
  0
LINE
  5
76
  8
1
 62
     7
 10
-997.52102612486487
 20
-545.77262939431591
 30
0.0
 11
-997.52102612486487
 21
-560.23127479146137
 31
0.0
  0
LINE
  5
77
  8
1
 62
     7
 10
-1011.521026124865
 20
-543.77262939431591
 30
0.0
 11
-999.52102612486487
 21
-543.77262939431591
 31
0.0
  0
LINE
  5
78
  8
1
  6
DASHDOT
 62
     3
 10
-1005.521026124865
 20
-545.56120601493888
 30
0.0
 11
-1005.521026124865
 21
-554.56120601493888
 31
0.0
  0
LINE
  5
79
  8
1
  6
DASHDOT
 62
     3
 10
-1009.780409820435
 20
-549.7726293943158
 30
0.0
 11
-1000.780409820434
 21
-549.7726293943158
 31
0.0
  0
LINE
  5
7A
  8
1
 62
     7
 10
-1110.197357485813
 20
-578.54420226956938
 30
0.0
 11
-1110.197357485813
 21
-577.77262939431591
 31
0.0
  0
LINE
  5
7B
  8
1
 62
     7
 10
-1107.797357485812
 20
-581.77262939431591
 30
0.0
 11
-1109.6115710481861
 21
-579.9584158319426
 31
0.0
  0
LINE
  5
7C
  8
1
 62
     7
 10
-1138.4973574858129
 20
-629.77262939431591
 30
0.0
 11
-1138.4973574858129
 21
-598.77262939431591
 31
0.0
  0
LINE
  5
7D
  8
1
 62
     7
 10
-1169.497357485812
 20
-543.77262939431591
 30
0.0
 11
-1169.497357485812
 21
-579.77262939431591
 31
0.0
  0
LINE
  5
7E
  8
1
 62
     7
 10
-1160.4973574858129
 20
-539.27262939431591
 30
0.0
 11
-1160.4973574858129
 21
-542.27262939431591
 31
0.0
  0
LINE
  5
7F
  8
1
 62
     7
 10
-1159.997357485812
 20
-539.27262939431591
 30
0.0
 11
-1159.997357485812
 21
-542.27262939431591
 31
0.0
  0
LINE
  5
80
  8
1
 62
     7
 10
-1159.497357485812
 20
-539.27262939431591
 30
0.0
 11
-1159.497357485812
 21
-542.27262939431591
 31
0.0
  0
LINE
  5
81
  8
1
 62
     7
 10
-1160.9973574858129
 20
-542.27262939431591
 30
0.0
 11
-1160.9973574858129
 21
-563.27262939431591
 31
0.0
  0
LINE
  5
82
  8
1
 62
     7
 10
-1158.9973574858129
 20
-542.27262939431591
 30
0.0
 11
-1158.9973574858129
 21
-563.27262939431591
 31
0.0
  0
LINE
  5
83
  8
1
 62
     7
 10
-1160.9973574858129
 20
-542.27262939431591
 30
0.0
 11
-1158.9973574858129
 21
-542.27262939431591
 31
0.0
  0
LINE
  5
84
  8
1
 62
     7
 10
-1167.497357485812
 20
-563.27262939431591
 30
0.0
 11
-1149.497357485812
 21
-563.27262939431591
 31
0.0
  0
LINE
  5
85
  8
1
 62
     7
 10
-1149.497357485812
 20
-658.77262939431557
 30
0.0
 11
-1149.497357485812
 21
-665.92262939431555
 31
0.0
  0
LINE
  5
86
  8
1
 62
     7
 10
-1150.997357485812
 20
-662.78479484018544
 30
0.0
 11
-1150.997357485812
 21
-668.77262939431569
 31
0.0
  0
LINE
  5
87
  8
1
 62
     7
 10
-1153.497357485812
 20
-652.27262939431569
 30
0.0
 11
-1153.497357485812
 21
-668.77262939431569
 31
0.0
  0
LINE
  5
88
  8
1
 62
     7
 10
-1169.497357485812
 20
-651.27262939431557
 30
0.0
 11
-1169.497357485812
 21
-667.27262939431557
 31
0.0
  0
LINE
  5
89
  8
1
 62
     7
 10
-1117.0973574858131
 20
-690.7726293943158
 30
0.0
 11
-1117.0973574858131
 21
-670.57756008915328
 31
0.0
  0
LINE
  5
8A
  8
1
 62
     7
 10
-1118.2973574858131
 20
-690.7726293943158
 30
0.0
 11
-1118.2973574858131
 21
-671.77814421147184
 31
0.0
  0
LINE
  5
8B
  8
1
 62
     7
 10
-1118.2973574858131
 20
-686.7726293943158
 30
0.0
 11
-1117.0973574858131
 21
-686.7726293943158
 31
0.0
  0
LINE
  5
8C
  8
1
 62
     7
 10
-1118.2973574858131
 20
-587.76711457715976
 30
0.0
 11
-1118.2973574858131
 21
-583.9344291152936
 31
0.0
  0
LINE
  5
8D
  8
1
 62
     7
 10
-1138.4973574858129
 20
-665.92262939431555
 30
0.0
 11
-1138.4973574858129
 21
-697.2726293943158
 31
0.0
  0
LINE
  5
8E
  8
1
 62
     7
 10
-1138.4973574858129
 20
-593.62262939431582
 30
0.0
 11
-1138.4973574858129
 21
-562.2726293943158
 31
0.0
  0
LINE
  5
8F
  8
1
 62
     7
 10
-1223.114740659777
 20
-580.77262939431603
 30
0.0
 11
-1222.1738756997479
 21
-580.77262939431603
 31
0.0
  0
LINE
  5
90
  8
1
 62
     7
 10
-1218.7120575179299
 20
-590.172629394316
 30
0.0
 11
-1218.36205751793
 21
-590.172629394316
 31
0.0
  0
LINE
  5
91
  8
1
 62
     7
 10
-1209.2123135709301
 20
-590.172629394316
 30
0.0
 11
-1212.0120575179301
 21
-590.172629394316
 31
0.0
  0
LINE
  5
92
  8
1
 62
     7
 10
-1221.91205751793
 20
-623.77262939431614
 30
0.0
 11
-1220.7120575179299
 21
-568.77262939431603
 31
0.0
  0
LINE
  5
93
  8
1
 62
     7
 10
-1223.11205751793
 20
-623.77262939431614
 30
0.0
 11
-1221.91205751793
 21
-568.77262939431603
 31
0.0
  0
LINE
  5
94
  8
1
 62
     7
 10
-1225.7120575179299
 20
-623.77262939431603
 30
0.0
 11
-1223.11205751793
 21
-623.77262939431614
 31
0.0
  0
LINE
  5
95
  8
1
 62
     7
 10
-1236.41205751793
 20
-559.77262939431603
 30
0.0
 11
-1231.11205751793
 21
-559.77262939431603
 31
0.0
  0
LINE
  5
96
  8
1
 62
     7
 10
-1225.7120575179299
 20
-559.77262939431603
 30
0.0
 11
-1225.7120575179299
 21
-699.77262939431591
 31
0.0
  0
LINE
  5
97
  8
1
 62
     7
 10
-1226.5120575179301
 20
-559.77262939431603
 30
0.0
 11
-1225.7120575179299
 21
-559.77262939431603
 31
0.0
  0
LINE
  5
98
  8
1
 62
     7
 10
-1225.7120575179299
 20
-569.27262939431591
 30
0.0
 11
-1223.11205751793
 21
-569.27262939431591
 31
0.0
  0
LINE
  5
99
  8
1
 62
     7
 10
-1223.11205751793
 20
-568.77262939431603
 30
0.0
 11
-1223.11205751793
 21
-580.77262939431603
 31
0.0
  0
LINE
  5
9A
  8
1
 62
     7
 10
-1223.11205751793
 20
-580.27262939431603
 30
0.0
 11
-1225.7120575179299
 21
-580.27262939431603
 31
0.0
  0
LINE
  5
9B
  8
1
 62
     7
 10
-1223.11205751793
 20
-568.77262939431603
 30
0.0
 11
-1215.4855000736741
 21
-568.77262939431603
 31
0.0
  0
LINE
  5
9C
  8
1
 62
     7
 10
-1221.91205751793
 20
-568.77262939431603
 30
0.0
 11
-1221.91205751793
 21
-571.77262939431603
 31
0.0
  0
LINE
  5
9D
  8
1
 62
     7
 10
-1208.7123135709301
 20
-590.672629394316
 30
0.0
 11
-1209.2123135709301
 21
-590.172629394316
 31
0.0
  0
LINE
  5
9E
  8
1
 62
     7
 10
-1219.36205751793
 20
-582.27262939431603
 30
0.0
 11
-1219.36205751793
 21
-585.77262939431603
 31
0.0
  0
LINE
  5
9F
  8
1
 62
     7
 10
-1218.36205751793
 20
-586.73115667257025
 30
0.0
 11
-1218.36205751793
 21
-620.77262939431614
 31
0.0
  0
LINE
  5
A0
  8
1
 62
     7
 10
-1222.517182324885
 20
-584.9755724019733
 30
0.0
 11
-1222.5120575179301
 21
-587.76711457715987
 31
0.0
  0
LINE
  5
A1
  8
1
 62
     7
 10
-1221.1693787063809
 20
-588.97262939431596
 30
0.0
 11
-1218.7120575179299
 21
-588.97262939431596
 31
0.0
  0
LINE
  5
A2
  8
1
 62
     7
 10
-1218.7120575179299
 20
-588.97262939431596
 30
0.0
 11
-1218.7120575179299
 21
-590.172629394316
 31
0.0
  0
LINE
  5
A3
  8
1
 62
     7
 10
-1208.7123135709301
 20
-668.87262939431582
 30
0.0
 11
-1208.7123135709301
 21
-590.672629394316
 31
0.0
  0
LINE
  5
A4
  8
1
 62
     7
 10
-1231.11205751793
 20
-699.77262939431591
 30
0.0
 11
-1236.41205751793
 21
-699.77262939431591
 31
0.0
  0
LINE
  5
A5
  8
1
 62
     7
 10
-1236.41205751793
 20
-699.77262939431591
 30
0.0
 11
-1236.41205751793
 21
-559.77262939431603
 31
0.0
  0
LINE
  5
A6
  8
1
 62
     7
 10
-1222.517182324885
 20
-584.9755724019733
 30
0.0
 11
-1222.517182324885
 21
-583.76687517672485
 31
0.0
  0
LINE
  5
A7
  8
1
 62
     7
 10
-1224.6144469430569
 20
-581.77262939431591
 30
0.0
 11
-1225.7120575179299
 21
-581.77262939431591
 31
0.0
  0
LINE
  5
A8
  8
1
 62
     7
 10
-1277.7120575179299
 20
-651.27262939431591
 30
0.0
 11
-1276.7120575179299
 21
-652.27262939431614
 31
0.0
  0
LINE
  5
A9
  8
1
 62
     7
 10
-1275.7120575179299
 20
-652.27262939431614
 30
0.0
 11
-1276.7120575179299
 21
-652.27262939431614
 31
0.0
  0
LINE
  5
AA
  8
1
 62
     7
 10
-1253.7120575179299
 20
-695.922629394316
 30
0.0
 11
-1252.2120575179299
 21
-695.922629394316
 31
0.0
  0
LINE
  5
AB
  8
1
 62
     7
 10
-1253.7120575179299
 20
-563.62262939431605
 30
0.0
 11
-1252.2120575179299
 21
-563.62262939431605
 31
0.0
  0
LINE
  5
AC
  8
1
 62
     7
 10
-1252.2120575179299
 20
-699.77262939431591
 30
0.0
 11
-1252.2120575179299
 21
-559.77262939431614
 31
0.0
  0
LINE
  5
AD
  8
1
 62
     7
 10
-1253.7120575179299
 20
-695.922629394316
 30
0.0
 11
-1253.7120575179299
 21
-696.27262939431591
 31
0.0
  0
LINE
  5
AE
  8
1
 62
     7
 10
-1275.7120575179299
 20
-679.77262939431591
 30
0.0
 11
-1275.7120575179299
 21
-579.77262939431614
 31
0.0
  0
LINE
  5
AF
  8
1
 62
     7
 10
-1275.7120575179299
 20
-607.27262939431614
 30
0.0
 11
-1276.7120575179299
 21
-607.27262939431614
 31
0.0
  0
LINE
  5
B0
  8
1
 62
     7
 10
-1271.7120575179299
 20
-563.27262939431614
 30
0.0
 11
-1273.7120575179299
 21
-565.27262939431614
 31
0.0
  0
LINE
  5
B1
  8
1
 62
     7
 10
-1253.7120575179299
 20
-563.27262939431614
 30
0.0
 11
-1253.7120575179299
 21
-563.62262939431605
 31
0.0
  0
LINE
  5
B2
  8
1
 62
     7
 10
-1253.7120575179299
 20
-563.27262939431614
 30
0.0
 11
-1271.7120575179299
 21
-563.27262939431614
 31
0.0
  0
LINE
  5
B3
  8
1
 62
     7
 10
-1275.7120575179299
 20
-579.77262939431614
 30
0.0
 11
-1273.7120575179299
 21
-579.77262939431614
 31
0.0
  0
LINE
  5
B4
  8
1
 62
     7
 10
-1252.2120575179299
 20
-559.77262939431614
 30
0.0
 11
-1236.7120575179299
 21
-559.77262939431614
 31
0.0
  0
LINE
  5
B5
  8
1
 62
     7
 10
-1276.7120575179299
 20
-607.27262939431614
 30
0.0
 11
-1277.7120575179299
 21
-608.27262939431614
 31
0.0
  0
LINE
  5
B6
  8
1
 62
     7
 10
-1236.7120575179299
 20
-699.77262939431591
 30
0.0
 11
-1236.7120575179299
 21
-559.77262939431614
 31
0.0
  0
LINE
  5
B7
  8
1
 62
     7
 10
-1236.7120575179299
 20
-699.77262939431591
 30
0.0
 11
-1252.2120575179299
 21
-699.77262939431591
 31
0.0
  0
LINE
  5
B8
  8
1
 62
     7
 10
-1273.7120575179299
 20
-679.77262939431591
 30
0.0
 11
-1275.7120575179299
 21
-679.77262939431591
 31
0.0
  0
LINE
  5
B9
  8
1
 62
     7
 10
-1271.7120575179299
 20
-696.27262939431591
 30
0.0
 11
-1253.7120575179299
 21
-696.27262939431591
 31
0.0
  0
LINE
  5
BA
  8
1
 62
     7
 10
-1253.7120575179299
 20
-695.922629394316
 30
0.0
 11
-1253.7120575179299
 21
-696.27262939431591
 31
0.0
  0
LINE
  5
BB
  8
1
 62
     7
 10
-1273.7120575179299
 20
-694.27262939431591
 30
0.0
 11
-1271.7120575179299
 21
-696.27262939431591
 31
0.0
  0
LINE
  5
BC
  8
1
 62
     7
 10
-1277.7120575179299
 20
-651.27262939431591
 30
0.0
 11
-1277.7120575179299
 21
-608.27262939431614
 31
0.0
  0
LINE
  5
BD
  8
1
 62
     7
 10
-1275.7125155665769
 20
-578.77262939431614
 30
0.0
 11
-1275.7125155665769
 21
-543.77262939431614
 31
0.0
  0
LINE
  5
BE
  8
1
  6
DASHDOT
 62
     3
 10
-1276.82689821914
 20
-549.77262939431614
 30
0.0
 11
-1272.389817317131
 21
-549.77262939431614
 31
0.0
  0
LINE
  5
BF
  8
1
  6
DASHDOT
 62
     3
 10
-1005.521026124865
 20
-593.38098819722802
 30
0.0
 11
-1005.521026124865
 21
-603.29253634730401
 31
0.0
  0
LINE
  5
C0
  8
1
  6
DASHDOT
 62
     3
 10
-1005.521026124865
 20
-656.24950546621585
 30
0.0
 11
-1005.521026124865
 21
-666.05879161156895
 31
0.0
  0
LINE
  5
C1
  8
1
 62
     7
 10
-1056.719323214214
 20
-646.40796453222947
 30
0.0
 11
-1054.49894598592
 21
-645.67322447703179
 31
0.0
  0
LINE
  5
C2
  8
1
 62
     7
 10
-1022.156361262777
 20
-578.57433230496633
 30
0.0
 11
-1024.371062781737
 21
-571.75818190031146
 31
0.0
  0
LINE
  5
C3
  8
1
 62
     7
 10
-1056.719323214214
 20
-646.40796453222947
 30
0.0
 11
-1063.535473618869
 21
-648.62266605118771
 31
0.0
  0
LINE
  5
C4
  8
1
 62
     7
 10
-954.32272903551541
 20
-613.13729425640236
 30
0.0
 11
-947.50657863086042
 21
-610.92259273744412
 31
0.0
  0
LINE
  5
C5
  8
1
 62
     7
 10
-988.88569098695132
 20
-680.97092648366549
 30
0.0
 11
-986.67098946799331
 21
-687.78707688832026
 31
0.0
  0
LINE
  5
C6
  8
1
 62
     7
 10
-1173.497357485812
 20
-642.27262939431557
 30
0.0
 11
-1138.4973574858129
 21
-642.27262939431603
 31
0.0
  0
LINE
  5
C7
  8
1
 62
     7
 10
-1138.4973574858129
 20
-642.27262939431603
 30
0.0
 11
-1122.4973574858129
 21
-642.27262939431614
 31
0.0
  0
LINE
  5
C8
  8
1
 62
     7
 10
-1138.4973574858129
 20
-617.27262939431591
 30
0.0
 11
-1173.497357485812
 21
-617.27262939431591
 31
0.0
  0
LINE
  5
C9
  8
1
 62
     7
 10
-1173.497357485812
 20
-614.27262939431591
 30
0.0
 11
-1138.4973574858129
 21
-614.27262939431591
 31
0.0
  0
LINE
  5
CA
  8
1
 62
     7
 10
-1169.497357485812
 20
-592.27262939431591
 30
0.0
 11
-1153.497357485812
 21
-592.27262939431591
 31
0.0
  0
LINE
  5
CB
  8
1
 62
     7
 10
-1153.497357485812
 20
-652.27262939431569
 30
0.0
 11
-1169.497357485812
 21
-652.27262939431569
 31
0.0
  0
LINE
  5
CC
  8
1
 62
     7
 10
-1150.997357485812
 20
-590.7726293943158
 30
0.0
 11
-1150.997357485812
 21
-596.76046394844616
 31
0.0
  0
LINE
  5
CD
  8
1
 62
     7
 10
-1169.497357485812
 20
-607.2726293943158
 30
0.0
 11
-1153.497357485812
 21
-607.2726293943158
 31
0.0
  0
LINE
  5
CE
  8
1
 62
     7
 10
-1150.997357485812
 20
-662.78479484018544
 30
0.0
 11
-1153.497357485812
 21
-662.78479484018544
 31
0.0
  0
LINE
  5
CF
  8
1
 62
     7
 10
-1149.497357485812
 20
-665.92262939431555
 30
0.0
 11
-1138.4973574858129
 21
-665.92262939431555
 31
0.0
  0
LINE
  5
D0
  8
1
 62
     7
 10
-1149.497357485812
 20
-593.62262939431582
 30
0.0
 11
-1138.4973574858129
 21
-593.62262939431582
 31
0.0
  0
LINE
  5
D1
  8
1
 62
     7
 10
-1147.9973574858129
 20
-697.2726293943158
 30
0.0
 11
-1138.4973574858129
 21
-697.2726293943158
 31
0.0
  0
LINE
  5
D2
  8
1
 62
     7
 10
-1147.9973574858129
 20
-562.2726293943158
 30
0.0
 11
-1138.4973574858129
 21
-562.2726293943158
 31
0.0
  0
LINE
  5
D3
  8
1
 62
     7
 10
-1147.9973574858129
 20
-562.04068172747418
 30
0.0
 11
-1147.9973574858129
 21
-562.2726293943158
 31
0.0
  0
LINE
  5
D4
  8
1
 62
     7
 10
-1171.4978155344591
 20
-578.7726293943158
 30
0.0
 11
-1169.497357485812
 21
-578.7726293943158
 31
0.0
  0
LINE
  5
D5
  8
1
 62
     7
 10
-1171.4978155344591
 20
-552.52262939431591
 30
0.0
 11
-1169.497357485812
 21
-552.52262939431591
 31
0.0
  0
LINE
  5
D6
  8
1
  6
DASHDOT
 62
     3
 10
-1172.6121981870231
 20
-549.7726293943158
 30
0.0
 11
-1168.175117285014
 21
-549.7726293943158
 31
0.0
  0
LINE
  5
D7
  8
1
 62
     7
 10
-1171.4978155344591
 20
-547.0226293943158
 30
0.0
 11
-1169.497357485812
 21
-547.0226293943158
 31
0.0
  0
LINE
  5
D8
  8
1
 62
     7
 10
-1171.4978155344591
 20
-578.7726293943158
 30
0.0
 11
-1171.4978155344591
 21
-543.77262939431591
 31
0.0
  0
LINE
  5
D9
  8
1
 62
     7
 10
-1173.497357485812
 20
-651.27262939431557
 30
0.0
 11
-1173.497357485812
 21
-629.77262939431591
 31
0.0
  0
LINE
  5
DA
  8
1
 62
     7
 10
-1149.497357485812
 20
-658.77262939431557
 30
0.0
 11
-1153.497357485812
 21
-658.77262939431557
 31
0.0
  0
LINE
  5
DB
  8
1
 62
     7
 10
-1172.4973574858129
 20
-652.27262939431569
 30
0.0
 11
-1171.497357485812
 21
-652.27262939431569
 31
0.0
  0
LINE
  5
DC
  8
1
 62
     7
 10
-1171.497357485812
 20
-652.27262939431569
 30
0.0
 11
-1171.497357485812
 21
-651.27262939431557
 31
0.0
  0
LINE
  5
DD
  8
1
 62
     7
 10
-1169.497357485812
 20
-651.27262939431557
 30
0.0
 11
-1171.497357485812
 21
-651.27262939431557
 31
0.0
  0
LINE
  5
DE
  8
1
 62
     7
 10
-1171.497357485812
 20
-679.77262939431557
 30
0.0
 11
-1171.497357485812
 21
-652.27262939431569
 31
0.0
  0
LINE
  5
DF
  8
1
 62
     7
 10
-1155.447515635004
 20
-654.45086509298869
 30
0.0
 11
-1155.447515635004
 21
-664.69934626859549
 31
0.0
  0
LINE
  5
E0
  8
1
 62
     7
 10
-1167.610548239021
 20
-654.33824442072921
 30
0.0
 11
-1167.610548239021
 21
-664.69934626859549
 31
0.0
  0
LINE
  5
E1
  8
1
 62
     7
 10
-1153.497357485812
 20
-655.87551507728585
 30
0.0
 11
-1159.247357485812
 21
-655.87551507728585
 31
0.0
  0
LINE
  5
E2
  8
1
 62
     7
 10
-1169.497357485812
 20
-655.87551507728585
 30
0.0
 11
-1163.7473574858129
 21
-655.87551507728585
 31
0.0
  0
LINE
  5
E3
  8
1
 62
     7
 10
-1169.497357485812
 20
-663.66974371134575
 30
0.0
 11
-1163.7473574858129
 21
-663.66974371134575
 31
0.0
  0
LINE
  5
E4
  8
1
 62
     7
 10
-1153.497357485812
 20
-663.66974371134575
 30
0.0
 11
-1159.247357485812
 21
-663.66974371134575
 31
0.0
  0
LINE
  5
E5
  8
1
 62
     7
 10
-1167.6973574858121
 20
-667.27262939431557
 30
0.0
 11
-1155.297357485812
 21
-667.27262939431557
 31
0.0
  0
LINE
  5
E6
  8
1
 62
     7
 10
-1169.497357485812
 20
-667.27262939431557
 30
0.0
 11
-1153.497357485812
 21
-667.27262939431557
 31
0.0
  0
LINE
  5
E7
  8
1
 62
     7
 10
-1150.997357485812
 20
-668.77262939431569
 30
0.0
 11
-1153.497357485812
 21
-668.77262939431569
 31
0.0
  0
LINE
  5
E8
  8
1
 62
     7
 10
-1169.497357485812
 20
-694.2726293943158
 30
0.0
 11
-1167.497357485812
 21
-696.27262939431569
 31
0.0
  0
LINE
  5
E9
  8
1
 62
     7
 10
-1169.497357485812
 20
-662.27262939431569
 30
0.0
 11
-1171.497357485812
 21
-662.27262939431569
 31
0.0
  0
LINE
  5
EA
  8
1
 62
     7
 10
-1141.497357485812
 20
-695.92262939431566
 30
0.0
 11
-1149.497357485812
 21
-695.92262939431566
 31
0.0
  0
LINE
  5
EB
  8
1
 62
     7
 10
-1149.497357485812
 20
-695.92262939431566
 30
0.0
 11
-1149.497357485812
 21
-696.27262939431569
 31
0.0
  0
LINE
  5
EC
  8
1
 62
     7
 10
-1167.497357485812
 20
-696.27262939431569
 30
0.0
 11
-1149.497357485812
 21
-696.27262939431569
 31
0.0
  0
LINE
  5
ED
  8
1
 62
     7
 10
-1169.497357485812
 20
-694.2726293943158
 30
0.0
 11
-1169.497357485812
 21
-679.77262939431557
 31
0.0
  0
LINE
  5
EE
  8
1
 62
     7
 10
-1169.497357485812
 20
-679.77262939431557
 30
0.0
 11
-1171.497357485812
 21
-679.77262939431557
 31
0.0
  0
LINE
  5
EF
  8
1
 62
     7
 10
-1150.997357485812
 20
-667.27262939431557
 30
0.0
 11
-1141.497357485812
 21
-667.27262939431557
 31
0.0
  0
LINE
  5
F0
  8
1
 62
     7
 10
-1141.497357485812
 20
-667.27262939431557
 30
0.0
 11
-1141.497357485812
 21
-695.92262939431566
 31
0.0
  0
LINE
  5
F1
  8
1
 62
     7
 10
-1147.9973574858129
 20
-699.77262939431569
 30
0.0
 11
-1147.9973574858129
 21
-697.2726293943158
 31
0.0
  0
LINE
  5
F2
  8
1
 62
     7
 10
-1132.4973574858129
 20
-699.77262939431569
 30
0.0
 11
-1147.9973574858129
 21
-699.77262939431569
 31
0.0
  0
LINE
  5
F3
  8
1
 62
     7
 10
-1134.497357485812
 20
-674.77262939431569
 30
0.0
 11
-1132.4973574858129
 21
-674.77262939431569
 31
0.0
  0
LINE
  5
F4
  8
1
 62
     7
 10
-1134.497357485812
 20
-674.77262939431569
 30
0.0
 11
-1134.497357485812
 21
-648.77262939431614
 31
0.0
  0
LINE
  5
F5
  8
1
 62
     7
 10
-1138.4973574858129
 20
-660.77262939431569
 30
0.0
 11
-1134.497357485812
 21
-660.77262939431569
 31
0.0
  0
LINE
  5
F6
  8
1
 62
     7
 10
-1138.4973574858129
 20
-660.77262939431569
 30
0.0
 11
-1138.4973574858129
 21
-629.77262939431591
 31
0.0
  0
LINE
  5
F7
  8
1
 62
     7
 10
-1171.497357485812
 20
-656.08950666429985
 30
0.0
 11
-1169.497357485812
 21
-656.08950666429985
 31
0.0
  0
LINE
  5
F8
  8
1
 62
     7
 10
-1173.497357485812
 20
-651.27262939431557
 30
0.0
 11
-1172.4973574858129
 21
-652.27262939431569
 31
0.0
  0
LINE
  5
F9
  8
1
 62
     7
 10
-1172.4973574858129
 20
-607.2726293943158
 30
0.0
 11
-1173.497357485812
 21
-608.27262939431591
 31
0.0
  0
LINE
  5
FA
  8
1
 62
     7
 10
-1169.497357485812
 20
-603.45575212433175
 30
0.0
 11
-1171.497357485812
 21
-603.45575212433175
 31
0.0
  0
LINE
  5
FB
  8
1
 62
     7
 10
-1134.497357485812
 20
-598.77262939431591
 30
0.0
 11
-1138.4973574858129
 21
-598.77262939431591
 31
0.0
  0
LINE
  5
FC
  8
1
 62
     7
 10
-1132.4973574858129
 20
-584.77262939431591
 30
0.0
 11
-1134.497357485812
 21
-584.77262939431591
 31
0.0
  0
LINE
  5
FD
  8
1
 62
     7
 10
-1132.4973574858129
 20
-559.77262939431591
 30
0.0
 11
-1132.4973574858129
 21
-610.77262939431591
 31
0.0
  0
LINE
  5
FE
  8
1
 62
     7
 10
-1147.9973574858129
 20
-559.77262939431591
 30
0.0
 11
-1132.4973574858129
 21
-559.77262939431591
 31
0.0
  0
LINE
  5
FF
  8
1
 62
     7
 10
-1147.9973574858129
 20
-562.2726293943158
 30
0.0
 11
-1147.9973574858129
 21
-559.77262939431591
 31
0.0
  0
LINE
  5
100
  8
1
 62
     7
 10
-1141.497357485812
 20
-563.62262939431582
 30
0.0
 11
-1141.497357485812
 21
-592.27262939431591
 31
0.0
  0
LINE
  5
101
  8
1
 62
     7
 10
-1141.497357485812
 20
-592.27262939431591
 30
0.0
 11
-1150.997357485812
 21
-592.27262939431591
 31
0.0
  0
LINE
  5
102
  8
1
 62
     7
 10
-1171.497357485812
 20
-579.77262939431591
 30
0.0
 11
-1169.497357485812
 21
-579.77262939431591
 31
0.0
  0
LINE
  5
103
  8
1
 62
     7
 10
-1149.497357485812
 20
-563.27262939431591
 30
0.0
 11
-1149.497357485812
 21
-563.62262939431582
 31
0.0
  0
LINE
  5
104
  8
1
 62
     7
 10
-1149.497357485812
 20
-563.62262939431582
 30
0.0
 11
-1141.497357485812
 21
-563.62262939431582
 31
0.0
  0
LINE
  5
105
  8
1
 62
     7
 10
-1171.497357485812
 20
-597.27262939431591
 30
0.0
 11
-1169.497357485812
 21
-597.27262939431591
 31
0.0
  0
LINE
  5
106
  8
1
 62
     7
 10
-1167.497357485812
 20
-563.27262939431591
 30
0.0
 11
-1169.497357485812
 21
-565.27262939431591
 31
0.0
  0
LINE
  5
107
  8
1
 62
     7
 10
-1153.497357485812
 20
-590.7726293943158
 30
0.0
 11
-1150.997357485812
 21
-590.7726293943158
 31
0.0
  0
LINE
  5
108
  8
1
 62
     7
 10
-1169.497357485812
 20
-607.2726293943158
 30
0.0
 11
-1169.497357485812
 21
-608.27262939431591
 31
0.0
  0
LINE
  5
109
  8
1
 62
     7
 10
-1159.247357485812
 20
-595.87551507728585
 30
0.0
 11
-1153.497357485812
 21
-595.87551507728585
 31
0.0
  0
LINE
  5
10A
  8
1
 62
     7
 10
-1163.7473574858129
 20
-595.87551507728585
 30
0.0
 11
-1169.497357485812
 21
-595.87551507728585
 31
0.0
  0
LINE
  5
10B
  8
1
 62
     7
 10
-1169.497357485812
 20
-595.87551507728585
 30
0.0
 11
-1169.497357485812
 21
-607.2726293943158
 31
0.0
  0
LINE
  5
10C
  8
1
 62
     7
 10
-1169.497357485812
 20
-603.66974371134575
 30
0.0
 11
-1169.497357485812
 21
-592.27262939431591
 31
0.0
  0
LINE
  5
10D
  8
1
 62
     7
 10
-1163.7473574858129
 20
-603.66974371134575
 30
0.0
 11
-1169.497357485812
 21
-603.66974371134575
 31
0.0
  0
LINE
  5
10E
  8
1
 62
     7
 10
-1159.247357485812
 20
-603.66974371134575
 30
0.0
 11
-1153.497357485812
 21
-603.66974371134575
 31
0.0
  0
LINE
  5
10F
  8
1
 62
     7
 10
-1167.610548239021
 20
-594.84591252003622
 30
0.0
 11
-1167.610548239021
 21
-605.20701436790227
 31
0.0
  0
LINE
  5
110
  8
1
 62
     7
 10
-1155.447515635004
 20
-594.84591252003622
 30
0.0
 11
-1155.447515635004
 21
-605.09439369564291
 31
0.0
  0
LINE
  5
111
  8
1
 62
     7
 10
-1171.497357485812
 20
-608.27262939431591
 30
0.0
 11
-1169.497357485812
 21
-608.27262939431591
 31
0.0
  0
LINE
  5
112
  8
1
 62
     7
 10
-1171.497357485812
 20
-608.27262939431591
 30
0.0
 11
-1171.497357485812
 21
-607.2726293943158
 31
0.0
  0
LINE
  5
113
  8
1
 62
     7
 10
-1171.497357485812
 20
-607.2726293943158
 30
0.0
 11
-1172.4973574858129
 21
-607.2726293943158
 31
0.0
  0
LINE
  5
114
  8
1
 62
     7
 10
-1171.497357485812
 20
-607.2726293943158
 30
0.0
 11
-1171.497357485812
 21
-579.77262939431591
 31
0.0
  0
LINE
  5
115
  8
1
 62
     7
 10
-1153.497357485812
 20
-607.2726293943158
 30
0.0
 11
-1153.497357485812
 21
-590.7726293943158
 31
0.0
  0
LINE
  5
116
  8
1
 62
     7
 10
-1153.497357485812
 20
-596.76046394844616
 30
0.0
 11
-1150.997357485812
 21
-596.76046394844616
 31
0.0
  0
LINE
  5
117
  8
1
 62
     7
 10
-1153.497357485812
 20
-600.77262939431591
 30
0.0
 11
-1149.497357485812
 21
-600.77262939431591
 31
0.0
  0
LINE
  5
118
  8
1
 62
     7
 10
-1149.497357485812
 20
-600.77262939431591
 30
0.0
 11
-1149.497357485812
 21
-593.62262939431582
 31
0.0
  0
LINE
  5
119
  8
1
 62
     7
 10
-1173.497357485812
 20
-629.77262939431591
 30
0.0
 11
-1173.497357485812
 21
-608.27262939431591
 31
0.0
  0
LINE
  5
11A
  8
1
  6
DASHDOT
 62
     3
 10
-982.14293942942402
 20
-616.2752847475648
 30
0.0
 11
-975.07923634437088
 21
-612.19705386993382
 31
0.0
  0
LINE
  5
11B
  8
1
  6
DASHDOT
 62
     3
 10
-1028.8991128203049
 20
-616.2752847475648
 30
0.0
 11
-1035.9628159053591
 21
-612.19705386993382
 31
0.0
  0
LINE
  5
11C
  8
1
 62
     7
 10
-1132.197357485813
 20
-559.77262939431591
 30
0.0
 11
-1126.8973574858121
 21
-559.77262939431591
 31
0.0
  0
LINE
  5
11D
  8
1
 62
     7
 10
-1132.197357485813
 20
-584.77262939431591
 30
0.0
 11
-1126.8973574858121
 21
-584.77262939431591
 31
0.0
  0
LINE
  5
11E
  8
1
 62
     7
 10
-1121.497357485812
 20
-559.77262939431591
 30
0.0
 11
-1121.497357485812
 21
-571.77262939431591
 31
0.0
  0
LINE
  5
11F
  8
1
 62
     7
 10
-1126.4243734400461
 20
-569.52262939431591
 30
0.0
 11
-1125.197357485813
 21
-569.52262939431591
 31
0.0
  0
LINE
  5
120
  8
1
 62
     7
 10
-1124.8973574858121
 20
-569.82262939431575
 30
0.0
 11
-1124.8973574858121
 21
-579.72262939431596
 31
0.0
  0
LINE
  5
121
  8
1
 62
     7
 10
-1126.4243734400461
 20
-580.02262939431591
 30
0.0
 11
-1125.197357485813
 21
-580.02262939431591
 31
0.0
  0
LINE
  5
122
  8
1
 62
     7
 10
-1124.8973574858121
 20
-571.77262939431591
 30
0.0
 11
-1109.497357485812
 21
-571.77262939431591
 31
0.0
  0
LINE
  5
123
  8
1
 62
     7
 10
-1109.497357485812
 20
-571.77262939431591
 30
0.0
 11
-1108.8973574858121
 21
-572.37262939431571
 31
0.0
  0
LINE
  5
124
  8
1
 62
     7
 10
-1108.8973574858121
 20
-572.37262939431571
 30
0.0
 11
-1108.8973574858121
 21
-577.17262939431578
 31
0.0
  0
LINE
  5
125
  8
1
 62
     7
 10
-1108.8973574858121
 20
-577.17262939431578
 30
0.0
 11
-1109.497357485812
 21
-577.77262939431591
 31
0.0
  0
LINE
  5
126
  8
1
 62
     7
 10
-1109.497357485812
 20
-577.77262939431591
 30
0.0
 11
-1124.8973574858121
 21
-577.77262939431591
 31
0.0
  0
LINE
  5
127
  8
1
 62
     7
 10
-1109.497357485812
 20
-571.77262939431591
 30
0.0
 11
-1109.497357485812
 21
-577.77262939431591
 31
0.0
  0
LINE
  5
128
  8
1
 62
     3
 10
-1108.8973574858121
 20
-572.37262939431571
 30
0.0
 11
-1123.3581270012719
 21
-572.37262939431571
 31
0.0
  0
LINE
  5
129
  8
1
 62
     3
 10
-1123.3581270012719
 20
-572.37262939431571
 30
0.0
 11
-1124.397357485813
 21
-571.77262939431591
 31
0.0
  0
LINE
  5
12A
  8
1
 62
     3
 10
-1108.8973574858121
 20
-577.17262939431578
 30
0.0
 11
-1123.3581270012719
 21
-577.17262939431578
 31
0.0
  0
LINE
  5
12B
  8
1
 62
     3
 10
-1123.3581270012719
 20
-577.17262939431578
 30
0.0
 11
-1124.397357485813
 21
-577.77262939431591
 31
0.0
  0
LINE
  5
12C
  8
1
 62
     3
 10
-1123.3581270012719
 20
-571.77262939431591
 30
0.0
 11
-1123.3581270012719
 21
-577.77262939431591
 31
0.0
  0
LINE
  5
12D
  8
1
 62
     7
 10
-1121.497357485812
 20
-577.77262939431591
 30
0.0
 11
-1121.497357485812
 21
-586.7726293943158
 31
0.0
  0
LINE
  5
12E
  8
1
 62
     7
 10
-1123.297357485812
 20
-577.77262939431591
 30
0.0
 11
-1123.297357485812
 21
-584.17262939431589
 31
0.0
  0
LINE
  5
12F
  8
1
 62
     7
 10
-1122.297357485812
 20
-585.17262939431578
 30
0.0
 11
-1121.497357485812
 21
-585.17262939431578
 31
0.0
  0
LINE
  5
130
  8
1
 62
     7
 10
-1123.297357485812
 20
-562.37262939431582
 30
0.0
 11
-1123.297357485812
 21
-571.77262939431591
 31
0.0
  0
LINE
  5
131
  8
1
 62
     7
 10
-1121.497357485812
 20
-569.27262939431591
 30
0.0
 11
-1118.8973574858121
 21
-569.27262939431591
 31
0.0
  0
LINE
  5
132
  8
1
 62
     7
 10
-1118.8973574858121
 20
-577.77262939431591
 30
0.0
 11
-1118.8973574858121
 21
-580.27262939431591
 31
0.0
  0
LINE
  5
133
  8
1
 62
     7
 10
-1118.8973574858121
 20
-580.27262939431591
 30
0.0
 11
-1121.497357485812
 21
-580.27262939431591
 31
0.0
  0
LINE
  5
134
  8
1
 62
     7
 10
-1118.8973574858121
 20
-568.77262939431591
 30
0.0
 11
-1111.2708000415571
 21
-568.77262939431591
 31
0.0
  0
LINE
  5
135
  8
1
 62
     7
 10
-1110.197357485813
 20
-569.76853942477806
 30
0.0
 11
-1110.197357485813
 21
-571.77262939431591
 31
0.0
  0
LINE
  5
136
  8
1
 62
     7
 10
-1118.8973574858121
 20
-568.77262939431591
 30
0.0
 11
-1118.8973574858121
 21
-571.77262939431591
 31
0.0
  0
LINE
  5
137
  8
1
 62
     7
 10
-1117.6973574858121
 20
-568.77262939431591
 30
0.0
 11
-1117.6973574858121
 21
-571.77262939431591
 31
0.0
  0
LINE
  5
138
  8
1
 62
     7
 10
-1117.6973574858121
 20
-577.77262939431591
 30
0.0
 11
-1117.6973574858121
 21
-579.77262939431591
 31
0.0
  0
LINE
  5
139
  8
1
 62
     7
 10
-1124.997357485812
 20
-590.17262939431578
 30
0.0
 11
-1104.997357485812
 21
-590.17262939431578
 31
0.0
  0
LINE
  5
13A
  8
1
 62
     7
 10
-1104.4973574858129
 20
-603.7726293943158
 30
0.0
 11
-1122.4973574858129
 21
-603.7726293943158
 31
0.0
  0
LINE
  5
13B
  8
1
 62
     7
 10
-1122.4973574858129
 20
-607.7726293943158
 30
0.0
 11
-1125.497357485812
 21
-607.7726293943158
 31
0.0
  0
LINE
  5
13C
  8
1
 62
     7
 10
-1125.497357485812
 20
-592.97262939431585
 30
0.0
 11
-1104.4973574858129
 21
-592.97262939431585
 31
0.0
  0
LINE
  5
13D
  8
1
 62
     7
 10
-1125.497357485812
 20
-590.67262939431578
 30
0.0
 11
-1124.997357485812
 21
-590.17262939431578
 31
0.0
  0
LINE
  5
13E
  8
1
 62
     7
 10
-1104.4973574858129
 20
-590.67262939431578
 30
0.0
 11
-1104.997357485812
 21
-590.17262939431578
 31
0.0
  0
LINE
  5
13F
  8
1
 62
     7
 10
-1107.797357485812
 20
-581.77262939431591
 30
0.0
 11
-1107.797357485812
 21
-592.97262939431585
 31
0.0
  0
LINE
  5
140
  8
1
  6
DASHDOT
 62
     3
 10
-1126.856185973319
 20
-598.77262939431591
 30
0.0
 11
-1102.98975883101
 21
-598.77262939431591
 31
0.0
  0
LINE
  5
141
  8
1
 62
     7
 10
-1125.497357485812
 20
-595.52262939431591
 30
0.0
 11
-1104.4973574858129
 21
-595.52262939431591
 31
0.0
  0
LINE
  5
142
  8
1
 62
     7
 10
-1125.497357485812
 20
-602.02262939431591
 30
0.0
 11
-1104.4973574858129
 21
-602.02262939431591
 31
0.0
  0
LINE
  5
143
  8
1
 62
     7
 10
-1138.4973574858129
 20
-613.77262939431591
 30
0.0
 11
-1122.4973574858129
 21
-613.77262939431591
 31
0.0
  0
LINE
  5
144
  8
1
 62
     7
 10
-1138.4973574858129
 20
-617.27262939431591
 30
0.0
 11
-1122.4973574858129
 21
-617.27262939431591
 31
0.0
  0
LINE
  5
145
  8
1
 62
     7
 10
-1117.6973574858121
 20
-579.42750527691862
 30
0.0
 11
-1117.6973574858121
 21
-580.77262939431591
 31
0.0
  0
LINE
  5
146
  8
1
 62
     7
 10
-1117.6973574858121
 20
-580.77262939431591
 30
0.0
 11
-1116.647357485813
 21
-580.77262939431591
 31
0.0
  0
LINE
  5
147
  8
1
 62
     7
 10
-1115.147357485813
 20
-582.2726293943158
 30
0.0
 11
-1115.147357485813
 21
-585.77262939431591
 31
0.0
  0
LINE
  5
148
  8
1
 62
     7
 10
-1114.147357485813
 20
-586.7726293943158
 30
0.0
 11
-1114.147357485813
 21
-592.97262939431585
 31
0.0
  0
LINE
  5
149
  8
1
 62
     7
 10
-1120.750085157717
 20
-582.97262939431596
 30
0.0
 11
-1121.497357485812
 21
-582.97262939431596
 31
0.0
  0
LINE
  5
14A
  8
1
 62
     7
 10
-1116.9546786742631
 20
-588.97262939431585
 30
0.0
 11
-1114.4973574858129
 21
-588.97262939431585
 31
0.0
  0
LINE
  5
14B
  8
1
 62
     7
 10
-1114.4973574858129
 20
-588.97262939431585
 30
0.0
 11
-1114.4973574858129
 21
-590.17262939431578
 31
0.0
  0
LINE
  5
14C
  8
1
 62
     7
 10
-1118.9000406276609
 20
-580.77262939431591
 30
0.0
 11
-1117.6973574858121
 21
-580.77262939431591
 31
0.0
  0
LINE
  5
14D
  8
1
 62
     7
 10
-1126.8973574858121
 20
-670.57262939431575
 30
0.0
 11
-1126.8973574858121
 21
-678.67262939431589
 31
0.0
  0
LINE
  5
14E
  8
1
 62
     7
 10
-1114.4973574858129
 20
-669.37262939431571
 30
0.0
 11
-1114.4973574858129
 21
-670.57262939431575
 31
0.0
  0
LINE
  5
14F
  8
1
 62
     7
 10
-1114.4973574858129
 20
-670.57262939431575
 30
0.0
 11
-1116.9546786742631
 21
-670.57262939431575
 31
0.0
  0
LINE
  5
150
  8
1
 62
     7
 10
-1121.497357485812
 20
-676.57262939431575
 30
0.0
 11
-1120.750085157717
 21
-676.57262939431575
 31
0.0
  0
LINE
  5
151
  8
1
 62
     7
 10
-1114.147357485813
 20
-666.57262939431575
 30
0.0
 11
-1114.147357485813
 21
-672.77262939431557
 31
0.0
  0
LINE
  5
152
  8
1
 62
     7
 10
-1122.4973574858129
 20
-655.77262939431557
 30
0.0
 11
-1122.4973574858129
 21
-603.7726293943158
 31
0.0
  0
LINE
  5
153
  8
1
 62
     3
 10
-1104.4973574858129
 20
-657.52262939431557
 30
0.0
 11
-1125.497357485812
 21
-657.52262939431557
 31
0.0
  0
LINE
  5
154
  8
1
 62
     3
 10
-1104.4973574858129
 20
-664.02262939431569
 30
0.0
 11
-1125.497357485812
 21
-664.02262939431569
 31
0.0
  0
LINE
  5
155
  8
1
  6
DASHDOT
 62
     3
 10
-1103.98975883101
 20
-660.77262939431569
 30
0.0
 11
-1127.856185973319
 21
-660.77262939431569
 31
0.0
  0
LINE
  5
156
  8
1
 62
     7
 10
-1107.797357485812
 20
-666.57262939431575
 30
0.0
 11
-1107.797357485812
 21
-678.79481886613723
 31
0.0
  0
LINE
  5
157
  8
1
 62
     7
 10
-1104.997357485812
 20
-669.37262939431571
 30
0.0
 11
-1104.4973574858129
 21
-668.8726293943156
 31
0.0
  0
LINE
  5
158
  8
1
 62
     7
 10
-1124.997357485812
 20
-669.37262939431571
 30
0.0
 11
-1125.497357485812
 21
-668.8726293943156
 31
0.0
  0
LINE
  5
159
  8
1
 62
     7
 10
-1104.4973574858129
 20
-666.57262939431575
 30
0.0
 11
-1125.497357485812
 21
-666.57262939431575
 31
0.0
  0
LINE
  5
15A
  8
1
 62
     7
 10
-1125.497357485812
 20
-651.77262939431557
 30
0.0
 11
-1122.4973574858129
 21
-651.77262939431557
 31
0.0
  0
LINE
  5
15B
  8
1
 62
     7
 10
-1122.4973574858129
 20
-655.77262939431557
 30
0.0
 11
-1104.4973574858129
 21
-655.77262939431557
 31
0.0
  0
LINE
  5
15C
  8
1
 62
     7
 10
-1104.4973574858129
 20
-668.8726293943156
 30
0.0
 11
-1104.4973574858129
 21
-590.67262939431578
 31
0.0
  0
LINE
  5
15D
  8
1
 62
     7
 10
-1104.997357485812
 20
-669.37262939431571
 30
0.0
 11
-1124.997357485812
 21
-669.37262939431571
 31
0.0
  0
LINE
  5
15E
  8
1
 62
     7
 10
-1121.497357485812
 20
-675.80511307729569
 30
0.0
 11
-1123.297357485812
 21
-675.80511307729569
 31
0.0
  0
LINE
  5
15F
  8
1
 62
     7
 10
-1121.497357485812
 20
-699.77262939431569
 30
0.0
 11
-1122.297357485812
 21
-699.77262939431569
 31
0.0
  0
LINE
  5
160
  8
1
 62
     7
 10
-1121.497357485812
 20
-672.77262939431557
 30
0.0
 11
-1122.297357485812
 21
-672.77262939431557
 31
0.0
  0
LINE
  5
161
  8
1
 62
     7
 10
-1121.497357485812
 20
-674.37262939431571
 30
0.0
 11
-1122.297357485812
 21
-674.37262939431571
 31
0.0
  0
LINE
  5
162
  8
1
 62
     7
 10
-1121.497357485812
 20
-672.77262939431557
 30
0.0
 11
-1121.497357485812
 21
-699.77262939431569
 31
0.0
  0
LINE
  5
163
  8
1
 62
     7
 10
-1126.8973574858121
 20
-674.77262939431569
 30
0.0
 11
-1132.197357485813
 21
-674.77262939431569
 31
0.0
  0
LINE
  5
164
  8
1
 62
     7
 10
-1126.8973574858121
 20
-699.77262939431569
 30
0.0
 11
-1132.197357485813
 21
-699.77262939431569
 31
0.0
  0
LINE
  5
165
  8
1
 62
     7
 10
-1132.197357485813
 20
-699.77262939431569
 30
0.0
 11
-1132.197357485813
 21
-648.77262939431614
 31
0.0
  0
LINE
  5
166
  8
1
 62
     7
 10
-1125.497357485812
 20
-658.27262939431569
 30
0.0
 11
-1104.4973574858129
 21
-658.27262939431569
 31
0.0
  0
LINE
  5
167
  8
1
 62
     7
 10
-1125.497357485812
 20
-663.27262939431557
 30
0.0
 11
-1104.4973574858129
 21
-663.27262939431557
 31
0.0
  0
LINE
  5
168
  8
1
 62
     7
 10
-1118.302482292768
 20
-690.7726293943158
 30
0.0
 11
-1117.107141230762
 21
-690.7726293943158
 31
0.0
  0
LINE
  5
169
  8
1
 62
     7
 10
-1108.797357485812
 20
-679.79481886613723
 30
0.0
 11
-1115.197363702797
 21
-679.79481886613723
 31
0.0
  0
LINE
  5
16A
  8
1
 62
     7
 10
-1132.197357485813
 20
-677.27262939431591
 30
0.0
 11
-1129.397357485813
 21
-677.27262939431591
 31
0.0
  0
LINE
  5
16B
  8
1
 62
     7
 10
-1129.397357485813
 20
-678.67262939431589
 30
0.0
 11
-1125.297357485812
 21
-678.67262939431589
 31
0.0
  0
LINE
  5
16C
  8
1
 62
     7
 10
-1129.397357485813
 20
-681.87262939431582
 30
0.0
 11
-1125.297357485812
 21
-681.87262939431582
 31
0.0
  0
LINE
  5
16D
  8
1
 62
     7
 10
-1132.197357485813
 20
-683.27262939431591
 30
0.0
 11
-1129.397357485813
 21
-683.27262939431591
 31
0.0
  0
LINE
  5
16E
  8
1
 62
     7
 10
-1132.197357485813
 20
-689.27262939431591
 30
0.0
 11
-1129.397357485813
 21
-689.27262939431591
 31
0.0
  0
LINE
  5
16F
  8
1
 62
     7
 10
-1129.397357485813
 20
-690.672629394316
 30
0.0
 11
-1125.297357485812
 21
-690.672629394316
 31
0.0
  0
LINE
  5
170
  8
1
 62
     7
 10
-1129.397357485813
 20
-693.87262939431594
 30
0.0
 11
-1125.297357485812
 21
-693.87262939431594
 31
0.0
  0
LINE
  5
171
  8
1
 62
     7
 10
-1132.197357485813
 20
-695.2726293943158
 30
0.0
 11
-1129.397357485813
 21
-695.2726293943158
 31
0.0
  0
LINE
  5
172
  8
1
 62
     7
 10
-1129.397357485813
 20
-677.27262939431591
 30
0.0
 11
-1129.397357485813
 21
-683.27262939431591
 31
0.0
  0
LINE
  5
173
  8
1
 62
     7
 10
-1129.397357485813
 20
-689.27262939431591
 30
0.0
 11
-1129.397357485813
 21
-695.2726293943158
 31
0.0
  0
LINE
  5
174
  8
1
 62
     7
 10
-1125.297357485812
 20
-689.27262939431591
 30
0.0
 11
-1124.6393632807781
 21
-689.27262939431591
 31
0.0
  0
LINE
  5
175
  8
1
 62
     7
 10
-1124.5974482905281
 20
-683.27262939431591
 30
0.0
 11
-1125.297357485812
 21
-683.27262939431591
 31
0.0
  0
LINE
  5
176
  8
1
 62
     7
 10
-1126.8973574858121
 20
-681.87262939431582
 30
0.0
 11
-1126.8973574858121
 21
-690.672629394316
 31
0.0
  0
LINE
  5
177
  8
1
  6
DASHDOT
 62
     3
 10
-983.00436562646951
 20
-642.77262939431603
 30
0.0
 11
-973.65129126559759
 21
-648.172629394316
 31
0.0
  0
LINE
  5
178
  8
1
  6
DASHDOT
 62
     3
 10
-1037.390760984131
 20
-648.172629394316
 30
0.0
 11
-1028.0376866232609
 21
-642.77262939431603
 31
0.0
  0
LINE
  5
179
  8
1
 62
     7
 10
-1138.4973574858129
 20
-645.77262939431614
 30
0.0
 11
-1122.4973574858129
 21
-645.77262939431614
 31
0.0
  0
LINE
  5
17A
  8
1
 62
     7
 10
-1115.147357485813
 20
-673.77262939431569
 30
0.0
 11
-1115.147357485813
 21
-679.79481886613723
 31
0.0
  0
LINE
  5
17B
  8
1
 62
     7
 10
-1119.4973574858129
 20
-584.29143484309589
 30
0.0
 11
-1119.4973574858129
 21
-587.55021576728996
 31
0.0
  0
LINE
  5
17C
  8
1
 62
     7
 10
-1118.9000406276609
 20
-580.77262939431591
 30
0.0
 11
-1118.9000406276609
 21
-580.27262939431591
 31
0.0
  0
LINE
  5
17D
  8
1
 62
     7
 10
-1120.3997469109399
 20
-581.77262939431591
 30
0.0
 11
-1121.497357485812
 21
-581.77262939431591
 31
0.0
  0
LINE
  5
17E
  8
1
 62
     7
 10
-1120.3997469109399
 20
-677.77262939431569
 30
0.0
 11
-1121.497357485812
 21
-677.77262939431569
 31
0.0
  0
LINE
  5
17F
  8
1
 62
     7
 10
-1119.4973574858129
 20
-671.99504302134164
 30
0.0
 11
-1119.4973574858129
 21
-675.25382394553571
 31
0.0
  0
LINE
  5
180
  8
1
 62
     7
 10
-1124.5974482905281
 20
-677.27262939431591
 30
0.0
 11
-1125.297357485812
 21
-677.27262939431591
 31
0.0
  0
LINE
  5
181
  8
1
 62
     7
 10
-1225.7120575179299
 20
-624.27262939431603
 30
0.0
 11
-1223.11205751793
 21
-624.27262939431603
 31
0.0
  0
LINE
  5
182
  8
1
 62
     7
 10
-1223.11205751793
 20
-635.27262939431603
 30
0.0
 11
-1225.7120575179299
 21
-635.27262939431603
 31
0.0
  0
LINE
  5
183
  8
1
 62
     7
 10
-1221.91205751793
 20
-623.77262939431614
 30
0.0
 11
-1221.36205751793
 21
-623.77262939431614
 31
0.0
  0
LINE
  5
184
  8
1
 62
     7
 10
-1220.86205751793
 20
-678.77262939431614
 30
0.0
 11
-1223.114740659777
 21
-678.77262939431614
 31
0.0
  0
LINE
  5
185
  8
1
 62
     7
 10
-1218.36205751793
 20
-669.37262939431616
 30
0.0
 11
-1218.7120575179299
 21
-669.37262939431582
 31
0.0
  0
LINE
  5
186
  8
1
 62
     7
 10
-1212.0120575179301
 20
-669.37262939431616
 30
0.0
 11
-1209.2123135709301
 21
-669.37262939431616
 31
0.0
  0
LINE
  5
187
  8
1
 62
     7
 10
-1223.11205751793
 20
-690.27262939431614
 30
0.0
 11
-1225.7120575179299
 21
-690.27262939431614
 31
0.0
  0
LINE
  5
188
  8
1
 62
     7
 10
-1223.11205751793
 20
-679.27262939431614
 30
0.0
 11
-1223.11205751793
 21
-690.77262939431614
 31
0.0
  0
LINE
  5
189
  8
1
 62
     7
 10
-1225.7120575179299
 20
-679.27262939431614
 30
0.0
 11
-1223.11205751793
 21
-679.27262939431614
 31
0.0
  0
LINE
  5
18A
  8
1
 62
     7
 10
-1215.4855000736741
 20
-690.77262939431614
 30
0.0
 11
-1221.91205751793
 21
-690.77262939431614
 31
0.0
  0
LINE
  5
18B
  8
1
 62
     7
 10
-1214.41205751793
 20
-689.77671936385411
 30
0.0
 11
-1214.41205751793
 21
-569.76853942477806
 31
0.0
  0
LINE
  5
18C
  8
1
 62
     7
 10
-1221.91205751793
 20
-690.77262939431614
 30
0.0
 11
-1223.11205751793
 21
-690.77262939431614
 31
0.0
  0
LINE
  5
18D
  8
1
 62
     7
 10
-1221.91205751793
 20
-690.77262939431614
 30
0.0
 11
-1221.91205751793
 21
-678.77262939431614
 31
0.0
  0
LINE
  5
18E
  8
1
 62
     7
 10
-1209.2123135709301
 20
-669.37262939431616
 30
0.0
 11
-1208.7123135709301
 21
-668.87262939431582
 31
0.0
  0
LINE
  5
18F
  8
1
 62
     7
 10
-1219.36205751793
 20
-673.77262939431614
 30
0.0
 11
-1219.36205751793
 21
-677.27262939431614
 31
0.0
  0
LINE
  5
190
  8
1
 62
     7
 10
-1218.7120575179299
 20
-670.57262939431621
 30
0.0
 11
-1221.1693787063809
 21
-670.57262939431621
 31
0.0
  0
LINE
  5
191
  8
1
 62
     7
 10
-1218.7120575179299
 20
-669.37262939431582
 30
0.0
 11
-1218.7120575179299
 21
-670.57262939431621
 31
0.0
  0
LINE
  5
192
  8
1
 62
     7
 10
-1223.114740659777
 20
-679.27262939431614
 30
0.0
 11
-1223.114740659777
 21
-678.77262939431614
 31
0.0
  0
LINE
  5
193
  8
1
 62
     7
 10
-1225.7120575179299
 20
-677.77262939431614
 30
0.0
 11
-1224.6144469430569
 21
-677.77262939431614
 31
0.0
  0
LINE
  5
194
  8
1
 62
     7
 10
-1223.114740659777
 20
-678.77262939431614
 30
0.0
 11
-1221.91205751793
 21
-623.77262939431614
 31
0.0
  0
LINE
  5
195
  8
1
 62
     7
 10
-1221.915027455457
 20
-678.79886348242314
 30
0.0
 11
-1220.710203334474
 21
-623.7009541924748
 31
0.0
  0
LINE
  5
196
  8
1
  6
DASHDOT
 62
     3
 10
-1381.988026671625
 20
-545.41295781039378
 30
0.0
 11
-1381.988026671625
 21
-554.13230097823828
 31
0.0
  0
LINE
  5
197
  8
1
  6
DASHDOT
 62
     3
 10
-1377.6283550877019
 20
-549.77262939431603
 30
0.0
 11
-1386.347698255546
 21
-549.77262939431603
 31
0.0
  0
LINE
  5
198
  8
1
 62
     7
 10
-1388.988026671625
 20
-656.86803707936463
 30
0.0
 11
-1386.488026671625
 21
-656.86803707936463
 31
0.0
  0
LINE
  5
199
  8
1
 62
     7
 10
-1386.488026671625
 20
-656.86803707936463
 30
0.0
 11
-1386.488026671625
 21
-651.81803707936479
 31
0.0
  0
LINE
  5
19A
  8
1
 62
     7
 10
-1391.488026671625
 20
-654.36803707936463
 30
0.0
 11
-1391.488026671625
 21
-651.28512597265808
 31
0.0
  0
LINE
  5
19B
  8
1
 62
     7
 10
-1389.988026671625
 20
-566.77262939431603
 30
0.0
 11
-1389.988026671625
 21
-545.77262939431603
 31
0.0
  0
LINE
  5
19C
  8
1
 62
     7
 10
-1392.988026671625
 20
-568.77262939431603
 30
0.0
 11
-1391.988026671625
 21
-568.77262939431603
 31
0.0
  0
LINE
  5
19D
  8
1
 62
     7
 10
-1394.988026671625
 20
-578.77262939431603
 30
0.0
 11
-1394.988026671625
 21
-570.77262939431603
 31
0.0
  0
LINE
  5
19E
  8
1
 62
     7
 10
-1394.988026671625
 20
-578.77262939431603
 30
0.0
 11
-1368.988026671625
 21
-578.77262939431603
 31
0.0
  0
LINE
  5
19F
  8
1
 62
     7
 10
-1385.488026671625
 20
-614.27262939431603
 30
0.0
 11
-1378.488026671625
 21
-614.27262939431603
 31
0.0
  0
LINE
  5
1A0
  8
1
 62
     7
 10
-1385.488026671625
 20
-617.77262939431603
 30
0.0
 11
-1385.488026671625
 21
-614.27262939431603
 31
0.0
  0
LINE
  5
1A1
  8
1
 62
     7
 10
-1377.488026671625
 20
-656.86803707936463
 30
0.0
 11
-1374.988026671625
 21
-656.86803707936463
 31
0.0
  0
LINE
  5
1A2
  8
1
 62
     7
 10
-1377.488026671625
 20
-651.81803707936479
 30
0.0
 11
-1377.488026671625
 21
-656.86803707936463
 31
0.0
  0
LINE
  5
1A3
  8
1
 62
     7
 10
-1372.488026671625
 20
-651.28512597265808
 30
0.0
 11
-1372.488026671625
 21
-654.36803707936463
 31
0.0
  0
LINE
  5
1A4
  8
1
 62
     7
 10
-1373.988026671625
 20
-545.77262939431603
 30
0.0
 11
-1373.988026671625
 21
-566.77262939431603
 31
0.0
  0
LINE
  5
1A5
  8
1
 62
     7
 10
-1371.988026671625
 20
-568.77262939431603
 30
0.0
 11
-1370.988026671625
 21
-568.77262939431603
 31
0.0
  0
LINE
  5
1A6
  8
1
 62
     7
 10
-1368.988026671625
 20
-570.77262939431603
 30
0.0
 11
-1368.988026671625
 21
-578.77262939431603
 31
0.0
  0
LINE
  5
1A7
  8
1
 62
     7
 10
-1378.488026671625
 20
-614.27262939431603
 30
0.0
 11
-1378.488026671625
 21
-617.77262939431603
 31
0.0
  0
LINE
  5
1A8
  8
1
 62
     7
 10
-1169.497357485812
 20
-543.77262939431591
 30
0.0
 11
-1171.4978155344591
 21
-543.77262939431591
 31
0.0
  0
LINE
  5
1A9
  8
1
 62
     7
 10
-1275.7125155665769
 20
-578.77262939431614
 30
0.0
 11
-1273.7120575179299
 21
-578.77262939431614
 31
0.0
  0
LINE
  5
1AA
  8
1
 62
     7
 10
-1275.7125155665769
 20
-543.77262939431614
 30
0.0
 11
-1273.7120575179299
 21
-543.77262939431614
 31
0.0
  0
LINE
  5
1AB
  8
1
  6
DASHDOT
 62
     3
 10
-1104.4973574858129
 20
-629.77262939431591
 30
0.0
 11
-1100.5646355690189
 21
-629.77262939431591
 31
0.0
  0
LINE
  5
1AC
  8
1
  6
DASHDOT
 62
     3
 10
-1208.7123135709301
 20
-629.77262939431591
 30
0.0
 11
-1204.987455923809
 21
-629.77262939431591
 31
0.0
  0
LINE
  5
1AD
  8
1
 62
     7
 10
-1212.0120575179301
 20
-581.77262939431591
 30
0.0
 11
-1213.8262710803031
 21
-579.95841583194272
 31
0.0
  0
LINE
  5
1AE
  8
1
 62
     7
 10
-1212.0120575179301
 20
-581.77262939431591
 30
0.0
 11
-1212.0120575179301
 21
-677.77262939431591
 31
0.0
  0
LINE
  5
1AF
  8
1
 62
     7
 10
-1213.8262710803031
 20
-679.586842956689
 30
0.0
 11
-1212.0120575179301
 21
-677.77262939431591
 31
0.0
  0
ARC
  5
1B0
  8
1
 62
     7
 10
-996.96967137546039
 20
-683.59757093585256
 30
0.0
 40
8.5000000000001172
 50
17.999999999999019
 51
32.866521461405171
  0
ARC
  5
1B1
  8
1
 62
     7
 10
-951.69608458332834
 20
-621.22127464491132
 30
0.0
 40
8.5000000000000444
 50
108.0
 51
122.8665214614084
  0
ARC
  5
1B2
  8
1
 62
     7
 10
-1014.072380874269
 20
-575.94768785277915
 30
0.0
 40
8.4999999999991829
 50
198.00000000000179
 51
212.8665214614096
  0
ARC
  5
1B3
  8
1
 62
     7
 10
-1126.4243734400461
 20
-571.42262939431578
 30
0.0
 40
1.8999999999999759
 50
90.0
 51
163.92714083117261
  0
ARC
  5
1B4
  8
1
 62
     7
 10
-1126.4243734400461
 20
-578.12262939431582
 30
0.0
 40
1.8999999999994179
 50
196.07285916882739
 51
270.0
  0
ARC
  5
1B5
  8
1
 62
     7
 10
-1125.197357485813
 20
-569.82262939431575
 30
0.0
 40
0.2999999999999545
 50
0.0
 51
90.0
  0
ARC
  5
1B6
  8
1
 62
     7
 10
-1125.197357485813
 20
-579.72262939431596
 30
0.0
 40
0.2999999999999545
 50
270.0
 51
0.0
  0
ARC
  5
1B7
  8
1
 62
     7
 10
-1221.36205751793
 20
-638.77262939431603
 30
0.0
 40
3.0
 50
0.0
 51
90.0
  0
ARC
  5
1B8
  8
1
 62
     7
 10
-1221.36205751793
 20
-620.77262939431614
 30
0.0
 40
3.0
 50
270.0
 51
0.0
  0
ARC
  5
1B9
  8
1
 62
     7
 10
-1388.988026671625
 20
-654.36803707936463
 30
0.0
 40
2.5
 50
180.0
 51
270.0
  0
ARC
  5
1BA
  8
1
 62
     7
 10
-1374.988026671625
 20
-654.36803707936463
 30
0.0
 40
2.5
 50
270.0
 51
0.0
  0
ARC
  5
1BB
  8
1
 62
     7
 10
-1221.1951242931229
 20
-587.65082222430328
 30
0.0
 40
1.3220578769229121
 50
185.04643841112181
 51
210.1410463343864
  0
ARC
  5
1BC
  8
1
 62
     7
 10
-1215.384872831215
 20
-569.74062877259314
 30
0.0
 40
0.9732156175632999
 50
358.35660069834489
 51
95.934799026242004
  0
ARC
  5
1BD
  8
1
 62
     7
 10
-1219.197730406542
 20
-586.60208952364985
 30
0.0
 40
0.8455811644611738
 50
351.2202122583858
 51
101.2059544620834
  0
ARC
  5
1BE
  8
1
 62
     7
 10
-1225.2165651497301
 20
-584.45500075863356
 30
0.0
 40
2.7491203085565958
 50
10.91539914991202
 51
77.348395062926556
  0
ARC
  5
1BF
  8
1
 62
     7
 10
-1065.8913902679319
 20
-613.59643907540851
 30
0.0
 40
3.500000000000373
 50
48.164623388222942
 51
270.0
  0
ARC
  5
1C0
  8
1
 62
     7
 10
-1065.8913902679301
 20
-613.59643907540817
 30
0.0
 40
3.5000000000003411
 50
270.0
 51
281.83537661173932
  0
ARC
  5
1C1
  8
1
 62
     7
 10
-1064.341203812465
 20
-603.1189738535677
 30
0.0
 40
14.5773230854739
 50
295.27621950513992
 51
335.62291514927409
  0
ARC
  5
1C2
  8
1
 62
     7
 10
-1051.521026124864
 20
-629.77262939431603
 30
0.0
 40
15.000000000000069
 50
116.0865045196107
 51
180.0
  0
ARC
  5
1C3
  8
1
 62
     7
 10
-989.34483580595759
 20
-569.40226525124922
 30
0.0
 40
3.499999999999984
 50
318.16462338822708
 51
180.0
  0
ARC
  5
1C4
  8
1
 62
     7
 10
-989.34483580595759
 20
-569.40226525124922
 30
0.0
 40
3.5
 50
180.0
 51
191.83537661177289
  0
ARC
  5
1C5
  8
1
 62
     7
 10
-961.3268523007057
 20
-585.57845557015685
 30
0.0
 40
3.4999999999999081
 50
288.16462338822907
 51
161.83537661177081
  0
ARC
  5
1C6
  8
1
 62
     7
 10
-945.15066198179829
 20
-645.94881971322354
 30
0.0
 40
3.4999999999999929
 50
228.16462338822981
 51
101.83537661176889
  0
ARC
  5
1C7
  8
1
 62
     7
 10
-961.3268523007057
 20
-673.96680321847532
 30
0.0
 40
3.4999999999999432
 50
198.16462338823081
 51
71.835376611769149
  0
ARC
  5
1C8
  8
1
 62
     7
 10
-1021.697216443773
 20
-690.14299353738284
 30
0.0
 40
3.5
 50
180.0
 51
11.8353766117674
  0
ARC
  5
1C9
  8
1
 62
     7
 10
-1021.697216443773
 20
-690.14299353738284
 30
0.0
 40
3.4999999999996541
 50
138.1646233882249
 51
180.0
  0
ARC
  5
1CA
  8
1
 62
     7
 10
-1049.7151999490241
 20
-673.96680321847532
 30
0.0
 40
3.5
 50
180.0
 51
341.83537661176558
  0
ARC
  5
1CB
  8
1
 62
     7
 10
-1049.7151999490241
 20
-673.96680321847532
 30
0.0
 40
3.4999999999998712
 50
108.1646233882272
 51
180.0
  0
ARC
  5
1CC
  8
1
 62
     7
 10
-1065.8913902679319
 20
-613.59643907540851
 30
0.0
 40
3.500000000000373
 50
48.164623388222942
 51
281.8353766117695
  0
ARC
  5
1CD
  8
1
 62
     7
 10
-1049.7151999490241
 20
-585.57845557015685
 30
0.0
 40
3.4999999999996181
 50
18.16462338823262
 51
251.83537661177141
  0
ARC
  5
1CE
  8
1
 62
     7
 10
-1064.341203812465
 20
-656.42628493506447
 30
0.0
 40
14.57732308547444
 50
24.37708485072487
 51
48.768027589865952
  0
ARC
  5
1CF
  8
1
 62
     7
 10
-1005.521026124865
 20
-629.77262939431603
 30
0.0
 40
61.000000000000007
 50
288.00000000000011
 51
0.0
  0
ARC
  5
1D0
  8
1
 62
     7
 10
-1005.521026124865
 20
-629.77262939431603
 30
0.0
 40
61.00000000000022
 50
18.00000000000005
 51
90.0
  0
ARC
  5
1D1
  8
1
 62
     7
 10
-1005.521026124865
 20
-629.77262939431603
 30
0.0
 40
61.000000000000263
 50
108.0
 51
180.0
  0
ARC
  5
1D2
  8
1
 62
     7
 10
-1005.521026124865
 20
-629.77262939431603
 30
0.0
 40
60.999999999999623
 50
198.0
 51
270.0
  0
ARC
  5
1D3
  8
1
 62
     7
 10
-1161.497357485812
 20
-659.77262939431557
 30
0.0
 40
4.499999999999976
 50
59.999999999999822
 51
120.0000000000002
  0
ARC
  5
1D4
  8
1
 62
     7
 10
-1161.497357485812
 20
-659.77262939431557
 30
0.0
 40
4.499999999999976
 50
120.0000000000002
 51
239.9999999999998
  0
ARC
  5
1D5
  8
1
 62
     7
 10
-1161.497357485812
 20
-659.77262939431557
 30
0.0
 40
4.499999999999976
 50
300.00000000000011
 51
59.999999999999822
  0
ARC
  5
1D6
  8
1
 62
     7
 10
-1161.497357485812
 20
-659.77262939431557
 30
0.0
 40
4.499999999999976
 50
239.9999999999998
 51
300.00000000000011
  0
ARC
  5
1D7
  8
1
 62
     7
 10
-1161.497357485812
 20
-599.77262939431591
 30
0.0
 40
4.499999999999976
 50
59.999999999999822
 51
120.0000000000002
  0
ARC
  5
1D8
  8
1
 62
     7
 10
-1161.497357485812
 20
-599.77262939431591
 30
0.0
 40
4.499999999999976
 50
300.00000000000011
 51
59.999999999999822
  0
ARC
  5
1D9
  8
1
 62
     7
 10
-1161.497357485812
 20
-599.77262939431591
 30
0.0
 40
4.499999999999976
 50
120.0000000000002
 51
239.9999999999998
  0
ARC
  5
1DA
  8
1
 62
     7
 10
-1161.497357485812
 20
-599.77262939431591
 30
0.0
 40
4.499999999999976
 50
239.9999999999998
 51
300.00000000000011
  0
ARC
  5
1DB
  8
1
 62
     7
 10
-1032.1746816656121
 20
-570.95245170671615
 30
0.0
 40
14.577323085473751
 50
294.37708485072312
 51
334.72378049485962
  0
ARC
  5
1DC
  8
1
 62
     7
 10
-1005.521026124865
 20
-583.77262939431603
 30
0.0
 40
15.00000000000011
 50
90.0
 51
153.91349548038889
  0
ARC
  5
1DD
  8
1
 62
     7
 10
-978.8673705841162
 20
-570.95245170671615
 30
0.0
 40
14.5773230854739
 50
205.27621950514001
 51
245.62291514927409
  0
ARC
  5
1DE
  8
1
 62
     7
 10
-1005.521026124865
 20
-583.77262939431603
 30
0.0
 40
15.000000000000069
 50
26.08650451961072
 51
90.0
  0
ARC
  5
1DF
  8
1
 62
     7
 10
-1051.521026124864
 20
-629.77262939431603
 30
0.0
 40
15.0
 50
180.0
 51
243.91349548038991
  0
ARC
  5
1E0
  8
1
 62
     7
 10
-1064.341203812465
 20
-656.42628493506447
 30
0.0
 40
14.57732308547361
 50
48.768027589865952
 51
64.723780494859383
  0
ARC
  5
1E1
  8
1
 62
     7
 10
-1005.521026124865
 20
-675.77262939431614
 30
0.0
 40
14.999999999999851
 50
206.08650451961111
 51
270.0
  0
ARC
  5
1E2
  8
1
 62
     7
 10
-1032.1746816656139
 20
-688.59280708191602
 30
0.0
 40
14.57732308547452
 50
25.276219505138879
 51
65.622915149273396
  0
ARC
  5
1E3
  8
1
 62
     7
 10
-1005.521026124865
 20
-675.77262939431614
 30
0.0
 40
15.0
 50
270.0
 51
333.9134954803888
  0
ARC
  5
1E4
  8
1
 62
     7
 10
-978.86737058411666
 20
-688.59280708191602
 30
0.0
 40
14.577323085474021
 50
114.3770848507255
 51
154.72378049486011
  0
ARC
  5
1E5
  8
1
 62
     7
 10
-959.52102612486465
 20
-629.77262939431614
 30
0.0
 40
15.000000000000069
 50
296.08650451961063
 51
0.0
  0
ARC
  5
1E6
  8
1
 62
     7
 10
-946.70084843726499
 20
-656.42628493506459
 30
0.0
 40
14.5773230854739
 50
115.27621950513991
 51
155.62291514927409
  0
ARC
  5
1E7
  8
1
 62
     7
 10
-959.52102612486465
 20
-629.77262939431614
 30
0.0
 40
15.0
 50
0.0
 51
63.913495480389102
  0
ARC
  5
1E8
  8
1
 62
     7
 10
-946.70084843726499
 20
-603.1189738535677
 30
0.0
 40
14.577323085474021
 50
204.37708485072551
 51
244.72378049486011
  0
ARC
  5
1E9
  8
1
 62
     7
 10
-1114.797357485812
 20
-574.7726293943158
 30
0.0
 40
13.99999999999984
 50
163.9271408311771
 51
196.07285916882279
  0
ARC
  5
1EA
  8
1
 62
     7
 10
-1111.170172799099
 20
-569.74062877259303
 30
0.0
 40
0.9732156175632999
 50
358.35660069834489
 51
95.934799026242004
  0
ARC
  5
1EB
  8
1
 62
     7
 10
-1120.9993027141361
 20
-584.4589140618142
 30
0.0
 40
2.75237942078923
 50
10.98528721950666
 51
77.418283132513238
  0
ARC
  5
1EC
  8
1
 62
     7
 10
-1116.9804242610051
 20
-587.65082222430306
 30
0.0
 40
1.3220578769229121
 50
185.04643841112181
 51
271.11584124873661
  0
ARC
  5
1ED
  8
1
 62
     7
 10
-1120.807540268499
 20
-584.28158882014202
 30
0.0
 40
1.3102197785925149
 50
359.56943035111777
 51
87.486687830966574
  0
ARC
  5
1EE
  8
1
 62
     7
 10
-1116.629522487937
 20
-587.31657071020891
 30
0.0
 40
2.8773368915961428
 50
184.65765101493679
 51
263.02767224313902
  0
ARC
  5
1EF
  8
1
 62
     7
 10
-1116.629522487937
 20
-672.22868807842281
 30
0.0
 40
2.877336891596558
 50
96.972327756859841
 51
175.3423489850631
  0
ARC
  5
1F0
  8
1
 62
     7
 10
-1120.807540268499
 20
-675.26366996848981
 30
0.0
 40
1.3102197785920751
 50
272.51331216903333
 51
0.4305696488820743
  0
ARC
  5
1F1
  8
1
 62
     7
 10
-1116.9804242610051
 20
-671.89443656432866
 30
0.0
 40
1.322057876922909
 50
88.884158751263456
 51
174.9535615888781
  0
ARC
  5
1F2
  8
1
 62
     7
 10
-1128.6147663827769
 20
-680.27262939431591
 30
0.0
 40
5.0138652409403548
 50
323.24884359561429
 51
36.751156404385682
  0
ARC
  5
1F3
  8
1
 62
     7
 10
-1128.4268490440249
 20
-692.27262939431591
 30
0.0
 40
4.8316713885360389
 50
321.61788246438982
 51
38.382117535610213
  0
ARC
  5
1F4
  8
1
 62
     7
 10
-1121.0018651176131
 20
-675.09025802999827
 30
0.0
 40
2.749120308556646
 50
282.65160493707327
 51
349.08460085009477
  0
ARC
  5
1F5
  8
1
 62
     7
 10
-1215.384872831215
 20
-689.80463001603903
 30
0.0
 40
0.973215617563552
 50
264.06520097375801
 51
1.643399301655099
  0
ARC
  5
1F6
  8
1
 62
     7
 10
-1225.2165651497301
 20
-675.09025802999838
 30
0.0
 40
2.749120308556646
 50
282.65160493707327
 51
321.27476092277237
  0
ARC
  5
1F7
  8
1
 62
     7
 10
-1221.1951242931229
 20
-671.894436564329
 30
0.0
 40
1.322057876922909
 50
88.884158751263456
 51
114.2294414856114
  0
ARC
  5
1F8
  8
1
 62
     7
 10
-1381.988026671625
 20
-629.77262939431603
 30
0.0
 40
69.999999999999829
 50
76.63724507777772
 51
83.437572131365826
  0
ARC
  5
1F9
  8
1
 62
     7
 10
-1381.988026671625
 20
-628.45262939431598
 30
0.0
 40
24.730000000000071
 50
292.59090733090011
 51
247.40909266909989
  0
ARC
  5
1FA
  8
1
 62
     7
 10
-1387.988026671625
 20
-545.77262939431603
 30
0.0
 40
2.0
 50
90.0
 51
180.0
  0
ARC
  5
1FB
  8
1
 62
     7
 10
-1391.988026671625
 20
-566.77262939431603
 30
0.0
 40
2.0
 50
270.0
 51
0.0
  0
ARC
  5
1FC
  8
1
 62
     7
 10
-1392.988026671625
 20
-570.77262939431603
 30
0.0
 40
2.0
 50
90.0
 51
180.0
  0
ARC
  5
1FD
  8
1
 62
     7
 10
-1381.988026671625
 20
-549.77262939431603
 30
0.0
 40
2.75
 50
90.0
 51
180.0
  0
ARC
  5
1FE
  8
1
 62
     7
 10
-1381.988026671625
 20
-629.77262939431603
 30
0.0
 40
12.5
 50
106.260204708312
 51
73.739795291688054
  0
ARC
  5
1FF
  8
1
 62
     7
 10
-1381.988026671625
 20
-549.77262939431603
 30
0.0
 40
2.75
 50
180.0
 51
270.0
  0
ARC
  5
200
  8
1
 62
     7
 10
-1375.988026671625
 20
-545.77262939431603
 30
0.0
 40
2.0
 50
0.0
 51
90.0
  0
ARC
  5
201
  8
1
 62
     7
 10
-1371.988026671625
 20
-566.77262939431603
 30
0.0
 40
2.0
 50
180.0
 51
270.0
  0
ARC
  5
202
  8
1
 62
     7
 10
-1370.988026671625
 20
-570.77262939431603
 30
0.0
 40
2.0
 50
0.0
 51
90.0
  0
ARC
  5
203
  8
1
 62
     7
 10
-1381.988026671625
 20
-549.77262939431603
 30
0.0
 40
2.75
 50
0.0
 51
90.0
  0
ARC
  5
204
  8
1
 62
     7
 10
-1381.988026671625
 20
-549.77262939431603
 30
0.0
 40
2.75
 50
270.0
 51
0.0
  0
ARC
  5
205
  8
1
 62
     7
 10
-1381.988026671625
 20
-629.77262939431603
 30
0.0
 40
70.000000000000028
 50
96.562427868634146
 51
73.362754922221555
  0
ARC
  5
206
  8
1
 62
     7
 10
-1381.988026671625
 20
-629.77262939431603
 30
0.0
 40
66.499999999999943
 50
96.909460136087233
 51
83.090539863912781
  0
ARC
  5
207
  8
1
  6
DASHDOT
 62
     3
 10
-1005.521026124865
 20
-629.77262939431603
 30
0.0
 40
31.000000000000188
 50
80.185601290945087
 51
99.515229727489256
  0
ARC
  5
208
  8
1
  6
DASHDOT
 62
     3
 10
-1005.521026124865
 20
-629.77262939431603
 30
0.0
 40
30.999999999999979
 50
140.1856012909455
 51
159.51522972748899
  0
ARC
  5
209
  8
1
  6
DASHDOT
 62
     3
 10
-1005.521026124865
 20
-629.77262939431603
 30
0.0
 40
31.000000000000369
 50
200.18560129094541
 51
219.5152297274893
  0
ARC
  5
20A
  8
1
  6
DASHDOT
 62
     3
 10
-1005.521026124865
 20
-629.77262939431603
 30
0.0
 40
31.000000000000298
 50
260.1856012909451
 51
279.51522972748887
  0
ARC
  5
20B
  8
1
  6
DASHDOT
 62
     3
 10
-1005.521026124865
 20
-629.77262939431603
 30
0.0
 40
31.00000000000032
 50
320.18560129094573
 51
339.51522972748887
  0
ARC
  5
20C
  8
1
  6
DASHDOT
 62
     3
 10
-1005.521026124865
 20
-629.77262939431603
 30
0.0
 40
31.000000000000369
 50
20.185601290945549
 51
39.51522972748888
  0
CIRCLE
  5
20D
  8
1
 62
     7
 10
-1005.521026124865
 20
-629.77262939431603
 30
0.0
 40
69.999999999999773
  0
CIRCLE
  5
20E
  8
1
 62
     7
 10
-1005.521026124865
 20
-549.7726293943158
 30
0.0
 40
2.75
  0
CIRCLE
  5
20F
  8
1
 62
     7
 10
-1060.521026124864
 20
-629.77262939431603
 30
0.0
 40
3.0
  0
CIRCLE
  5
210
  8
1
 62
     7
 10
-1060.521026124864
 20
-629.77262939431603
 30
0.0
 40
2.0
  0
CIRCLE
  5
211
  8
1
 62
     7
 10
-945.15066198179829
 20
-613.59643907540851
 30
0.0
 40
3.5
  0
CIRCLE
  5
212
  8
1
 62
     7
 10
-989.34483580595759
 20
-690.14299353738284
 30
0.0
 40
3.5
  0
CIRCLE
  5
213
  8
1
 62
     7
 10
-1065.8913902679319
 20
-645.94881971322354
 30
0.0
 40
3.5
  0
CIRCLE
  5
214
  8
1
 62
     7
 10
-1021.697216443773
 20
-569.40226525124922
 30
0.0
 40
3.5
  0
CIRCLE
  5
215
  8
1
 62
     7
 10
-1005.521026124865
 20
-629.77262939431603
 30
0.0
 40
50.0
  0
CIRCLE
  5
216
  8
1
 62
     7
 10
-1005.521026124865
 20
-574.77262939431603
 30
0.0
 40
3.0
  0
CIRCLE
  5
217
  8
1
 62
     7
 10
-1005.521026124865
 20
-574.77262939431603
 30
0.0
 40
2.0
  0
CIRCLE
  5
218
  8
1
 62
     7
 10
-1060.521026124864
 20
-629.77262939431603
 30
0.0
 40
2.0
  0
CIRCLE
  5
219
  8
1
 62
     7
 10
-1060.521026124864
 20
-629.77262939431603
 30
0.0
 40
3.0
  0
CIRCLE
  5
21A
  8
1
 62
     7
 10
-1005.521026124865
 20
-684.77262939431614
 30
0.0
 40
2.0
  0
CIRCLE
  5
21B
  8
1
 62
     7
 10
-1005.521026124865
 20
-684.77262939431614
 30
0.0
 40
3.0
  0
CIRCLE
  5
21C
  8
1
 62
     7
 10
-950.52102612486465
 20
-629.77262939431614
 30
0.0
 40
2.0
  0
CIRCLE
  5
21D
  8
1
 62
     7
 10
-950.52102612486465
 20
-629.77262939431614
 30
0.0
 40
3.0
  0
CIRCLE
  5
21E
  8
1
 62
     7
 10
-1005.521026124865
 20
-629.77262939431603
 30
0.0
 40
22.0
  0
CIRCLE
  5
21F
  8
1
 62
     7
 10
-1005.521026124865
 20
-629.77262939431603
 30
0.0
 40
26.0
  0
CIRCLE
  5
220
  8
1
 62
     7
 10
-1005.521026124865
 20
-629.77262939431603
 30
0.0
 40
39.600000000000023
  0
CIRCLE
  5
221
  8
1
 62
     3
 10
-1005.521026124865
 20
-629.77262939431603
 30
0.0
 40
36.800000000000061
  0
CIRCLE
  5
222
  8
1
 62
     7
 10
-1005.521026124865
 20
-598.77262939431603
 30
0.0
 40
3.25
  0
CIRCLE
  5
223
  8
1
 62
     3
 10
-978.67423860754718
 20
-614.27262939431603
 30
0.0
 40
3.0
  0
CIRCLE
  5
224
  8
1
 62
     7
 10
-978.67423860754718
 20
-614.27262939431603
 30
0.0
 40
2.0
  0
CIRCLE
  5
225
  8
1
 62
     7
 10
-1032.3678136421829
 20
-645.27262939431603
 30
0.0
 40
3.25
  0
CIRCLE
  5
226
  8
1
 62
     7
 10
-978.67423860754718
 20
-645.2726293943158
 30
0.0
 40
3.25
  0
CIRCLE
  5
227
  8
1
 62
     3
 10
-1032.3678136421829
 20
-614.27262939431603
 30
0.0
 40
3.0
  0
CIRCLE
  5
228
  8
1
 62
     3
 10
-1005.521026124865
 20
-660.77262939431591
 30
0.0
 40
3.0
  0
CIRCLE
  5
229
  8
1
 62
     7
 10
-1032.3678136421829
 20
-614.27262939431603
 30
0.0
 40
2.0
  0
CIRCLE
  5
22A
  8
1
 62
     7
 10
-1005.521026124865
 20
-660.77262939431591
 30
0.0
 40
2.0
  0
CIRCLE
  5
22B
  8
1
 62
     7
 10
-1005.521026124865
 20
-629.77262939431603
 30
0.0
 40
67.000000000000085
  0
CIRCLE
  5
22C
  8
1
 62
     7
 10
-1005.521026124865
 20
-629.77262939431603
 30
0.0
 40
68.399999999999977
  0
CIRCLE
  5
22D
  8
1
 62
     7
 10
-1005.521026124865
 20
-629.77262939431603
 30
0.0
 40
12.500000000000229
  0
CIRCLE
  5
22E
  8
1
 62
     7
 10
-1005.521026124865
 20
-629.77262939431603
 30
0.0
 40
16.0
  0
CIRCLE
  5
22F
  8
1
  6
DASHDOT
 62
     3
 10
-1005.521026124865
 20
-629.77262939431603
 30
0.0
 40
38.167665672412788
  0
CIRCLE
  5
230
  8
1
 62
     7
 10
-1388.988026671625
 20
-654.34303707936476
 30
0.0
 40
1.25
  0
CIRCLE
  5
231
  8
1
 62
     7
 10
-1374.988026671625
 20
-654.34303707936476
 30
0.0
 40
1.25
  0
CIRCLE
  5
232
  8
1
 62
     7
 10
-1381.988026671625
 20
-629.77262939431603
 30
0.0
 40
50.0
  0
CIRCLE
  5
233
  8
1
 62
     7
 10
-1381.988026671625
 20
-629.77262939431603
 30
0.0
 40
22.5
  0
CIRCLE
  5
234
  8
1
 62
     7
 10
-1381.988026671625
 20
-629.77262939431603
 30
0.0
 40
32.499999999999091
  0
ARC
  5
235
  8
1
 62
     7
 10
-1229.578315842356
 20
-561.91649357256199
 30
0.0
 40
0.5000000000000485
 50
280.74879242990551
 51
351.53874440235018
  0
ARC
  5
236
  8
1
 62
     7
 10
-1229.11205751793
 20
-564.37262939431605
 30
0.0
 40
1.99999999999996
 50
100.7487924299399
 51
180.0
  0
ARC
  5
237
  8
1
 62
     7
 10
-1226.5120575179301
 20
-562.37262939431605
 30
0.0
 40
2.6000000000000218
 50
90.0
 51
171.53874440235191
  0
ARC
  5
238
  8
1
 62
     7
 10
-1229.578315842356
 20
-697.62876521606995
 30
0.0
 40
0.4999999999996509
 50
8.4612555976498722
 51
79.251207570094451
  0
ARC
  5
239
  8
1
 62
     7
 10
-1229.11205751793
 20
-695.172629394316
 30
0.0
 40
2.0
 50
180.0
 51
259.2512075700601
  0
ARC
  5
23A
  8
1
 62
     7
 10
-1226.5120575179301
 20
-697.17262939431589
 30
0.0
 40
2.600000000000104
 50
188.46125559764809
 51
270.0
  0
ARC
  5
23B
  8
1
 62
     7
 10
-1125.197357485813
 20
-697.17262939431589
 30
0.0
 40
1.8999999999998629
 50
0.0
 51
90.0
  0
ARC
  5
23C
  8
1
 62
     7
 10
-1125.363615810239
 20
-697.62876521606984
 30
0.0
 40
0.4999999999996509
 50
8.4612555976498722
 51
79.251207570094451
  0
ARC
  5
23D
  8
1
 62
     7
 10
-1124.8973574858121
 20
-695.17262939431566
 30
0.0
 40
2.0
 50
180.0
 51
259.2512075700601
  0
ARC
  5
23E
  8
1
 62
     7
 10
-1122.297357485812
 20
-697.17262939431578
 30
0.0
 40
1.0
 50
180.0
 51
270.0
  0
ARC
  5
23F
  8
1
 62
     7
 10
-1122.297357485812
 20
-697.17262939431578
 30
0.0
 40
2.600000000000104
 50
188.46125559764809
 51
270.0
  0
ARC
  5
240
  8
1
 62
     7
 10
-1125.197357485813
 20
-675.37262939431582
 30
0.0
 40
1.8999999999999759
 50
270.0
 51
0.0
  0
ARC
  5
241
  8
1
 62
     7
 10
-1125.363615810239
 20
-674.91649357256165
 30
0.0
 40
0.5000000000000485
 50
280.74879242990551
 51
351.53874440235018
  0
ARC
  5
242
  8
1
 62
     7
 10
-1124.8973574858121
 20
-677.3726293943156
 30
0.0
 40
1.99999999999996
 50
100.7487924299399
 51
180.0
  0
ARC
  5
243
  8
1
 62
     7
 10
-1122.297357485812
 20
-675.37262939431571
 30
0.0
 40
2.6000000000000218
 50
90.0
 51
171.53874440235191
  0
ARC
  5
244
  8
1
 62
     7
 10
-1122.297357485812
 20
-675.37262939431571
 30
0.0
 40
1.0
 50
90.0
 51
180.0
  0
ARC
  5
245
  8
1
 62
     7
 10
-1125.363615810239
 20
-584.62876521606995
 30
0.0
 40
0.4999999999996509
 50
8.4612555976498722
 51
79.251207570094451
  0
ARC
  5
246
  8
1
 62
     7
 10
-1124.8973574858121
 20
-582.17262939431578
 30
0.0
 40
2.0
 50
180.0
 51
259.2512075700601
  0
ARC
  5
247
  8
1
 62
     7
 10
-1122.297357485812
 20
-584.17262939431589
 30
0.0
 40
2.600000000000104
 50
188.46125559764809
 51
270.0
  0
ARC
  5
248
  8
1
 62
     7
 10
-1122.297357485812
 20
-584.17262939431589
 30
0.0
 40
1.0
 50
180.0
 51
270.0
  0
ARC
  5
249
  8
1
 62
     7
 10
-1125.363615810239
 20
-561.91649357256188
 30
0.0
 40
0.5000000000000485
 50
280.74879242990551
 51
351.53874440235018
  0
ARC
  5
24A
  8
1
 62
     7
 10
-1124.8973574858121
 20
-564.37262939431582
 30
0.0
 40
1.99999999999996
 50
100.7487924299399
 51
180.0
  0
ARC
  5
24B
  8
1
 62
     7
 10
-1122.297357485812
 20
-562.37262939431582
 30
0.0
 40
2.6000000000000218
 50
90.0
 51
171.53874440235191
  0
ARC
  5
24C
  8
1
 62
     7
 10
-1122.297357485812
 20
-562.37262939431582
 30
0.0
 40
1.0
 50
90.0
 51
180.0
  0
ARC
  5
24D
  8
1
 62
     7
 10
-1116.647357485813
 20
-582.2726293943158
 30
0.0
 40
1.5
 50
0.0
 51
90.0
  0
ARC
  5
24E
  8
1
 62
     7
 10
-1220.86205751793
 20
-677.27262939431614
 30
0.0
 40
1.5
 50
270.0
 51
0.0
  0
ARC
  5
24F
  8
1
 62
     7
 10
-1220.86205751793
 20
-582.27262939431603
 30
0.0
 40
1.5
 50
0.0
 51
90.0
  0
ARC
  5
250
  8
1
 62
     7
 10
-1219.36205751793
 20
-672.77262939431614
 30
0.0
 40
1.0
 50
270.0
 51
0.0
  0
ARC
  5
251
  8
1
 62
     7
 10
-999.52102612486487
 20
-545.77262939431591
 30
0.0
 40
2.0
 50
0.0
 51
90.0
  0
ARC
  5
252
  8
1
 62
     7
 10
-1011.521026124865
 20
-545.77262939431591
 30
0.0
 40
2.0
 50
90.0
 51
180.0
  0
ARC
  5
253
  8
1
 62
     7
 10
-1115.147357485813
 20
-586.7726293943158
 30
0.0
 40
1.0
 50
0.0
 51
90.0
  0
ARC
  5
254
  8
1
 62
     7
 10
-1115.147357485813
 20
-672.77262939431557
 30
0.0
 40
1.0
 50
270.0
 51
0.0
  0
ARC
  5
255
  8
1
 62
     7
 10
-1108.797357485812
 20
-678.79481886613723
 30
0.0
 40
1.0
 50
270.0
 51
0.0
  0
ARC
  5
256
  8
1
 62
     7
 10
-1108.197357485813
 20
-578.54420226956938
 30
0.0
 40
2.0
 50
180.0
 51
225.0
  0
ARC
  5
257
  8
1
 62
     7
 10
-1212.41205751793
 20
-578.54420226956961
 30
0.0
 40
2.0
 50
180.0
 51
225.0
  0
ARC
  5
258
  8
1
 62
     7
 10
-1212.41205751793
 20
-681.00105651906222
 30
0.0
 40
2.0000000000000151
 50
135.0
 51
180.0
  0
TEXT
  5
259
  8
1
 62
     7
 10
-1452.0923240866409
 20
-493.74814455493782
 30
0.0
 40
8.0
  1
MSC 5T
 41
0.9
  7
SIMPLEX
 72
     1
 11
-1431.8637526580701
 21
-493.74814455493782
 31
0.0
  0
ENDSEC
  0
EOF
