  0
SECTION
  2
HEADER
  9
$ACADVER
  1
AC1009
  9
$INSBASE
 10
0.0
 20
0.0
 30
0.0
  9
$EXTMIN
 10
-841.34972118608277
 20
-184.45968997446499
 30
0.0
  9
$EXTMAX
 10
272.95500935077013
 20
254.8112129607388
 30
0.0
  9
$LIMMIN
 10
-824.33449236731019
 20
-183.63508122731039
  9
$LIMMAX
 10
272.95500935077013
 20
254.8112129607388
  9
$ORTHOMODE
 70
     0
  9
$REGENMODE
 70
     1
  9
$FILLMODE
 70
     1
  9
$QTEXTMODE
 70
     0
  9
$MIRRTEXT
 70
     1
  9
$DRAGMODE
 70
     2
  9
$LTSCALE
 40
1.0
  9
$OSMODE
 70
    37
  9
$ATTMODE
 70
     1
  9
$TEXTSIZE
 40
3.5
  9
$TRACEWID
 40
0.5
  9
$TEXTSTYLE
  7
STANDARD
  9
$CLAYER
  8
0
  9
$CELTYPE
  6
BYLAYER
  9
$CECOLOR
 62
   256
  9
$DIMSCALE
 40
1.0
  9
$DIMASZ
 40
0.18
  9
$DIMEXO
 40
0.0625
  9
$DIMDLI
 40
0.38
  9
$DIMRND
 40
0.0
  9
$DIMDLE
 40
0.0
  9
$DIMEXE
 40
0.18
  9
$DIMTP
 40
0.0
  9
$DIMTM
 40
0.0
  9
$DIMTXT
 40
0.18
  9
$DIMCEN
 40
0.09
  9
$DIMTSZ
 40
0.0
  9
$DIMTOL
 70
     0
  9
$DIMLIM
 70
     0
  9
$DIMTIH
 70
     1
  9
$DIMTOH
 70
     1
  9
$DIMSE1
 70
     0
  9
$DIMSE2
 70
     0
  9
$DIMTAD
 70
     0
  9
$DIMZIN
 70
     0
  9
$DIMBLK
  1

  9
$DIMASO
 70
     1
  9
$DIMSHO
 70
     1
  9
$DIMPOST
  1

  9
$DIMAPOST
  1

  9
$DIMALT
 70
     0
  9
$DIMALTD
 70
     2
  9
$DIMALTF
 40
25.399999999999999
  9
$DIMLFAC
 40
1.0
  9
$DIMTOFL
 70
     0
  9
$DIMTVP
 40
0.0
  9
$DIMTIX
 70
     0
  9
$DIMSOXD
 70
     0
  9
$DIMSAH
 70
     0
  9
$DIMBLK1
  1

  9
$DIMBLK2
  1

  9
$DIMSTYLE
  2
STANDARD
  9
$DIMCLRD
 70
     0
  9
$DIMCLRE
 70
     0
  9
$DIMCLRT
 70
     0
  9
$DIMTFAC
 40
1.0
  9
$DIMGAP
 40
0.09
  9
$LUNITS
 70
     2
  9
$LUPREC
 70
     4
  9
$SKETCHINC
 40
0.1
  9
$FILLETRAD
 40
2.0
  9
$AUNITS
 70
     0
  9
$AUPREC
 70
     0
  9
$MENU
  1
ACAD
  9
$ELEVATION
 40
0.0
  9
$PELEVATION
 40
0.0
  9
$THICKNESS
 40
0.0
  9
$LIMCHECK
 70
     0
  9
$BLIPMODE
 70
     0
  9
$CHAMFERA
 40
0.0
  9
$CHAMFERB
 40
0.0
  9
$SKPOLY
 70
     0
  9
$TDCREATE
 40
2452098.68636007
  9
$TDUPDATE
 40
2452098.6874287031
  9
$TDINDWG
 40
0.0010699074
  9
$TDUSRTIMER
 40
0.0010699074
  9
$USRTIMER
 70
     1
  9
$ANGBASE
 50
0.0
  9
$ANGDIR
 70
     0
  9
$PDMODE
 70
     0
  9
$PDSIZE
 40
0.0
  9
$PLINEWID
 40
0.0
  9
$COORDS
 70
     1
  9
$SPLFRAME
 70
     0
  9
$SPLINETYPE
 70
     6
  9
$SPLINESEGS
 70
     8
  9
$ATTDIA
 70
     0
  9
$ATTREQ
 70
     1
  9
$HANDLING
 70
 10241
  9
$HANDSEED
  5
33C
  9
$SURFTAB1
 70
     6
  9
$SURFTAB2
 70
     6
  9
$SURFTYPE
 70
     6
  9
$SURFU
 70
     6
  9
$SURFV
 70
     6
  9
$UCSNAME
  2

  9
$UCSORG
 10
0.0
 20
0.0
 30
0.0
  9
$UCSXDIR
 10
1.0
 20
0.0
 30
0.0
  9
$UCSYDIR
 10
0.0
 20
1.0
 30
0.0
  9
$PUCSNAME
  2

  9
$PUCSORG
 10
0.0
 20
0.0
 30
0.0
  9
$PUCSXDIR
 10
1.0
 20
0.0
 30
0.0
  9
$PUCSYDIR
 10
0.0
 20
1.0
 30
0.0
  9
$USERI1
 70
     0
  9
$USERI2
 70
     0
  9
$USERI3
 70
     0
  9
$USERI4
 70
     0
  9
$USERI5
 70
     0
  9
$USERR1
 40
0.0
  9
$USERR2
 40
0.0
  9
$USERR3
 40
0.0
  9
$USERR4
 40
0.0
  9
$USERR5
 40
0.0
  9
$WORLDVIEW
 70
     1
  9
$SHADEDGE
 70
     3
  9
$SHADEDIF
 70
    70
  9
$TILEMODE
 70
     1
  9
$MAXACTVP
 70
    64
  9
$PLIMCHECK
 70
     0
  9
$PEXTMIN
 10
1.0000000000000000E+020
 20
1.0000000000000000E+020
 30
1.0000000000000000E+020
  9
$PEXTMAX
 10
-1.0000000000000000E+020
 20
-1.0000000000000000E+020
 30
-1.0000000000000000E+020
  9
$PLIMMIN
 10
0.0
 20
0.0
  9
$PLIMMAX
 10
12.0
 20
9.0
  9
$UNITMODE
 70
     0
  9
$VISRETAIN
 70
     1
  9
$PLINEGEN
 70
     0
  9
$PSLTSCALE
 70
     1
  0
ENDSEC
  0
SECTION
  2
TABLES
  0
TABLE
  2
VPORT
 70
     2
  0
VPORT
  2
*ACTIVE
 70
     0
 10
0.0
 20
0.0
 11
1.0
 21
1.0
 12
-794.95753421806035
 22
220.76753082419319
 13
0.0
 23
0.0
 14
1.0
 24
1.0
 15
0.0
 25
0.0
 16
0.0
 26
0.0
 36
1.0
 17
0.0
 27
0.0
 37
0.0
 40
9.0000003292793735
 41
1.8531187122736421
 42
50.0
 43
0.0
 44
0.0
 50
0.0
 51
0.0
 71
     0
 72
   100
 73
     1
 74
     1
 75
     0
 76
     0
 77
     0
 78
     0
  0
ENDTAB
  0
TABLE
  2
LTYPE
 70
     9
  0
LTYPE
  2
CONTINUOUS
 70
     0
  3
Solid line
 72
    65
 73
     0
 40
0.0
  0
LTYPE
  2
BORDER
 70
     0
  3
__ __ . __ __ .
 72
    65
 73
     6
 40
50.533069158069488
 49
14.43801975944843
 49
-7.2190098797242133
 49
14.43801975944843
 49
-7.2190098797242133
 49
0.0
 49
-7.2190098797242133
  0
LTYPE
  2
CENTER
 70
     0
  3
____ _ ____ _
 72
    65
 73
     4
 40
57.752079037793713
 49
36.095049398621057
 49
-7.2190098797242133
 49
7.2190098797242133
 49
-7.2190098797242133
  0
LTYPE
  2
DASHDOT
 70
     0
  3
__ . __ . __ .
 72
    65
 73
     4
 40
28.87603951889685
 49
14.43801975944843
 49
-7.2190098797242133
 49
0.0
 49
-7.2190098797242133
  0
LTYPE
  2
DASHED
 70
     0
  3
__ __ __ __ __
 72
    65
 73
     2
 40
21.657029639172642
 49
14.43801975944843
 49
-7.2190098797242133
  0
LTYPE
  2
DIVIDE
 70
     0
  3
__ . . __ . . 
 72
    65
 73
     6
 40
36.095049398621057
 49
14.43801975944843
 49
-7.2190098797242133
 49
0.0
 49
-7.2190098797242133
 49
0.0
 49
-7.2190098797242133
  0
LTYPE
  2
DOT
 70
     0
  3
..............
 72
    65
 73
     4
 40
14.43801975944843
 49
0.0
 49
-7.2190098797242133
 49
0.0
 49
-7.2190098797242133
  0
LTYPE
  2
HIDDEN
 70
     0
  3
_ _ _ _ _ _ _
 72
    65
 73
     2
 40
10.828514819586321
 49
7.2190098797242133
 49
-3.6095049398621071
  0
LTYPE
  2
PHANTOM
 70
     0
  3
_____ _ _ _____ _ _ 
 72
    65
 73
     6
 40
72.190098797242129
 49
36.095049398621057
 49
-7.2190098797242133
 49
7.2190098797242133
 49
-7.2190098797242133
 49
7.2190098797242133
 49
-7.2190098797242133
  0
ENDTAB
  0
TABLE
  2
LAYER
 70
     2
  0
LAYER
  2
0
 70
     0
 62
     7
  6
CONTINUOUS
  0
LAYER
  2
1
 70
     0
 62
     7
  6
CONTINUOUS
  0
ENDTAB
  0
TABLE
  2
STYLE
 70
     4
  0
STYLE
  2
STANDARD
 70
     0
 40
0.0
 41
1.0
 50
0.0
 71
     0
 42
3.5
  3
txt
  4

  0
STYLE
  2
SIMPLEX
 70
     0
 40
0.0
 41
1.0
 50
0.0
 71
     0
 42
3.5
  3
simplex
  4

  0
STYLE
  2
COMPLEX
 70
     0
 40
0.0
 41
1.0
 50
0.0
 71
     0
 42
3.5
  3
complex
  4

  0
STYLE
  2
ITALIC
 70
     0
 40
0.0
 41
1.0
 50
0.0
 71
     0
 42
3.5
  3
italic
  4

  0
ENDTAB
  0
TABLE
  2
VIEW
 70
     0
  0
ENDTAB
  0
TABLE
  2
UCS
 70
     0
  0
ENDTAB
  0
TABLE
  2
APPID
 70
     1
  0
APPID
  2
ACAD
 70
     0
  0
ENDTAB
  0
TABLE
  2
DIMSTYLE
 70
     1
  0
DIMSTYLE
  2
STANDARD
 70
     0
  3

  4

  5

  6

  7

 40
1.0
 41
0.18
 42
0.0625
 43
0.38
 44
0.18
 45
0.0
 46
0.0
 47
0.0
 48
0.0
140
0.18
141
0.09
142
0.0
143
25.399999999999999
144
1.0
145
0.0
146
1.0
147
0.09
 71
     0
 72
     0
 73
     1
 74
     1
 75
     0
 76
     0
 77
     0
 78
     0
170
     0
171
     2
172
     0
173
     0
174
     0
175
     0
176
     0
177
     0
178
     0
  0
ENDTAB
  0
ENDSEC
  0
SECTION
  2
BLOCKS
  0
BLOCK
  8
0
  2
$MODEL_SPACE
 70
     0
 10
0.0
 20
0.0
 30
0.0
  3
$MODEL_SPACE
  1

  0
ENDBLK
  5
20
  8
0
  0
BLOCK
 67
     1
  8
0
  2
$PAPER_SPACE
 70
     0
 10
0.0
 20
0.0
 30
0.0
  3
$PAPER_SPACE
  1

  0
ENDBLK
  5
1C
 67
     1
  8
0
  0
ENDSEC
  0
SECTION
  2
ENTITIES
  0
POINT
  5
33
  8
1
  6
DOT
 62
     7
 10
-666.83449236730996
 20
-56.135081227310287
 30
0.0
  0
LINE
  5
34
  8
1
  6
DASHDOT
 62
     3
 10
-322.35786620314002
 20
-26.135081227310291
 30
0.0
 11
-315.35786620314002
 21
-26.135081227310291
 31
0.0
  0
LINE
  5
35
  8
1
 62
     7
 10
-329.45786620313987
 20
85.864918772689606
 30
0.0
 11
-329.45786620313987
 21
-138.13508122731039
 31
0.0
  0
LINE
  5
36
  8
1
 62
     7
 10
-328.5791865466997
 20
-127.646061997768
 30
0.0
 11
-326.15786620313997
 21
-125.2247416542084
 31
0.0
  0
LINE
  5
37
  8
1
 62
     7
 10
-326.15786620313997
 20
60.775258345791627
 30
0.0
 11
-326.15786620313997
 21
-125.2247416542084
 31
0.0
  0
LINE
  5
38
  8
1
 62
     7
 10
-326.15786620313997
 20
60.775258345791627
 30
0.0
 11
-328.5791865466997
 21
63.196578689351242
 31
0.0
  0
LINE
  5
39
  8
1
 62
     7
 10
-375.35786620313991
 20
131.36491877268949
 30
0.0
 11
-375.35786620313991
 21
-183.63508122731039
 31
0.0
  0
LINE
  5
3A
  8
1
 62
     7
 10
-421.35786620313991
 20
170.36491877268949
 30
0.0
 11
-421.35786620313991
 21
165.36491877268949
 31
0.0
  0
LINE
  5
3B
  8
1
 62
     7
 10
-420.85786620313991
 20
170.36491877268949
 30
0.0
 11
-420.85786620313991
 21
165.36491877268949
 31
0.0
  0
LINE
  5
3C
  8
1
 62
     7
 10
-420.35786620313991
 20
170.36491877268949
 30
0.0
 11
-420.35786620313991
 21
165.36491877268949
 31
0.0
  0
LINE
  5
3D
  8
1
 62
     7
 10
-419.85786620313991
 20
170.36491877268949
 30
0.0
 11
-419.85786620313991
 21
165.36491877268949
 31
0.0
  0
LINE
  5
3E
  8
1
 62
     7
 10
-419.35786620313991
 20
170.36491877268949
 30
0.0
 11
-419.35786620313991
 21
165.36491877268949
 31
0.0
  0
LINE
  5
3F
  8
1
 62
     7
 10
-421.65786620313992
 20
165.36491877268949
 30
0.0
 11
-421.65786620313992
 21
120.36491877268951
 31
0.0
  0
LINE
  5
40
  8
1
 62
     7
 10
-419.05786620313989
 20
165.36491877268949
 30
0.0
 11
-419.05786620313989
 21
120.36491877268951
 31
0.0
  0
LINE
  5
41
  8
1
 62
     7
 10
-421.65786620313992
 20
165.36491877268949
 30
0.0
 11
-419.05786620313989
 21
165.36491877268949
 31
0.0
  0
LINE
  5
42
  8
1
 62
     7
 10
59.721613256790221
 20
173.75100773295591
 30
0.0
 11
61.015708482302813
 21
168.9213786015107
 31
0.0
  0
LINE
  5
43
  8
1
 62
     7
 10
60.397761335192563
 20
173.93218106452781
 30
0.0
 11
61.691856560705148
 21
169.10255193308231
 31
0.0
  0
LINE
  5
44
  8
1
 62
     7
 10
61.073909413594933
 20
174.11335439609951
 30
0.0
 11
62.368004639107497
 21
169.28372526465409
 31
0.0
  0
LINE
  5
45
  8
1
 62
     7
 10
62.426205570399617
 20
174.47570105924299
 30
0.0
 11
63.720300795912209
 21
169.64607192779761
 31
0.0
  0
LINE
  5
46
  8
1
 62
     7
 10
63.102353648801959
 20
174.65687439081481
 30
0.0
 11
64.396448874314572
 21
169.8272452593695
 31
0.0
  0
LINE
  5
47
  8
1
 62
     7
 10
63.778501727204322
 20
174.83804772238651
 30
0.0
 11
65.072596952716907
 21
170.00841859094109
 31
0.0
  0
LINE
  5
48
  8
1
 62
     7
 10
63.044152717509959
 20
169.46489859622591
 30
0.0
 11
74.691009747123303
 21
125.9982364132179
 31
0.0
  0
LINE
  5
49
  8
1
 62
     7
 10
60.532745569158287
 20
168.79196907895931
 30
0.0
 11
72.185157316101936
 21
125.3045764086533
 31
0.0
  0
LINE
  5
4A
  8
1
 62
     7
 10
65.555559865861426
 20
170.1378281134925
 30
0.0
 11
77.207971612805068
 21
126.6504354431863
 31
0.0
  0
LINE
  5
4B
  8
1
 62
     7
 10
60.532745569158287
 20
168.79196907895931
 30
0.0
 11
65.555559865861426
 21
170.1378281134925
 31
0.0
  0
LINE
  5
4C
  8
1
 62
     7
 10
-205.6999881300809
 20
170.36491877268949
 30
0.0
 11
-205.6999881300809
 21
165.36491877268949
 31
0.0
  0
LINE
  5
4D
  8
1
 62
     7
 10
-205.19998813008101
 20
170.36491877268949
 30
0.0
 11
-205.19998813008101
 21
165.36491877268949
 31
0.0
  0
LINE
  5
4E
  8
1
 62
     7
 10
-204.6999881300809
 20
170.36491877268949
 30
0.0
 11
-204.6999881300809
 21
165.36491877268949
 31
0.0
  0
LINE
  5
4F
  8
1
 62
     7
 10
-204.1999881300809
 20
170.36491877268949
 30
0.0
 11
-204.1999881300809
 21
165.36491877268949
 31
0.0
  0
LINE
  5
50
  8
1
 62
     7
 10
-203.6999881300809
 20
170.36491877268949
 30
0.0
 11
-203.6999881300809
 21
165.36491877268949
 31
0.0
  0
LINE
  5
51
  8
1
 62
     7
 10
-205.99998813008099
 20
165.36491877268949
 30
0.0
 11
-205.99998813008099
 21
120.36491877268951
 31
0.0
  0
LINE
  5
52
  8
1
 62
     7
 10
-203.399988130081
 20
165.36491877268949
 30
0.0
 11
-203.399988130081
 21
120.36491877268951
 31
0.0
  0
LINE
  5
53
  8
1
 62
     7
 10
-205.99998813008099
 20
165.36491877268949
 30
0.0
 11
-203.399988130081
 21
165.36491877268949
 31
0.0
  0
LINE
  5
54
  8
1
 62
     7
 10
-223.69998813008101
 20
156.86491877268949
 30
0.0
 11
-223.69998813008101
 21
72.364918772689634
 31
0.0
  0
LINE
  5
55
  8
1
 62
     7
 10
-220.6999881300809
 20
120.36491877268951
 30
0.0
 11
-179.6999881300809
 21
120.36491877268951
 31
0.0
  0
LINE
  5
56
  8
1
 62
     7
 10
-113.799988130081
 20
-123.6777219144295
 30
0.0
 11
-113.799988130081
 21
-138.13508122731039
 31
0.0
  0
LINE
  5
57
  8
1
 62
     7
 10
-112.92130847364049
 20
-121.55640157086989
 30
0.0
 11
-110.49998813008111
 21
-119.13508122731039
 31
0.0
  0
LINE
  5
58
  8
1
 62
     7
 10
-110.49998813008111
 20
-101.13508122731039
 30
0.0
 11
-110.49998813008111
 21
-119.13508122731039
 31
0.0
  0
LINE
  5
59
  8
1
 62
     7
 10
-110.49998813008111
 20
66.864918772689634
 30
0.0
 11
-112.92130847364049
 21
69.286239116249163
 31
0.0
  0
LINE
  5
5A
  8
1
 62
     7
 10
-110.49998813008111
 20
66.864918772689634
 30
0.0
 11
-110.49998813008111
 21
48.86491877268962
 31
0.0
  0
LINE
  5
5B
  8
1
  6
DASHDOT
 62
     3
 10
171.67100749048379
 20
-26.13508122731027
 30
0.0
 11
188.19221984819191
 21
-26.13508122731028
 31
0.0
  0
LINE
  5
5C
  8
1
  6
DASHDOT
 62
     3
 10
155.20572284653201
 20
-65.88579472307201
 30
0.0
 11
166.88798413809039
 21
-77.568056014630471
 31
0.0
  0
LINE
  5
5D
  8
1
  6
DASHDOT
 62
     3
 10
115.4550093507703
 20
-82.351079367023729
 30
0.0
 11
115.4550093507703
 21
-98.872291724731966
 31
0.0
  0
LINE
  5
5E
  8
1
  6
DASHDOT
 62
     3
 10
75.704295855008567
 20
-65.885794723072024
 30
0.0
 11
64.022034563450063
 21
-77.568056014630471
 31
0.0
  0
LINE
  5
5F
  8
1
  6
DASHDOT
 62
     3
 10
59.239011211056791
 20
-26.135081227310291
 30
0.0
 11
42.717798853348569
 21
-26.135081227310291
 31
0.0
  0
LINE
  5
60
  8
1
  6
DASHDOT
 62
     3
 10
75.704295855008453
 20
13.61563226845146
 30
0.0
 11
64.022034563450063
 21
25.2978935600099
 31
0.0
  0
LINE
  5
61
  8
1
  6
DASHDOT
 62
     3
 10
115.4550093507703
 20
30.080916912403179
 30
0.0
 11
115.4550093507703
 21
46.602129270111369
 31
0.0
  0
LINE
  5
62
  8
1
 62
     7
 10
-614.68985027986673
 20
168.47137238552239
 30
0.0
 11
-628.91750225979092
 21
115.3730523240382
 31
0.0
  0
LINE
  5
63
  8
1
 62
     7
 10
-614.21939953835215
 20
173.1248959341797
 30
0.0
 11
-615.42120613893292
 21
168.63969263994139
 31
0.0
  0
LINE
  5
64
  8
1
 62
     7
 10
-612.05407728046157
 20
172.5126561787865
 30
0.0
 11
-613.24086097437385
 21
168.08351913551141
 31
0.0
  0
LINE
  5
65
  8
1
 62
     7
 10
-611.32141626168914
 20
172.34920684670379
 30
0.0
 11
-612.52322286226979
 21
167.8640035524655
 31
0.0
  0
LINE
  5
66
  8
1
 62
     7
 10
-615.66353642899003
 20
173.5308586429696
 30
0.0
 11
-616.86534302957045
 21
169.0456553487314
 31
0.0
  0
LINE
  5
67
  8
1
 62
     7
 10
-614.95864280188619
 20
173.26377999438441
 30
0.0
 11
-616.14542649579869
 21
168.8346429511094
 31
0.0
  0
LINE
  5
68
  8
1
 62
     7
 10
-612.78278574376691
 20
172.69085664869209
 30
0.0
 11
-613.9695694376793
 21
168.26171960541691
 31
0.0
  0
LINE
  5
69
  8
1
 62
     7
 10
-323.35786620314002
 20
54.514918772689612
 30
0.0
 11
-326.15786620313997
 21
54.514918772689612
 31
0.0
  0
LINE
  5
6A
  8
1
 62
     7
 10
-322.35786620314002
 20
53.514918772689612
 30
0.0
 11
-323.35786620314002
 21
54.514918772689612
 31
0.0
  0
LINE
  5
6B
  8
1
 62
     7
 10
-350.15786620313992
 20
85.864918772689606
 30
0.0
 11
-345.15786620313992
 21
85.864918772689606
 31
0.0
  0
LINE
  5
6C
  8
1
 62
     7
 10
-350.15786620313992
 20
69.864918772689606
 30
0.0
 11
-345.15786620313992
 21
69.864918772689606
 31
0.0
  0
LINE
  5
6D
  8
1
 62
     7
 10
-345.15786620313992
 20
86.864918772689606
 30
0.0
 11
-330.45786620313987
 21
86.864918772689606
 31
0.0
  0
LINE
  5
6E
  8
1
 62
     7
 10
-339.45786620313999
 20
65.864918772689606
 30
0.0
 11
-339.45786620313999
 21
60.86491877268962
 31
0.0
  0
LINE
  5
6F
  8
1
 62
     7
 10
-345.15786620313992
 20
69.864918772689606
 30
0.0
 11
-345.15786620313992
 21
68.864918772689606
 31
0.0
  0
LINE
  5
70
  8
1
 62
     7
 10
-345.15786620313992
 20
68.864918772689606
 30
0.0
 11
-344.63478928006299
 21
68.864918772689606
 31
0.0
  0
LINE
  5
71
  8
1
 62
     7
 10
-345.15786620313992
 20
86.864918772689606
 30
0.0
 11
-345.15786620313992
 21
85.864918772689606
 31
0.0
  0
LINE
  5
72
  8
1
 62
     7
 10
-374.65786620313992
 20
131.36491877268949
 30
0.0
 11
-360.85786620314008
 21
131.36491877268949
 31
0.0
  0
LINE
  5
73
  8
1
 62
     7
 10
-350.15786620313992
 20
68.364918772689606
 30
0.0
 11
-347.59082081377983
 21
68.364918772689606
 31
0.0
  0
LINE
  5
74
  8
1
 62
     7
 10
-350.15786620313992
 20
-183.63508122731039
 30
0.0
 11
-350.15786620313992
 21
131.36491877268949
 31
0.0
  0
LINE
  5
75
  8
1
 62
     7
 10
-360.85786620314008
 20
-183.63508122731039
 30
0.0
 11
-374.65786620313992
 21
-183.63508122731039
 31
0.0
  0
LINE
  5
76
  8
1
 62
     7
 10
-374.65786620313992
 20
-183.63508122731039
 30
0.0
 11
-374.65786620313992
 21
131.36491877268949
 31
0.0
  0
LINE
  5
77
  8
1
 62
     7
 10
-339.45786620313999
 20
68.864918772689606
 30
0.0
 11
-339.45786620313999
 21
86.864918772689606
 31
0.0
  0
LINE
  5
78
  8
1
 62
     7
 10
-345.15786620313992
 20
85.864918772689606
 30
0.0
 11
-345.15786620313992
 21
69.864918772689606
 31
0.0
  0
LINE
  5
79
  8
1
 62
     7
 10
-339.45786620313999
 20
68.864918772689606
 30
0.0
 11
-339.45786620313999
 21
65.864918772689606
 31
0.0
  0
LINE
  5
7A
  8
1
 62
     7
 10
-326.15786620313997
 20
-106.7850812273104
 30
0.0
 11
-323.35786620314002
 21
-106.7850812273104
 31
0.0
  0
LINE
  5
7B
  8
1
 62
     7
 10
-322.35786620314002
 20
-105.7850812273104
 30
0.0
 11
-322.35786620314002
 21
53.514918772689612
 31
0.0
  0
LINE
  5
7C
  8
1
 62
     7
 10
-323.35786620314002
 20
-106.7850812273104
 30
0.0
 11
-322.35786620314002
 21
-105.7850812273104
 31
0.0
  0
LINE
  5
7D
  8
1
 62
     7
 10
-345.15786620313992
 20
-138.13508122731039
 30
0.0
 11
-350.15786620313992
 21
-138.13508122731039
 31
0.0
  0
LINE
  5
7E
  8
1
 62
     7
 10
-345.15786620313992
 20
-122.13508122731039
 30
0.0
 11
-350.15786620313992
 21
-122.13508122731039
 31
0.0
  0
LINE
  5
7F
  8
1
 62
     7
 10
-330.45786620313987
 20
-139.13508122731039
 30
0.0
 11
-345.15786620313992
 21
-139.13508122731039
 31
0.0
  0
LINE
  5
80
  8
1
 62
     7
 10
-343.35786620314008
 20
-121.13508122731039
 30
0.0
 11
-343.35786620314008
 21
-139.13508122731039
 31
0.0
  0
LINE
  5
81
  8
1
 62
     7
 10
-342.45786620313987
 20
-121.13508122731039
 30
0.0
 11
-343.35786620314008
 21
-121.13508122731039
 31
0.0
  0
LINE
  5
82
  8
1
 62
     7
 10
-339.45786620313999
 20
-113.13508122731039
 30
0.0
 11
-339.45786620313999
 21
-118.13508122731039
 31
0.0
  0
LINE
  5
83
  8
1
 62
     7
 10
-345.15786620313992
 20
-121.13508122731039
 30
0.0
 11
-345.15786620313992
 21
-122.13508122731039
 31
0.0
  0
LINE
  5
84
  8
1
 62
     7
 10
-345.15786620313992
 20
-138.13508122731039
 30
0.0
 11
-345.15786620313992
 21
-139.13508122731039
 31
0.0
  0
LINE
  5
85
  8
1
 62
     7
 10
-347.59082081377983
 20
-120.63508122731039
 30
0.0
 11
-350.15786620313992
 21
-120.63508122731039
 31
0.0
  0
LINE
  5
86
  8
1
 62
     7
 10
-339.45786620313999
 20
-108.5850812273104
 30
0.0
 11
-343.16478928006302
 21
-108.5850812273104
 31
0.0
  0
LINE
  5
87
  8
1
 62
     7
 10
-339.45786620313999
 20
-139.13508122731039
 30
0.0
 11
-339.45786620313999
 21
-121.13508122731039
 31
0.0
  0
LINE
  5
88
  8
1
 62
     7
 10
-345.15786620313992
 20
-122.13508122731039
 30
0.0
 11
-345.15786620313992
 21
-138.13508122731039
 31
0.0
  0
LINE
  5
89
  8
1
 62
     7
 10
-339.45786620313999
 20
-118.13508122731039
 30
0.0
 11
-339.45786620313999
 21
-121.13508122731039
 31
0.0
  0
LINE
  5
8A
  8
1
 62
     7
 10
-350.15786620313992
 20
17.864918772689709
 30
0.0
 11
-345.15786620313992
 21
17.864918772689709
 31
0.0
  0
LINE
  5
8B
  8
1
 62
     7
 10
-350.15786620313992
 20
33.86491877268972
 30
0.0
 11
-345.15786620313992
 21
33.86491877268972
 31
0.0
  0
LINE
  5
8C
  8
1
 62
     7
 10
-345.15786620313992
 20
-70.135081227310295
 30
0.0
 11
-350.15786620313992
 21
-70.135081227310295
 31
0.0
  0
LINE
  5
8D
  8
1
 62
     7
 10
-345.15786620313992
 20
-86.135081227310295
 30
0.0
 11
-350.15786620313992
 21
-86.135081227310295
 31
0.0
  0
LINE
  5
8E
  8
1
 62
     7
 10
-345.15786620313992
 20
33.86491877268972
 30
0.0
 11
-345.15786620313992
 21
17.864918772689709
 31
0.0
  0
LINE
  5
8F
  8
1
 62
     7
 10
-345.15786620313992
 20
34.86491877268972
 30
0.0
 11
-345.15786620313992
 21
33.86491877268972
 31
0.0
  0
LINE
  5
90
  8
1
 62
     7
 10
-345.15786620313992
 20
16.86491877268972
 30
0.0
 11
-344.49632774160102
 21
16.86491877268972
 31
0.0
  0
LINE
  5
91
  8
1
 62
     7
 10
-345.15786620313992
 20
17.864918772689709
 30
0.0
 11
-345.15786620313992
 21
16.86491877268972
 31
0.0
  0
LINE
  5
92
  8
1
 62
     7
 10
-345.15786620313992
 20
-70.135081227310295
 30
0.0
 11
-345.15786620313992
 21
-86.135081227310295
 31
0.0
  0
LINE
  5
93
  8
1
 62
     7
 10
-345.15786620313992
 20
-86.135081227310295
 30
0.0
 11
-345.15786620313992
 21
-87.135081227310295
 31
0.0
  0
LINE
  5
94
  8
1
 62
     7
 10
-345.15786620313992
 20
-69.135081227310295
 30
0.0
 11
-345.15786620313992
 21
-70.135081227310295
 31
0.0
  0
LINE
  5
95
  8
1
 62
     7
 10
-342.55786620313978
 20
86.864918772689606
 30
0.0
 11
-343.35786620314008
 21
34.86491877268972
 31
0.0
  0
LINE
  5
96
  8
1
 62
     7
 10
-345.15786620313992
 20
34.86491877268972
 30
0.0
 11
-344.35786620314008
 21
86.864918772689606
 31
0.0
  0
LINE
  5
97
  8
1
 62
     7
 10
-342.83478928006298
 20
68.864918772689606
 30
0.0
 11
-342.45786620313987
 21
68.864918772689606
 31
0.0
  0
LINE
  5
98
  8
1
 62
     7
 10
-343.02786620313981
 20
56.314918772689609
 30
0.0
 11
-339.45786620313999
 21
56.314918772689609
 31
0.0
  0
LINE
  5
99
  8
1
 62
     7
 10
-343.35786620314008
 20
34.86491877268972
 30
0.0
 11
-344.35786620314008
 21
34.86491877268972
 31
0.0
  0
LINE
  5
9A
  8
1
 62
     7
 10
-345.15786620313992
 20
34.86491877268972
 30
0.0
 11
-345.15786620313992
 21
33.86491877268972
 31
0.0
  0
LINE
  5
9B
  8
1
 62
     7
 10
-344.35786620314008
 20
34.86491877268972
 30
0.0
 11
-345.15786620313992
 21
-69.135081227310295
 31
0.0
  0
LINE
  5
9C
  8
1
 62
     7
 10
-342.55786620313978
 20
34.864570670112009
 30
0.0
 11
-343.35786620314008
 21
34.86491877268972
 31
0.0
  0
LINE
  5
9D
  8
1
 62
     7
 10
-342.55786620313978
 20
34.864570670112009
 30
0.0
 11
-343.35786620314008
 21
-69.135081227310295
 31
0.0
  0
LINE
  5
9E
  8
1
 62
     7
 10
-344.35786620314008
 20
-69.13508122731028
 30
0.0
 11
-345.15786620313992
 21
-121.13508122731039
 31
0.0
  0
LINE
  5
9F
  8
1
 62
     7
 10
-342.55786620313978
 20
-69.135081227310295
 30
0.0
 11
-343.35786620314008
 21
-121.13508122731039
 31
0.0
  0
LINE
  5
A0
  8
1
 62
     7
 10
-344.35786620314008
 20
-69.13508122731028
 30
0.0
 11
-342.55786620313978
 21
-69.135081227310295
 31
0.0
  0
LINE
  5
A1
  8
1
 62
     7
 10
-344.63478928006299
 20
-87.135081227310295
 30
0.0
 11
-345.15786620313992
 21
-87.135081227310295
 31
0.0
  0
LINE
  5
A2
  8
1
 62
     7
 10
-342.55786620313978
 20
-69.135081227310295
 30
0.0
 11
-340.22179822563999
 21
-69.135081227310295
 31
0.0
  0
LINE
  5
A3
  8
1
 62
     7
 10
-342.83478928006298
 20
-87.135081227310295
 30
0.0
 11
-340.22179822563999
 21
-87.135081227310295
 31
0.0
  0
LINE
  5
A4
  8
1
 62
     7
 10
-342.55786620313978
 20
34.864570670112009
 30
0.0
 11
-340.22210962682988
 21
34.864570670112009
 31
0.0
  0
LINE
  5
A5
  8
1
 62
     7
 10
-342.69632552733202
 20
16.86491877268972
 30
0.0
 11
-340.22179822563999
 21
16.86491877268972
 31
0.0
  0
LINE
  5
A6
  8
1
 62
     7
 10
-342.68863319389283
 20
17.864918772689709
 30
0.0
 11
-342.45786620313987
 21
17.864918772689709
 31
0.0
  0
LINE
  5
A7
  8
1
 62
     7
 10
-342.56555585885809
 20
33.86491877268972
 30
0.0
 11
-342.45786620313987
 21
33.86491877268972
 31
0.0
  0
LINE
  5
A8
  8
1
 62
     7
 10
-339.45786620313999
 20
36.86491877268972
 30
0.0
 11
-339.45786620313999
 21
60.86491877268962
 31
0.0
  0
LINE
  5
A9
  8
1
 62
     7
 10
-342.57325081852503
 20
-70.135081227310295
 30
0.0
 11
-342.45786620313987
 21
-70.135081227310295
 31
0.0
  0
LINE
  5
AA
  8
1
 62
     7
 10
-342.8194046646779
 20
-86.135081227310295
 30
0.0
 11
-342.45786620313987
 21
-86.135081227310295
 31
0.0
  0
LINE
  5
AB
  8
1
 62
     7
 10
-339.45786620313999
 20
-67.135081227310295
 30
0.0
 11
-339.45786620313999
 21
14.86491877268972
 31
0.0
  0
LINE
  5
AC
  8
1
 62
     7
 10
-339.45786620313999
 20
-89.135081227310295
 30
0.0
 11
-339.45786620313999
 21
-113.13508122731039
 31
0.0
  0
LINE
  5
AD
  8
1
 62
     7
 10
-130.49998813008111
 20
65.513453692582516
 30
0.0
 11
-130.49998813008111
 21
57.004061845866218
 31
0.0
  0
LINE
  5
AE
  8
1
 62
     7
 10
-134.49998813008091
 20
66.364918772689634
 30
0.0
 11
-134.49998813008091
 21
63.964918772689629
 31
0.0
  0
LINE
  5
AF
  8
1
 62
     7
 10
-134.69998813008101
 20
-62.135081227310373
 30
0.0
 11
-159.69998813008101
 21
-62.135081227310373
 31
0.0
  0
LINE
  5
B0
  8
1
 62
     7
 10
-139.69998813008101
 20
-96.135081227310351
 30
0.0
 11
-106.699988130081
 21
-96.135081227310351
 31
0.0
  0
LINE
  5
B1
  8
1
 62
     7
 10
-139.69998813008101
 20
-86.135081227310366
 30
0.0
 11
-106.699988130081
 21
-86.135081227310366
 31
0.0
  0
LINE
  5
B2
  8
1
 62
     7
 10
-154.19998813008101
 20
-173.78508122731029
 30
0.0
 11
-142.5999881300809
 21
-173.78508122731029
 31
0.0
  0
LINE
  5
B3
  8
1
 62
     7
 10
-154.19998813008101
 20
-168.48508122731039
 30
0.0
 11
-142.5999881300809
 21
-168.48508122731039
 31
0.0
  0
LINE
  5
B4
  8
1
 62
     7
 10
-154.19998813008101
 20
-175.63508122731039
 30
0.0
 11
-158.99998813008099
 21
-175.63508122731039
 31
0.0
  0
LINE
  5
B5
  8
1
 62
     7
 10
-154.19998813008101
 20
-166.63508122731039
 30
0.0
 11
-154.19998813008101
 21
-175.63508122731039
 31
0.0
  0
LINE
  5
B6
  8
1
 62
     7
 10
-158.99998813008099
 20
-166.63508122731039
 30
0.0
 11
-154.19998813008101
 21
-166.63508122731039
 31
0.0
  0
LINE
  5
B7
  8
1
 62
     7
 10
-154.19998813008101
 20
-146.2850812273104
 30
0.0
 11
-142.5999881300809
 21
-146.2850812273104
 31
0.0
  0
LINE
  5
B8
  8
1
 62
     7
 10
-154.19998813008101
 20
-140.98508122731039
 30
0.0
 11
-142.5999881300809
 21
-140.98508122731039
 31
0.0
  0
LINE
  5
B9
  8
1
 62
     7
 10
-154.19998813008101
 20
-148.13508122731039
 30
0.0
 11
-158.99998813008099
 21
-148.13508122731039
 31
0.0
  0
LINE
  5
BA
  8
1
 62
     7
 10
-154.19998813008101
 20
-139.13508122731039
 30
0.0
 11
-154.19998813008101
 21
-148.13508122731039
 31
0.0
  0
LINE
  5
BB
  8
1
 62
     7
 10
-158.99998813008099
 20
-139.13508122731039
 30
0.0
 11
-154.19998813008101
 21
-139.13508122731039
 31
0.0
  0
LINE
  5
BC
  8
1
 62
     7
 10
130.45500935077041
 20
131.23960236057829
 30
0.0
 11
130.45500935077041
 21
151.86497850724541
 31
0.0
  0
LINE
  5
BD
  8
1
 62
     7
 10
-159.69998813008101
 20
131.36491877268949
 30
0.0
 11
-159.69998813008101
 21
-183.63508122731039
 31
0.0
  0
LINE
  5
BE
  8
1
 62
     7
 10
-187.6999881300809
 20
-183.63508122731039
 30
0.0
 11
-159.69998813008101
 21
-183.63508122731039
 31
0.0
  0
LINE
  5
BF
  8
1
 62
     7
 10
-189.6999881300809
 20
-181.63508122731039
 30
0.0
 11
-189.6999881300809
 21
-173.68508122731041
 31
0.0
  0
LINE
  5
C0
  8
1
 62
     7
 10
-170.6999881300809
 20
-173.68508122731041
 30
0.0
 11
-189.6999881300809
 21
-173.68508122731041
 31
0.0
  0
LINE
  5
C1
  8
1
 62
     7
 10
-170.6999881300809
 20
-145.13508122731039
 30
0.0
 11
-170.6999881300809
 21
-173.68508122731041
 31
0.0
  0
LINE
  5
C2
  8
1
 62
     7
 10
-176.6999881300809
 20
-145.13508122731039
 30
0.0
 11
-170.6999881300809
 21
-145.13508122731039
 31
0.0
  0
LINE
  5
C3
  8
1
 62
     7
 10
-176.6999881300809
 20
-125.0850812273104
 30
0.0
 11
-176.6999881300809
 21
-145.13508122731039
 31
0.0
  0
LINE
  5
C4
  8
1
 62
     7
 10
-189.6999881300809
 20
-125.0850812273104
 30
0.0
 11
-176.6999881300809
 21
-125.0850812273104
 31
0.0
  0
LINE
  5
C5
  8
1
 62
     7
 10
-189.6999881300809
 20
-116.13508122731039
 30
0.0
 11
-189.6999881300809
 21
-125.0850812273104
 31
0.0
  0
LINE
  5
C6
  8
1
 62
     7
 10
-184.1999881300809
 20
-116.13508122731039
 30
0.0
 11
-189.6999881300809
 21
-116.13508122731039
 31
0.0
  0
LINE
  5
C7
  8
1
 62
     7
 10
-184.1999881300809
 20
-82.135081227310366
 30
0.0
 11
-184.1999881300809
 21
-116.13508122731039
 31
0.0
  0
LINE
  5
C8
  8
1
 62
     7
 10
-193.6999881300809
 20
-82.135081227310366
 30
0.0
 11
-184.1999881300809
 21
-82.135081227310366
 31
0.0
  0
LINE
  5
C9
  8
1
 62
     7
 10
-223.69998813008101
 20
-71.135081227310366
 30
0.0
 11
-193.6999881300809
 21
-71.135081227310366
 31
0.0
  0
LINE
  5
CA
  8
1
 62
     7
 10
-197.05998813008091
 20
-71.135081227310366
 30
0.0
 11
-220.33998813008091
 21
-71.135081227310366
 31
0.0
  0
LINE
  5
CB
  8
1
 62
     7
 10
-193.6999881300809
 20
-79.541814487573816
 30
0.0
 11
-193.6999881300809
 21
-71.135081227310366
 31
0.0
  0
LINE
  5
CC
  8
1
 62
     7
 10
-197.89998813008111
 20
-71.135081227310366
 30
0.0
 11
-219.49998813008091
 21
-71.135081227310366
 31
0.0
  0
LINE
  5
CD
  8
1
 62
     7
 10
-219.49998813008091
 20
-106.13508122731039
 30
0.0
 11
-197.89998813008111
 21
-106.13508122731039
 31
0.0
  0
LINE
  5
CE
  8
1
 62
     7
 10
-223.69998813008101
 20
-100.06141781788421
 30
0.0
 11
-223.69998813008101
 21
-97.728347967046915
 31
0.0
  0
LINE
  5
CF
  8
1
 62
     7
 10
-193.6999881300809
 20
-97.728347967046915
 30
0.0
 11
-203.4499881300809
 21
-97.728347967046943
 31
0.0
  0
LINE
  5
D0
  8
1
 62
     7
 10
-223.69998813008101
 20
-97.728347967046915
 30
0.0
 11
-213.9499881300809
 21
-97.728347967046943
 31
0.0
  0
LINE
  5
D1
  8
1
 62
     7
 10
-223.69998813008101
 20
-96.135081227310351
 30
0.0
 11
-223.69998813008101
 21
-97.728347967046915
 31
0.0
  0
LINE
  5
D2
  8
1
 62
     7
 10
-223.69998813008101
 20
-79.541814487573816
 30
0.0
 11
-213.9499881300809
 21
-79.54181448757376
 31
0.0
  0
LINE
  5
D3
  8
1
 62
     7
 10
-223.69998813008101
 20
-76.082080530925978
 30
0.0
 11
-223.69998813008101
 21
-79.541814487573816
 31
0.0
  0
LINE
  5
D4
  8
1
 62
     7
 10
-193.6999881300809
 20
-79.541814487573816
 30
0.0
 11
-203.4499881300809
 21
-79.54181448757376
 31
0.0
  0
LINE
  5
D5
  8
1
 62
     7
 10
-193.6999881300809
 20
-82.135081227310366
 30
0.0
 11
-193.6999881300809
 21
-79.541814487573816
 31
0.0
  0
LINE
  5
D6
  8
1
 62
     7
 10
-193.6999881300809
 20
-97.728347967046915
 30
0.0
 11
-193.6999881300809
 21
-75.335081227310368
 31
0.0
  0
LINE
  5
D7
  8
1
 62
     7
 10
-189.6999881300809
 20
-99.135081227310366
 30
0.0
 11
-193.6999881300809
 21
-99.135081227310366
 31
0.0
  0
LINE
  5
D8
  8
1
 62
     7
 10
-189.6999881300809
 20
-111.13508122731039
 30
0.0
 11
-189.6999881300809
 21
-99.135081227310366
 31
0.0
  0
LINE
  5
D9
  8
1
 62
     7
 10
-194.6999881300809
 20
-111.13508122731039
 30
0.0
 11
-189.6999881300809
 21
-111.13508122731039
 31
0.0
  0
LINE
  5
DA
  8
1
 62
     7
 10
-194.6999881300809
 20
-126.13508122731039
 30
0.0
 11
-194.6999881300809
 21
-111.13508122731039
 31
0.0
  0
LINE
  5
DB
  8
1
 62
     7
 10
-179.6999881300809
 20
-126.13508122731039
 30
0.0
 11
-194.6999881300809
 21
-126.13508122731039
 31
0.0
  0
LINE
  5
DC
  8
1
 62
     7
 10
-220.6999881300809
 20
-172.63508122731039
 30
0.0
 11
-179.6999881300809
 21
-172.63508122731039
 31
0.0
  0
LINE
  5
DD
  8
1
 62
     7
 10
-223.69998813008101
 20
-107.8456527105881
 30
0.0
 11
-223.69998813008101
 21
-106.13508122731039
 31
0.0
  0
LINE
  5
DE
  8
1
 62
     7
 10
-219.9514260349039
 20
-106.13508122731039
 30
0.0
 11
-223.69998813008101
 21
-106.13508122731039
 31
0.0
  0
LINE
  5
DF
  8
1
 62
     7
 10
-179.6999881300809
 20
-172.63508122731039
 30
0.0
 11
-179.6999881300809
 21
-126.13508122731039
 31
0.0
  0
LINE
  5
E0
  8
1
 62
     7
 10
-221.00836146582111
 20
-77.13181579094956
 30
0.0
 11
-221.00836146582111
 21
-99.135081227310366
 31
0.0
  0
LINE
  5
E1
  8
1
 62
     7
 10
-196.16032342817601
 20
-76.786704151537862
 30
0.0
 11
-196.16032342817601
 21
-99.135081227310366
 31
0.0
  0
LINE
  5
E2
  8
1
 62
     7
 10
-226.6999881300809
 20
-79.541814487573816
 30
0.0
 11
-223.69998813008101
 21
-79.541814487573816
 31
0.0
  0
LINE
  5
E3
  8
1
 62
     7
 10
-226.6999881300809
 20
-70.135081227310366
 30
0.0
 11
-223.69998813008101
 21
-70.135081227310366
 31
0.0
  0
LINE
  5
E4
  8
1
 62
     7
 10
-226.6999881300809
 20
-71.15021175015282
 30
0.0
 11
-226.6999881300809
 21
-79.541814487573816
 31
0.0
  0
LINE
  5
E5
  8
1
 62
     7
 10
-223.69998813008101
 20
-70.135081227310366
 30
0.0
 11
-223.69998813008101
 21
-76.082080530925978
 31
0.0
  0
LINE
  5
E6
  8
1
 62
     7
 10
-223.69998813008101
 20
-75.335081227310368
 30
0.0
 11
-223.69998813008101
 21
-76.082080530925978
 31
0.0
  0
LINE
  5
E7
  8
1
 62
     7
 10
-226.6999881300809
 20
-71.135081227310366
 30
0.0
 11
-226.6999881300809
 21
-71.15021175015282
 31
0.0
  0
LINE
  5
E8
  8
1
 62
     7
 10
-226.6999881300809
 20
-71.135081227310366
 30
0.0
 11
-226.6999881300809
 21
-71.15021175015282
 31
0.0
  0
LINE
  5
E9
  8
1
 62
     7
 10
-226.6999881300809
 20
-70.135081227310366
 30
0.0
 11
-226.6999881300809
 21
-71.135081227310366
 31
0.0
  0
LINE
  5
EA
  8
1
 62
     7
 10
-228.6999881300809
 20
-71.135081227310366
 30
0.0
 11
-226.6999881300809
 21
-71.135081227310366
 31
0.0
  0
LINE
  5
EB
  8
1
 62
     7
 10
-229.6999881300809
 20
-70.135081227310366
 30
0.0
 11
-228.6999881300809
 21
-71.135081227310366
 31
0.0
  0
LINE
  5
EC
  8
1
 62
     7
 10
-187.6999881300809
 20
-183.63508122731039
 30
0.0
 11
-189.6999881300809
 21
-181.63508122731039
 31
0.0
  0
LINE
  5
ED
  8
1
 62
     7
 10
-220.6999881300809
 20
-172.63508122731039
 30
0.0
 11
-223.69998813008101
 21
-169.63508122731039
 31
0.0
  0
LINE
  5
EE
  8
1
 62
     7
 10
-226.899988130081
 20
-124.63508122731039
 30
0.0
 11
-223.69998813008101
 21
-124.63508122731039
 31
0.0
  0
LINE
  5
EF
  8
1
 62
     7
 10
-223.69998813008101
 20
-169.63508122731039
 30
0.0
 11
-223.69998813008101
 21
-124.63508122731039
 31
0.0
  0
LINE
  5
F0
  8
1
 62
     7
 10
-226.899988130081
 20
-123.88508122731039
 30
0.0
 11
-226.899988130081
 21
-124.63508122731039
 31
0.0
  0
LINE
  5
F1
  8
1
 62
     7
 10
-223.69998813008101
 20
-96.135081227310351
 30
0.0
 11
-226.899988130081
 21
-96.135081227310351
 31
0.0
  0
LINE
  5
F2
  8
1
 62
     7
 10
-223.69998813008101
 20
-79.541814487573816
 30
0.0
 11
-223.69998813008101
 21
-96.135081227310351
 31
0.0
  0
LINE
  5
F3
  8
1
 62
     7
 10
-223.69998813008101
 20
-100.06141781788421
 30
0.0
 11
-223.69998813008101
 21
-107.8456527105881
 31
0.0
  0
LINE
  5
F4
  8
1
 62
     7
 10
-223.69998813008101
 20
-124.63508122731039
 30
0.0
 11
-223.69998813008101
 21
-107.8456527105881
 31
0.0
  0
LINE
  5
F5
  8
1
 62
     7
 10
-223.69998813008101
 20
-101.93508122731041
 30
0.0
 11
-223.69998813008101
 21
-100.06141781788421
 31
0.0
  0
LINE
  5
F6
  8
1
 62
     7
 10
-226.899988130081
 20
-108.38508122731039
 30
0.0
 11
-226.899988130081
 21
-123.88508122731039
 31
0.0
  0
LINE
  5
F7
  8
1
 62
     7
 10
-226.899988130081
 20
-123.88508122731039
 30
0.0
 11
-226.899988130081
 21
-108.38508122731039
 31
0.0
  0
LINE
  5
F8
  8
1
 62
     7
 10
-226.899988130081
 20
-96.135081227310351
 30
0.0
 11
-226.899988130081
 21
-108.38508122731039
 31
0.0
  0
LINE
  5
F9
  8
1
 62
     7
 10
-228.49998813008099
 20
-108.38508122731039
 30
0.0
 11
-226.899988130081
 21
-108.38508122731039
 31
0.0
  0
LINE
  5
FA
  8
1
 62
     7
 10
-228.49998813008099
 20
-123.88508122731039
 30
0.0
 11
-228.49998813008099
 21
-108.38508122731039
 31
0.0
  0
LINE
  5
FB
  8
1
 62
     7
 10
-226.899988130081
 20
-123.88508122731039
 30
0.0
 11
-228.49998813008099
 21
-123.88508122731039
 31
0.0
  0
LINE
  5
FC
  8
1
 62
     7
 10
-226.899988130081
 20
-108.38508122731039
 30
0.0
 11
-226.899988130081
 21
-123.88508122731039
 31
0.0
  0
LINE
  5
FD
  8
1
 62
     7
 10
-228.79998813008089
 20
-123.13508122731039
 30
0.0
 11
-230.45803678157981
 21
-123.13508122731039
 31
0.0
  0
LINE
  5
FE
  8
1
 62
     7
 10
-228.49998813008099
 20
-109.43508122731041
 30
0.0
 11
-228.49998813008099
 21
-122.8350812273104
 31
0.0
  0
LINE
  5
FF
  8
1
 62
     7
 10
-228.79998813008089
 20
-109.13508122731039
 30
0.0
 11
-230.45803678157981
 21
-109.13508122731039
 31
0.0
  0
LINE
  5
100
  8
1
 62
     7
 10
-226.899988130081
 20
81.864918772689634
 30
0.0
 11
-223.69998813008101
 21
81.864918772689634
 31
0.0
  0
LINE
  5
101
  8
1
 62
     7
 10
-226.899988130081
 20
137.36491877268949
 30
0.0
 11
-223.69998813008101
 21
137.36491877268949
 31
0.0
  0
LINE
  5
102
  8
1
 62
     3
 10
-228.45808405956291
 20
143.86491877268949
 30
0.0
 11
-221.1524914418159
 21
143.86491877268949
 31
0.0
  0
LINE
  5
103
  8
1
 62
     7
 10
-226.899988130081
 20
150.36491877268949
 30
0.0
 11
-223.69998813008101
 21
150.36491877268949
 31
0.0
  0
LINE
  5
104
  8
1
 62
     7
 10
-226.899988130081
 20
156.86491877268949
 30
0.0
 11
-223.69998813008101
 21
156.86491877268949
 31
0.0
  0
LINE
  5
105
  8
1
 62
     7
 10
-226.899988130081
 20
81.864918772689634
 30
0.0
 11
-226.899988130081
 21
88.947904673705125
 31
0.0
  0
LINE
  5
106
  8
1
 62
     7
 10
-226.899988130081
 20
156.86491877268949
 30
0.0
 11
-226.899988130081
 21
81.864918772689634
 31
0.0
  0
LINE
  5
107
  8
1
 62
     7
 10
-230.45803678157981
 20
56.86491877268962
 30
0.0
 11
-228.79998813008089
 21
56.86491877268962
 31
0.0
  0
LINE
  5
108
  8
1
 62
     7
 10
-228.49998813008099
 20
70.564918772689623
 30
0.0
 11
-228.49998813008099
 21
57.16491877268961
 31
0.0
  0
LINE
  5
109
  8
1
 62
     7
 10
-230.45803678157981
 20
70.864918772689634
 30
0.0
 11
-228.79998813008089
 21
70.864918772689634
 31
0.0
  0
LINE
  5
10A
  8
1
 62
     7
 10
-226.899988130081
 20
71.614918772689634
 30
0.0
 11
-226.899988130081
 21
56.11491877268962
 31
0.0
  0
LINE
  5
10B
  8
1
 62
     7
 10
-228.49998813008099
 20
71.614918772689634
 30
0.0
 11
-226.899988130081
 21
71.614918772689634
 31
0.0
  0
LINE
  5
10C
  8
1
 62
     7
 10
-228.49998813008099
 20
56.11491877268962
 30
0.0
 11
-228.49998813008099
 21
71.614918772689634
 31
0.0
  0
LINE
  5
10D
  8
1
 62
     7
 10
-226.899988130081
 20
56.11491877268962
 30
0.0
 11
-228.49998813008099
 21
56.11491877268962
 31
0.0
  0
LINE
  5
10E
  8
1
 62
     7
 10
-226.899988130081
 20
56.11491877268962
 30
0.0
 11
-226.899988130081
 21
43.864918772689613
 31
0.0
  0
LINE
  5
10F
  8
1
 62
     7
 10
-226.899988130081
 20
56.11491877268962
 30
0.0
 11
-226.899988130081
 21
71.614918772689634
 31
0.0
  0
LINE
  5
110
  8
1
 62
     7
 10
-226.899988130081
 20
71.614918772689634
 30
0.0
 11
-226.899988130081
 21
56.11491877268962
 31
0.0
  0
LINE
  5
111
  8
1
 62
     7
 10
-223.69998813008101
 20
47.791255363263417
 30
0.0
 11
-223.69998813008101
 21
49.66491877268961
 31
0.0
  0
LINE
  5
112
  8
1
 62
     7
 10
-223.69998813008101
 20
55.575490255967317
 30
0.0
 11
-223.69998813008101
 21
72.364918772689634
 31
0.0
  0
LINE
  5
113
  8
1
 62
     7
 10
-223.69998813008101
 20
55.575490255967317
 30
0.0
 11
-223.69998813008101
 21
47.791255363263417
 31
0.0
  0
LINE
  5
114
  8
1
 62
     7
 10
-223.69998813008101
 20
43.864918772689613
 30
0.0
 11
-223.69998813008101
 21
27.271652032953089
 31
0.0
  0
LINE
  5
115
  8
1
 62
     7
 10
-226.899988130081
 20
43.864918772689613
 30
0.0
 11
-223.69998813008101
 21
43.864918772689613
 31
0.0
  0
LINE
  5
116
  8
1
 62
     7
 10
-226.899988130081
 20
72.364918772689634
 30
0.0
 11
-226.899988130081
 21
71.614918772689634
 31
0.0
  0
LINE
  5
117
  8
1
 62
     7
 10
-223.69998813008101
 20
72.364918772689634
 30
0.0
 11
-226.899988130081
 21
72.364918772689634
 31
0.0
  0
LINE
  5
118
  8
1
  6
DASHDOT
 62
     3
 10
-237.3544259999029
 20
-26.135081227310369
 30
0.0
 11
-229.6999881300809
 21
-26.135081227310369
 31
0.0
  0
LINE
  5
119
  8
1
 62
     7
 10
-223.69998813008101
 20
117.36491877268951
 30
0.0
 11
-220.6999881300809
 21
120.36491877268951
 31
0.0
  0
LINE
  5
11A
  8
1
 62
     7
 10
-189.6999881300809
 20
129.36491877268949
 30
0.0
 11
-187.6999881300809
 21
131.36491877268949
 31
0.0
  0
LINE
  5
11B
  8
1
 62
     7
 10
-228.6999881300809
 20
18.86491877268962
 30
0.0
 11
-229.6999881300809
 21
17.86491877268962
 31
0.0
  0
LINE
  5
11C
  8
1
 62
     7
 10
-226.6999881300809
 20
18.86491877268962
 30
0.0
 11
-228.6999881300809
 21
18.86491877268962
 31
0.0
  0
LINE
  5
11D
  8
1
 62
     7
 10
-226.6999881300809
 20
18.86491877268962
 30
0.0
 11
-226.6999881300809
 21
17.86491877268962
 31
0.0
  0
LINE
  5
11E
  8
1
 62
     7
 10
-226.6999881300809
 20
18.880049295532089
 30
0.0
 11
-226.6999881300809
 21
18.86491877268962
 31
0.0
  0
LINE
  5
11F
  8
1
 62
     7
 10
-226.6999881300809
 20
18.880049295532089
 30
0.0
 11
-226.6999881300809
 21
18.86491877268962
 31
0.0
  0
LINE
  5
120
  8
1
 62
     7
 10
-223.69998813008101
 20
23.811918076305261
 30
0.0
 11
-223.69998813008101
 21
23.064918772689641
 31
0.0
  0
LINE
  5
121
  8
1
 62
     7
 10
-223.69998813008101
 20
23.811918076305261
 30
0.0
 11
-223.69998813008101
 21
17.86491877268962
 31
0.0
  0
LINE
  5
122
  8
1
 62
     7
 10
-226.6999881300809
 20
27.271652032953089
 30
0.0
 11
-226.6999881300809
 21
18.880049295532089
 31
0.0
  0
LINE
  5
123
  8
1
 62
     7
 10
-223.69998813008101
 20
17.86491877268962
 30
0.0
 11
-226.6999881300809
 21
17.86491877268962
 31
0.0
  0
LINE
  5
124
  8
1
 62
     7
 10
-223.69998813008101
 20
27.271652032953089
 30
0.0
 11
-226.6999881300809
 21
27.271652032953089
 31
0.0
  0
LINE
  5
125
  8
1
 62
     7
 10
-196.16032342817601
 20
46.86491877268962
 30
0.0
 11
-196.16032342817601
 21
24.51654169691712
 31
0.0
  0
LINE
  5
126
  8
1
 62
     7
 10
-221.00836146582111
 20
46.86491877268962
 30
0.0
 11
-221.00836146582111
 21
24.861653336328839
 31
0.0
  0
LINE
  5
127
  8
1
 62
     7
 10
-179.6999881300809
 20
120.36491877268951
 30
0.0
 11
-179.6999881300809
 21
73.864918772689634
 31
0.0
  0
LINE
  5
128
  8
1
 62
     7
 10
-223.69998813008101
 20
53.86491877268962
 30
0.0
 11
-193.6999881300809
 21
53.86491877268962
 31
0.0
  0
LINE
  5
129
  8
1
 62
     7
 10
-223.69998813008101
 20
53.86491877268962
 30
0.0
 11
-223.69998813008101
 21
55.575490255967317
 31
0.0
  0
LINE
  5
12A
  8
1
 62
     7
 10
-194.6999881300809
 20
73.864918772689634
 30
0.0
 11
-179.6999881300809
 21
73.864918772689634
 31
0.0
  0
LINE
  5
12B
  8
1
 62
     7
 10
-194.6999881300809
 20
58.86491877268962
 30
0.0
 11
-194.6999881300809
 21
73.864918772689634
 31
0.0
  0
LINE
  5
12C
  8
1
 62
     7
 10
-189.6999881300809
 20
58.86491877268962
 30
0.0
 11
-194.6999881300809
 21
58.86491877268962
 31
0.0
  0
LINE
  5
12D
  8
1
 62
     7
 10
-189.6999881300809
 20
46.86491877268962
 30
0.0
 11
-189.6999881300809
 21
58.86491877268962
 31
0.0
  0
LINE
  5
12E
  8
1
 62
     7
 10
-193.6999881300809
 20
46.86491877268962
 30
0.0
 11
-189.6999881300809
 21
46.86491877268962
 31
0.0
  0
LINE
  5
12F
  8
1
 62
     7
 10
-193.6999881300809
 20
27.271652032953089
 30
0.0
 11
-193.6999881300809
 21
29.864918772689649
 31
0.0
  0
LINE
  5
130
  8
1
 62
     7
 10
-203.4499881300809
 20
27.271652032953028
 30
0.0
 11
-193.6999881300809
 21
27.271652032953089
 31
0.0
  0
LINE
  5
131
  8
1
 62
     7
 10
-223.69998813008101
 20
27.271652032953089
 30
0.0
 11
-223.69998813008101
 21
23.811918076305261
 31
0.0
  0
LINE
  5
132
  8
1
 62
     7
 10
-213.9499881300809
 20
27.271652032953028
 30
0.0
 11
-223.69998813008101
 21
27.271652032953089
 31
0.0
  0
LINE
  5
133
  8
1
 62
     7
 10
-223.69998813008101
 20
45.458185512426127
 30
0.0
 11
-223.69998813008101
 21
43.864918772689613
 31
0.0
  0
LINE
  5
134
  8
1
 62
     7
 10
-213.9499881300809
 20
45.458185512426219
 30
0.0
 11
-223.69998813008101
 21
45.458185512426127
 31
0.0
  0
LINE
  5
135
  8
1
 62
     7
 10
-203.4499881300809
 20
45.458185512426219
 30
0.0
 11
-193.6999881300809
 21
45.458185512426127
 31
0.0
  0
LINE
  5
136
  8
1
 62
     7
 10
-223.69998813008101
 20
45.458185512426127
 30
0.0
 11
-223.69998813008101
 21
47.791255363263417
 31
0.0
  0
LINE
  5
137
  8
1
 62
     7
 10
-193.6999881300809
 20
27.271652032953089
 30
0.0
 11
-193.6999881300809
 21
23.064918772689641
 31
0.0
  0
LINE
  5
138
  8
1
 62
     7
 10
-219.49998813008091
 20
18.86491877268962
 30
0.0
 11
-197.89998813008111
 21
18.86491877268962
 31
0.0
  0
LINE
  5
139
  8
1
 62
     7
 10
-220.33998813008091
 20
18.86491877268962
 30
0.0
 11
-197.05998813008091
 21
18.86491877268962
 31
0.0
  0
LINE
  5
13A
  8
1
 62
     7
 10
-193.6999881300809
 20
18.86491877268962
 30
0.0
 11
-223.69998813008101
 21
18.86491877268962
 31
0.0
  0
LINE
  5
13B
  8
1
 62
     7
 10
-184.1999881300809
 20
29.864918772689649
 30
0.0
 11
-193.6999881300809
 21
29.864918772689649
 31
0.0
  0
LINE
  5
13C
  8
1
 62
     7
 10
-184.1999881300809
 20
63.86491877268962
 30
0.0
 11
-184.1999881300809
 21
29.864918772689649
 31
0.0
  0
LINE
  5
13D
  8
1
 62
     7
 10
-189.6999881300809
 20
63.86491877268962
 30
0.0
 11
-184.1999881300809
 21
63.86491877268962
 31
0.0
  0
LINE
  5
13E
  8
1
 62
     7
 10
-189.6999881300809
 20
72.814918772689637
 30
0.0
 11
-189.6999881300809
 21
63.86491877268962
 31
0.0
  0
LINE
  5
13F
  8
1
 62
     7
 10
-176.6999881300809
 20
72.814918772689637
 30
0.0
 11
-189.6999881300809
 21
72.814918772689637
 31
0.0
  0
LINE
  5
140
  8
1
 62
     7
 10
-176.6999881300809
 20
92.864918772689634
 30
0.0
 11
-176.6999881300809
 21
72.814918772689637
 31
0.0
  0
LINE
  5
141
  8
1
 62
     7
 10
-170.6999881300809
 20
92.864918772689634
 30
0.0
 11
-176.6999881300809
 21
92.864918772689634
 31
0.0
  0
LINE
  5
142
  8
1
 62
     7
 10
-170.6999881300809
 20
121.4149187726895
 30
0.0
 11
-170.6999881300809
 21
92.864918772689634
 31
0.0
  0
LINE
  5
143
  8
1
 62
     7
 10
-189.6999881300809
 20
121.4149187726895
 30
0.0
 11
-170.6999881300809
 21
121.4149187726895
 31
0.0
  0
LINE
  5
144
  8
1
 62
     7
 10
-189.6999881300809
 20
121.4149187726895
 30
0.0
 11
-189.6999881300809
 21
129.36491877268949
 31
0.0
  0
LINE
  5
145
  8
1
 62
     7
 10
-229.6999881300809
 20
17.86491877268962
 30
0.0
 11
-229.6999881300809
 21
-70.135081227310366
 31
0.0
  0
LINE
  5
146
  8
1
 62
     7
 10
-159.69998813008101
 20
131.36491877268949
 30
0.0
 11
-187.6999881300809
 21
131.36491877268949
 31
0.0
  0
LINE
  5
147
  8
1
 62
     7
 10
105.4550093507701
 20
156.86497850724541
 30
0.0
 11
125.4550093507704
 21
156.86497850724541
 31
0.0
  0
LINE
  5
148
  8
1
  6
DASHDOT
 62
     3
 10
155.20572284653201
 20
13.61563226845146
 30
0.0
 11
166.88798413809039
 21
25.297893560009921
 31
0.0
  0
LINE
  5
149
  8
1
 62
     7
 10
141.90080586348759
 20
90.914565704271411
 30
0.0
 11
141.2541874468881
 21
88.497603507737125
 31
0.0
  0
LINE
  5
14A
  8
1
 62
     7
 10
150.42953528279961
 20
86.039035822166795
 30
0.0
 11
151.07710121323379
 21
88.455784775797554
 31
0.0
  0
LINE
  5
14B
  8
1
 62
     7
 10
89.656778768486888
 20
88.497816750640808
 30
0.0
 11
89.009212838052804
 21
90.914565704271411
 31
0.0
  0
LINE
  5
14C
  8
1
 62
     7
 10
35.796637304848673
 20
60.240805239883429
 30
0.0
 11
34.027454281652069
 21
62.009988263080018
 31
0.0
  0
LINE
  5
14D
  8
1
 62
     7
 10
3.280892301293064
 20
8.8394447047192557
 30
0.0
 11
0.8641433476623774
 21
9.4870106351533536
 31
0.0
  0
LINE
  5
14E
  8
1
 62
     7
 10
0.8221113728190658
 20
-51.93331180959364
 30
0.0
 11
-1.5946375808114499
 21
-52.580877740027738
 31
0.0
  0
LINE
  5
14F
  8
1
 62
     7
 10
29.079122883576471
 20
-105.79345327323171
 30
0.0
 11
27.30993986037987
 21
-107.56263629642839
 31
0.0
  0
LINE
  5
150
  8
1
 62
     7
 10
80.480483418740704
 20
-138.30919827678741
 30
0.0
 11
79.832917488306578
 21
-140.725947230418
 31
0.0
  0
LINE
  5
151
  8
1
 62
     7
 10
195.11338139669181
 20
-112.510967694504
 30
0.0
 11
196.8825644198881
 21
-114.28015071770049
 31
0.0
  0
LINE
  5
152
  8
1
 62
     7
 10
227.62912640024729
 20
-61.109607159339888
 30
0.0
 11
230.0458753538779
 21
-61.757173089773971
 31
0.0
  0
LINE
  5
153
  8
1
 62
     7
 10
230.08790732872129
 20
-0.336850645026999
 30
0.0
 11
232.5046562823519
 21
0.3107152854070989
 31
0.0
  0
LINE
  5
154
  8
1
 62
     7
 10
201.83089581796401
 20
53.523290818611223
 30
0.0
 11
203.6000788411605
 21
55.29247384180772
 31
0.0
  0
LINE
  5
155
  8
1
 62
     7
 10
79.832917488306578
 20
88.455784775797554
 30
0.0
 11
80.481410611243675
 21
86.039324905312398
 31
0.0
  0
LINE
  5
156
  8
1
 62
     7
 10
27.30993986037987
 20
55.292473841807819
 30
0.0
 11
29.079781314265571
 21
53.524004768210617
 31
0.0
  0
LINE
  5
157
  8
1
 62
     7
 10
-1.5946375808114499
 20
0.3107152854072126
 30
0.0
 11
0.8223246157227777
 21
-0.335903131192282
 31
0.0
  0
LINE
  5
158
  8
1
 62
     7
 10
0.8641433476623774
 20
-61.757173089773893
 30
0.0
 11
3.2806032181474758
 21
-61.108679966836768
 31
0.0
  0
LINE
  5
159
  8
1
 62
     7
 10
34.027454281652069
 20
-114.28015071770049
 30
0.0
 11
35.795923355249158
 21
-112.510309263815
 31
0.0
  0
LINE
  5
15A
  8
1
 62
     7
 10
89.009212838052647
 20
-143.184728158892
 30
0.0
 11
89.655831254652199
 21
-140.7677659623576
 31
0.0
  0
LINE
  5
15B
  8
1
 62
     7
 10
151.07710121323379
 20
-140.725947230418
 30
0.0
 11
150.42860809029651
 21
-138.309487359933
 31
0.0
  0
LINE
  5
15C
  8
1
 62
     7
 10
203.60007884116041
 20
-107.56263629642849
 30
0.0
 11
201.83023738727491
 21
-105.79416722283131
 31
0.0
  0
LINE
  5
15D
  8
1
 62
     7
 10
232.5046562823519
 20
-52.580877740027852
 30
0.0
 11
230.08769408581759
 21
-51.934259323428371
 31
0.0
  0
LINE
  5
15E
  8
1
 62
     7
 10
230.0458753538779
 20
9.4870106351532382
 30
0.0
 11
227.62941548339299
 21
8.8385175122161286
 31
0.0
  0
LINE
  5
15F
  8
1
 62
     7
 10
196.88256441988841
 20
62.009988263079919
 30
0.0
 11
195.11409534629129
 21
60.240146809194329
 31
0.0
  0
LINE
  5
160
  8
1
 62
     7
 10
-159.69998813008101
 20
9.8649187726896326
 30
0.0
 11
-134.69998813008101
 21
9.8649187726896326
 31
0.0
  0
LINE
  5
161
  8
1
 62
     7
 10
-139.69998813008101
 20
22.86491877268962
 30
0.0
 11
-134.69998813008101
 21
22.86491877268962
 31
0.0
  0
LINE
  5
162
  8
1
 62
     7
 10
-134.69998813008101
 20
28.864918772689641
 30
0.0
 11
-106.699988130081
 21
28.864918772689641
 31
0.0
  0
LINE
  5
163
  8
1
 62
     7
 10
-107.699988130081
 20
54.514918772689633
 30
0.0
 11
-138.69998813008101
 21
54.514918772689633
 31
0.0
  0
LINE
  5
164
  8
1
 62
     7
 10
-139.69998813008101
 20
12.864918772689631
 30
0.0
 11
-139.69998813008101
 21
53.514918772689619
 31
0.0
  0
LINE
  5
165
  8
1
 62
     7
 10
-134.69998813008101
 20
28.864918772689641
 30
0.0
 11
-134.69998813008101
 21
8.2885508640385552
 31
0.0
  0
LINE
  5
166
  8
1
  6
DASHDOT
 62
     3
 10
-139.69998813008101
 20
38.86491877268962
 30
0.0
 11
-106.699988130081
 21
38.86491877268962
 31
0.0
  0
LINE
  5
167
  8
1
 62
     7
 10
-139.69998813008101
 20
48.86491877268962
 30
0.0
 11
-106.699988130081
 21
48.86491877268962
 31
0.0
  0
LINE
  5
168
  8
1
 62
     7
 10
-139.69998813008101
 20
45.36491877268962
 30
0.0
 11
-106.699988130081
 21
45.36491877268962
 31
0.0
  0
LINE
  5
169
  8
1
 62
     7
 10
-139.69998813008101
 20
32.364918772689649
 30
0.0
 11
-109.4194364294289
 21
32.364918772689649
 31
0.0
  0
LINE
  5
16A
  8
1
 62
     7
 10
-109.4194364294289
 20
32.364918772689649
 30
0.0
 11
-106.699988130081
 21
32.364918772689649
 31
0.0
  0
LINE
  5
16B
  8
1
 62
     3
 10
-142.48955604970891
 20
38.86491877268962
 30
0.0
 11
-136.55480997674599
 21
38.86491877268962
 31
0.0
  0
LINE
  5
16C
  8
1
 62
     3
 10
-106.699988130081
 20
38.86491877268962
 30
0.0
 11
-103.48469035646509
 21
38.86491877268962
 31
0.0
  0
LINE
  5
16D
  8
1
 62
     7
 10
-106.699988130081
 20
53.514918772689619
 30
0.0
 11
-107.699988130081
 21
54.514918772689633
 31
0.0
  0
LINE
  5
16E
  8
1
 62
     7
 10
-139.69998813008101
 20
53.514918772689619
 30
0.0
 11
-138.69998813008101
 21
54.514918772689633
 31
0.0
  0
LINE
  5
16F
  8
1
 62
     7
 10
-141.19998813008101
 20
69.864918772689634
 30
0.0
 11
-150.5999881300811
 21
69.864918772689634
 31
0.0
  0
LINE
  5
170
  8
1
 62
     7
 10
-150.5999881300811
 20
69.864918772689634
 30
0.0
 11
-151.1999881300811
 21
70.904149257230941
 31
0.0
  0
LINE
  5
171
  8
1
 62
     7
 10
-151.1999881300811
 20
70.904149257230941
 30
0.0
 11
-151.1999881300811
 21
84.825688288148314
 31
0.0
  0
LINE
  5
172
  8
1
 62
     7
 10
-151.1999881300811
 20
84.825688288148314
 30
0.0
 11
-150.5999881300811
 21
85.864918772689634
 31
0.0
  0
LINE
  5
173
  8
1
 62
     7
 10
-150.5999881300811
 20
85.864918772689634
 30
0.0
 11
-141.19998813008101
 21
85.864918772689634
 31
0.0
  0
LINE
  5
174
  8
1
 62
     7
 10
-141.19998813008101
 20
85.864918772689634
 30
0.0
 11
-141.19998813008101
 21
69.864918772689634
 31
0.0
  0
LINE
  5
175
  8
1
 62
     7
 10
-150.5999881300811
 20
69.864918772689634
 30
0.0
 11
-150.5999881300811
 21
85.864918772689634
 31
0.0
  0
LINE
  5
176
  8
1
 62
     7
 10
-141.19998813008101
 20
72.864918772689634
 30
0.0
 11
-114.199988130081
 21
72.864918772689634
 31
0.0
  0
LINE
  5
177
  8
1
 62
     7
 10
-114.199988130081
 20
72.864918772689634
 30
0.0
 11
-113.199988130081
 21
73.864918772689634
 31
0.0
  0
LINE
  5
178
  8
1
 62
     7
 10
-113.199988130081
 20
73.864918772689634
 30
0.0
 11
-113.199988130081
 21
81.864918772689634
 31
0.0
  0
LINE
  5
179
  8
1
 62
     7
 10
-113.199988130081
 20
81.864918772689634
 30
0.0
 11
-114.199988130081
 21
82.864918772689634
 31
0.0
  0
LINE
  5
17A
  8
1
 62
     7
 10
-114.199988130081
 20
82.864918772689634
 30
0.0
 11
-141.19998813008101
 21
82.864918772689634
 31
0.0
  0
LINE
  5
17B
  8
1
 62
     7
 10
-114.199988130081
 20
72.864918772689634
 30
0.0
 11
-114.199988130081
 21
82.864918772689634
 31
0.0
  0
LINE
  5
17C
  8
1
 62
     3
 10
-113.199988130081
 20
73.864918772689634
 30
0.0
 11
-138.96793732251231
 21
73.864918772689634
 31
0.0
  0
LINE
  5
17D
  8
1
 62
     3
 10
-138.96793732251231
 20
73.864918772689634
 30
0.0
 11
-140.69998813008101
 21
72.864918772689634
 31
0.0
  0
LINE
  5
17E
  8
1
 62
     3
 10
-113.199988130081
 20
81.864918772689634
 30
0.0
 11
-138.96793732251231
 21
81.864918772689634
 31
0.0
  0
LINE
  5
17F
  8
1
 62
     3
 10
-138.96793732251231
 20
81.864918772689634
 30
0.0
 11
-140.69998813008101
 21
82.864918772689634
 31
0.0
  0
LINE
  5
180
  8
1
 62
     3
 10
-138.96793732251231
 20
72.864918772689634
 30
0.0
 11
-138.96793732251231
 21
82.864918772689634
 31
0.0
  0
LINE
  5
181
  8
1
 62
     7
 10
-134.49998813008091
 20
85.864918772689634
 30
0.0
 11
-129.49998813008099
 21
85.864918772689634
 31
0.0
  0
LINE
  5
182
  8
1
 62
     7
 10
-129.49998813008099
 20
85.864918772689634
 30
0.0
 11
-129.49998813008099
 21
82.864918772689634
 31
0.0
  0
LINE
  5
183
  8
1
 62
     7
 10
-134.49998813008091
 20
72.864918772689634
 30
0.0
 11
-134.49998813008091
 21
69.864918772689634
 31
0.0
  0
LINE
  5
184
  8
1
 62
     7
 10
-134.49998813008091
 20
69.864918772689634
 30
0.0
 11
-129.49998813008099
 21
69.864918772689634
 31
0.0
  0
LINE
  5
185
  8
1
 62
     7
 10
-129.49998813008099
 20
69.864918772689634
 30
0.0
 11
-129.49998813008099
 21
72.864918772689634
 31
0.0
  0
LINE
  5
186
  8
1
 62
     7
 10
-127.699988130081
 20
86.864918772689634
 30
0.0
 11
-114.799988130081
 21
86.864918772689634
 31
0.0
  0
LINE
  5
187
  8
1
 62
     7
 10
-113.799988130081
 20
85.864918772689634
 30
0.0
 11
-113.799988130081
 21
82.464918772689543
 31
0.0
  0
LINE
  5
188
  8
1
 62
     7
 10
-127.699988130081
 20
86.864918772689634
 30
0.0
 11
-127.699988130081
 21
82.864918772689634
 31
0.0
  0
LINE
  5
189
  8
1
 62
     7
 10
-127.699988130081
 20
72.864918772689634
 30
0.0
 11
-127.699988130081
 21
68.864918772689634
 31
0.0
  0
LINE
  5
18A
  8
1
 62
     7
 10
-127.699988130081
 20
68.864918772689634
 30
0.0
 11
-123.799988130081
 21
68.864918772689634
 31
0.0
  0
LINE
  5
18B
  8
1
 62
     7
 10
-123.799988130081
 20
68.864918772689634
 30
0.0
 11
-123.799988130081
 21
60.86491877268962
 31
0.0
  0
LINE
  5
18C
  8
1
 62
     7
 10
-123.799988130081
 20
60.86491877268962
 30
0.0
 11
-121.799988130081
 21
60.86491877268962
 31
0.0
  0
LINE
  5
18D
  8
1
 62
     7
 10
-121.799988130081
 20
60.86491877268962
 30
0.0
 11
-121.799988130081
 21
48.86491877268962
 31
0.0
  0
LINE
  5
18E
  8
1
 62
     7
 10
-129.49998813008099
 20
69.864918772689634
 30
0.0
 11
-129.49998813008099
 21
68.864918772689634
 31
0.0
  0
LINE
  5
18F
  8
1
 62
     7
 10
-129.49998813008099
 20
68.864918772689634
 30
0.0
 11
-127.699988130081
 21
68.864918772689634
 31
0.0
  0
LINE
  5
190
  8
1
 62
     7
 10
-129.49998813008099
 20
86.864918772689634
 30
0.0
 11
-129.49998813008099
 21
85.864918772689634
 31
0.0
  0
LINE
  5
191
  8
1
 62
     7
 10
-129.49998813008099
 20
86.864918772689634
 30
0.0
 11
-127.699988130081
 21
86.864918772689634
 31
0.0
  0
LINE
  5
192
  8
1
 62
     7
 10
-158.99998813008099
 20
131.36491877268949
 30
0.0
 11
-158.99998813008099
 21
12.864918772689631
 31
0.0
  0
LINE
  5
193
  8
1
 62
     7
 10
-158.99998813008099
 20
131.36491877268949
 30
0.0
 11
-145.19998813008101
 21
131.36491877268949
 31
0.0
  0
LINE
  5
194
  8
1
 62
     7
 10
-134.49998813008091
 20
72.864918772689634
 30
0.0
 11
-134.49998813008091
 21
66.364918772689634
 31
0.0
  0
LINE
  5
195
  8
1
 62
     7
 10
-134.49998813008091
 20
66.364918772689634
 30
0.0
 11
-138.5999881300811
 21
66.364918772689634
 31
0.0
  0
LINE
  5
196
  8
1
 62
     7
 10
-136.5999881300811
 20
63.964918772689629
 30
0.0
 11
-134.49998813008091
 21
63.964918772689629
 31
0.0
  0
LINE
  5
197
  8
1
 62
     7
 10
-134.49998813008091
 20
63.964918772689629
 30
0.0
 11
-134.49998813008091
 21
61.36491877268962
 31
0.0
  0
LINE
  5
198
  8
1
 62
     7
 10
-138.5999881300811
 20
72.864918772689634
 30
0.0
 11
-138.5999881300811
 21
65.964918772689629
 31
0.0
  0
LINE
  5
199
  8
1
 62
     7
 10
-134.49998813008091
 20
131.36491877268949
 30
0.0
 11
-134.49998813008091
 21
82.864918772689634
 31
0.0
  0
LINE
  5
19A
  8
1
 62
     7
 10
-138.5999881300811
 20
82.864918772689634
 30
0.0
 11
-138.5999881300811
 21
126.7649187726896
 31
0.0
  0
LINE
  5
19B
  8
1
 62
     7
 10
-134.49998813008091
 20
68.364918772689634
 30
0.0
 11
-131.9329427407209
 21
68.364918772689634
 31
0.0
  0
LINE
  5
19C
  8
1
 62
     7
 10
-128.69998813008101
 20
65.081657378172494
 30
0.0
 11
-128.69998813008101
 21
57.055919465032417
 31
0.0
  0
LINE
  5
19D
  8
1
 62
     7
 10
-128.08636315472791
 20
56.314918772689609
 30
0.0
 11
-122.49998813008099
 21
56.314918772689609
 31
0.0
  0
LINE
  5
19E
  8
1
 62
     7
 10
-134.49998813008091
 20
66.564918772689623
 30
0.0
 11
-131.75904914870489
 21
66.564918772689623
 31
0.0
  0
LINE
  5
19F
  8
1
 62
     7
 10
-122.49998813008099
 20
56.314918772689609
 30
0.0
 11
-122.49998813008099
 21
54.514918772689633
 31
0.0
  0
LINE
  5
1A0
  8
1
 62
     7
 10
-128.69998813008101
 20
57.86491877268962
 30
0.0
 11
-126.8999881300809
 21
57.86491877268962
 31
0.0
  0
LINE
  5
1A1
  8
1
 62
     7
 10
-126.8999881300809
 20
57.86491877268962
 30
0.0
 11
-126.8999881300809
 21
63.86491877268962
 31
0.0
  0
LINE
  5
1A2
  8
1
 62
     7
 10
-128.69998813008101
 20
63.86491877268962
 30
0.0
 11
-126.8999881300809
 21
63.86491877268962
 31
0.0
  0
LINE
  5
1A3
  8
1
 62
     7
 10
-128.69998813008101
 20
68.864918772689634
 30
0.0
 11
-128.69998813008101
 21
64.302055010276916
 31
0.0
  0
LINE
  5
1A4
  8
1
 62
     7
 10
-126.8999881300809
 20
63.86491877268962
 30
0.0
 11
-126.8999881300809
 21
68.864918772689634
 31
0.0
  0
LINE
  5
1A5
  8
1
 62
     7
 10
-126.8999881300809
 20
-110.13508122731039
 30
0.0
 11
-128.69998813008101
 21
-110.13508122731039
 31
0.0
  0
LINE
  5
1A6
  8
1
 62
     7
 10
-122.49998813008099
 20
-106.7850812273104
 30
0.0
 11
-122.49998813008099
 21
-108.5850812273104
 31
0.0
  0
LINE
  5
1A7
  8
1
 62
     7
 10
-130.49998813008111
 20
-109.27422430048701
 30
0.0
 11
-130.49998813008111
 21
-117.5035986499749
 31
0.0
  0
LINE
  5
1A8
  8
1
 62
     7
 10
-122.49998813008099
 20
-108.5850812273104
 30
0.0
 11
-128.08636315472791
 21
-108.5850812273104
 31
0.0
  0
LINE
  5
1A9
  8
1
 62
     7
 10
-131.9329427407209
 20
-120.63508122731039
 30
0.0
 11
-134.49998813008091
 21
-120.63508122731039
 31
0.0
  0
LINE
  5
1AA
  8
1
 62
     7
 10
-138.59998813008099
 20
-179.03508122731029
 30
0.0
 11
-138.59998813008099
 21
-118.2350812273104
 31
0.0
  0
LINE
  5
1AB
  8
1
 62
     7
 10
-134.49998813008091
 20
-183.63508122731039
 30
0.0
 11
-134.49998813008091
 21
-113.63508122731039
 31
0.0
  0
LINE
  5
1AC
  8
1
 62
     7
 10
-134.49998813008091
 20
-181.03508122731029
 30
0.0
 11
-136.59998813008099
 21
-181.03508122731029
 31
0.0
  0
LINE
  5
1AD
  8
1
 62
     7
 10
-134.49998813008091
 20
-183.63508122731039
 30
0.0
 11
-136.59998813008099
 21
-183.63508122731039
 31
0.0
  0
LINE
  5
1AE
  8
1
 62
     7
 10
-145.19998813008101
 20
-183.63508122731039
 30
0.0
 11
-158.99998813008099
 21
-183.63508122731039
 31
0.0
  0
LINE
  5
1AF
  8
1
 62
     7
 10
-121.799988130081
 20
-101.13508122731039
 30
0.0
 11
-121.799988130081
 21
-113.13508122731039
 31
0.0
  0
LINE
  5
1B0
  8
1
 62
     7
 10
-121.799988130081
 20
-113.13508122731039
 30
0.0
 11
-123.799988130081
 21
-113.13508122731039
 31
0.0
  0
LINE
  5
1B1
  8
1
 62
     7
 10
-114.799988130081
 20
-139.13508122731039
 30
0.0
 11
-123.799988130081
 21
-139.13508122731039
 31
0.0
  0
LINE
  5
1B2
  8
1
 62
     7
 10
-138.69998813008101
 20
-106.7850812273104
 30
0.0
 11
-139.69998813008101
 21
-105.7850812273104
 31
0.0
  0
LINE
  5
1B3
  8
1
 62
     7
 10
-107.699988130081
 20
-106.7850812273104
 30
0.0
 11
-106.699988130081
 21
-105.7850812273104
 31
0.0
  0
LINE
  5
1B4
  8
1
 62
     3
 10
-106.699988130081
 20
-84.635081227310366
 30
0.0
 11
-109.4194364294289
 21
-84.635081227310366
 31
0.0
  0
LINE
  5
1B5
  8
1
 62
     3
 10
-109.4194364294289
 20
-84.635081227310366
 30
0.0
 11
-139.69998813008101
 21
-84.635081227310366
 31
0.0
  0
LINE
  5
1B6
  8
1
 62
     3
 10
-106.699988130081
 20
-97.635081227310351
 30
0.0
 11
-139.69998813008101
 21
-97.635081227310351
 31
0.0
  0
LINE
  5
1B7
  8
1
 62
     7
 10
-106.699988130081
 20
-101.13508122731039
 30
0.0
 11
-139.69998813008101
 21
-101.13508122731039
 31
0.0
  0
LINE
  5
1B8
  8
1
 62
     7
 10
-106.699988130081
 20
-105.7850812273104
 30
0.0
 11
-106.699988130081
 21
53.514918772689619
 31
0.0
  0
LINE
  5
1B9
  8
1
 62
     7
 10
-134.69998813008101
 20
-60.558713318659287
 30
0.0
 11
-134.69998813008101
 21
-81.135081227310366
 31
0.0
  0
LINE
  5
1BA
  8
1
 62
     7
 10
-139.69998813008101
 20
-105.7850812273104
 30
0.0
 11
-139.69998813008101
 21
-65.135081227310366
 31
0.0
  0
LINE
  5
1BB
  8
1
 62
     7
 10
-138.69998813008101
 20
-106.7850812273104
 30
0.0
 11
-107.699988130081
 21
-106.7850812273104
 31
0.0
  0
LINE
  5
1BC
  8
1
 62
     7
 10
-106.699988130081
 20
-81.135081227310366
 30
0.0
 11
-134.69998813008101
 21
-81.135081227310366
 31
0.0
  0
LINE
  5
1BD
  8
1
 62
     7
 10
-134.69998813008101
 20
-75.135081227310366
 30
0.0
 11
-139.69998813008101
 21
-75.135081227310366
 31
0.0
  0
LINE
  5
1BE
  8
1
 62
     7
 10
-134.69998813008101
 20
-62.135081227310373
 30
0.0
 11
-134.69998813008101
 21
9.8649187726896326
 31
0.0
  0
LINE
  5
1BF
  8
1
 62
     7
 10
-134.69998813008101
 20
-56.135081227310373
 30
0.0
 11
-229.6999881300809
 21
-56.135081227310373
 31
0.0
  0
LINE
  5
1C0
  8
1
 62
     7
 10
-123.799988130081
 20
-139.13508122731039
 30
0.0
 11
-123.799988130081
 21
-113.13508122731039
 31
0.0
  0
LINE
  5
1C1
  8
1
 62
     7
 10
-128.69998813008101
 20
-139.13508122731039
 30
0.0
 11
-128.69998813008101
 21
-109.32608191965301
 31
0.0
  0
LINE
  5
1C2
  8
1
 62
     7
 10
-126.8999881300809
 20
-139.13508122731039
 30
0.0
 11
-126.8999881300809
 21
-110.13508122731039
 31
0.0
  0
LINE
  5
1C3
  8
1
 62
     7
 10
-128.69998813008101
 20
-139.13508122731039
 30
0.0
 11
-126.8999881300809
 21
-139.13508122731039
 31
0.0
  0
LINE
  5
1C4
  8
1
 62
     7
 10
-189.6999881300809
 20
47.61017701873611
 30
0.0
 11
-189.6999881300809
 21
36.83574936559242
 31
0.0
  0
LINE
  5
1C5
  8
1
 62
     7
 10
-189.6999881300809
 20
-99.135081227310366
 30
0.0
 11
-189.6999881300809
 21
-89.427074694686169
 31
0.0
  0
LINE
  5
1C6
  8
1
 62
     7
 10
-226.899988130081
 20
-96.135081227310351
 30
0.0
 11
-226.899988130081
 21
-88.248621670123555
 31
0.0
  0
LINE
  5
1C7
  8
1
 62
     7
 10
-226.899988130081
 20
43.864918772689613
 30
0.0
 11
-226.899988130081
 21
34.64719374854765
 31
0.0
  0
LINE
  5
1C8
  8
1
 62
     7
 10
-158.99998813008099
 20
78.864918772689634
 30
0.0
 11
-151.1999881300811
 21
78.864918772689634
 31
0.0
  0
LINE
  5
1C9
  8
1
 62
     7
 10
-158.99998813008099
 20
-131.13508122731039
 30
0.0
 11
-145.19998813008101
 21
-131.13508122731039
 31
0.0
  0
LINE
  5
1CA
  8
1
 62
     7
 10
-145.19998813008101
 20
-146.2850812273104
 30
0.0
 11
-145.19998813008101
 21
-168.48508122731039
 31
0.0
  0
LINE
  5
1CB
  8
1
 62
     7
 10
-132.2375057270479
 20
-118.8350812273104
 30
0.0
 11
-134.49998813008091
 21
-118.8350812273104
 31
0.0
  0
LINE
  5
1CC
  8
1
 62
     7
 10
-226.899988130081
 20
87.905630811314708
 30
0.0
 11
-234.39998813008111
 21
87.905630811314708
 31
0.0
  0
LINE
  5
1CD
  8
1
 62
     7
 10
-234.39998813008111
 20
87.905630811314708
 30
0.0
 11
-234.89998813008111
 21
88.771656215099242
 31
0.0
  0
LINE
  5
1CE
  8
1
 62
     7
 10
-234.89998813008111
 20
88.771656215099242
 30
0.0
 11
-234.89998813008111
 21
100.0396054075302
 31
0.0
  0
LINE
  5
1CF
  8
1
 62
     7
 10
-234.89998813008111
 20
100.0396054075302
 30
0.0
 11
-234.39998813008111
 21
100.90563081131459
 31
0.0
  0
LINE
  5
1D0
  8
1
 62
     7
 10
-234.39998813008111
 20
100.90563081131459
 30
0.0
 11
-226.899988130081
 21
100.90563081131459
 31
0.0
  0
LINE
  5
1D1
  8
1
 62
     7
 10
-226.899988130081
 20
100.90563081131459
 30
0.0
 11
-226.899988130081
 21
87.905630811314708
 31
0.0
  0
LINE
  5
1D2
  8
1
 62
     7
 10
-234.39998813008111
 20
87.905630811314708
 30
0.0
 11
-234.39998813008111
 21
100.90563081131459
 31
0.0
  0
LINE
  5
1D3
  8
1
 62
     7
 10
-403.35786620313991
 20
-183.63508122731039
 30
0.0
 11
-375.35786620313991
 21
-183.63508122731039
 31
0.0
  0
LINE
  5
1D4
  8
1
 62
     7
 10
-445.35786620314002
 20
-70.135081227310366
 30
0.0
 11
-445.35786620314002
 21
17.86491877268962
 31
0.0
  0
LINE
  5
1D5
  8
1
 62
     7
 10
-405.35786620313991
 20
-181.63508122731039
 30
0.0
 11
-405.35786620313991
 21
129.36491877268949
 31
0.0
  0
LINE
  5
1D6
  8
1
 62
     7
 10
-436.35786620313991
 20
-172.63508122731039
 30
0.0
 11
-405.35786620313991
 21
-172.63508122731039
 31
0.0
  0
LINE
  5
1D7
  8
1
 62
     7
 10
-444.35786620313991
 20
-71.135081227310366
 30
0.0
 11
-442.55786620314012
 21
-71.135081227310366
 31
0.0
  0
LINE
  5
1D8
  8
1
 62
     7
 10
-445.35786620314002
 20
-70.135081227310366
 30
0.0
 11
-444.35786620313991
 21
-71.135081227310366
 31
0.0
  0
LINE
  5
1D9
  8
1
 62
     7
 10
-403.35786620313991
 20
-183.63508122731039
 30
0.0
 11
-405.35786620313991
 21
-181.63508122731039
 31
0.0
  0
LINE
  5
1DA
  8
1
 62
     7
 10
-436.35786620313991
 20
-172.63508122731039
 30
0.0
 11
-439.35786620314002
 21
-169.63508122731039
 31
0.0
  0
LINE
  5
1DB
  8
1
 62
     7
 10
-442.55786620314012
 20
-124.63508122731039
 30
0.0
 11
-439.35786620314002
 21
-124.63508122731039
 31
0.0
  0
LINE
  5
1DC
  8
1
 62
     7
 10
-439.35786620314002
 20
-169.63508122731039
 30
0.0
 11
-439.35786620314002
 21
156.86491877268949
 31
0.0
  0
LINE
  5
1DD
  8
1
 62
     7
 10
-442.55786620314012
 20
-123.88508122731039
 30
0.0
 11
-442.55786620314012
 21
-124.63508122731039
 31
0.0
  0
LINE
  5
1DE
  8
1
 62
     7
 10
-442.55786620314012
 20
-123.88508122731039
 30
0.0
 11
-442.55786620314012
 21
-108.38508122731039
 31
0.0
  0
LINE
  5
1DF
  8
1
 62
     7
 10
-442.55786620314012
 20
71.614918772689634
 30
0.0
 11
-442.55786620314012
 21
-123.88508122731039
 31
0.0
  0
LINE
  5
1E0
  8
1
 62
     7
 10
-444.15786620313997
 20
-108.38508122731039
 30
0.0
 11
-442.55786620314012
 21
-108.38508122731039
 31
0.0
  0
LINE
  5
1E1
  8
1
 62
     7
 10
-444.15786620313997
 20
-123.88508122731039
 30
0.0
 11
-444.15786620313997
 21
-108.38508122731039
 31
0.0
  0
LINE
  5
1E2
  8
1
 62
     7
 10
-442.55786620314012
 20
-123.88508122731039
 30
0.0
 11
-444.15786620313997
 21
-123.88508122731039
 31
0.0
  0
LINE
  5
1E3
  8
1
 62
     7
 10
-442.55786620314012
 20
-108.38508122731039
 30
0.0
 11
-442.55786620314012
 21
-123.88508122731039
 31
0.0
  0
LINE
  5
1E4
  8
1
 62
     7
 10
-444.45786620313982
 20
-123.13508122731039
 30
0.0
 11
-446.1159148546389
 21
-123.13508122731039
 31
0.0
  0
LINE
  5
1E5
  8
1
 62
     7
 10
-444.15786620313997
 20
-109.43508122731041
 30
0.0
 11
-444.15786620313997
 21
-122.8350812273104
 31
0.0
  0
LINE
  5
1E6
  8
1
 62
     7
 10
-444.45786620313982
 20
-109.13508122731039
 30
0.0
 11
-446.1159148546389
 21
-109.13508122731039
 31
0.0
  0
LINE
  5
1E7
  8
1
 62
     7
 10
-442.55786620314012
 20
81.864918772689634
 30
0.0
 11
-439.35786620314002
 21
81.864918772689634
 31
0.0
  0
LINE
  5
1E8
  8
1
 62
     7
 10
-446.1159148546389
 20
56.86491877268962
 30
0.0
 11
-444.45786620313982
 21
56.86491877268962
 31
0.0
  0
LINE
  5
1E9
  8
1
 62
     7
 10
-444.15786620313997
 20
70.564918772689623
 30
0.0
 11
-444.15786620313997
 21
57.16491877268961
 31
0.0
  0
LINE
  5
1EA
  8
1
 62
     7
 10
-446.1159148546389
 20
70.864918772689634
 30
0.0
 11
-444.45786620313982
 21
70.864918772689634
 31
0.0
  0
LINE
  5
1EB
  8
1
 62
     7
 10
-444.15786620313997
 20
71.614918772689634
 30
0.0
 11
-442.55786620314012
 21
71.614918772689634
 31
0.0
  0
LINE
  5
1EC
  8
1
 62
     7
 10
-444.15786620313997
 20
56.11491877268962
 30
0.0
 11
-444.15786620313997
 21
71.614918772689634
 31
0.0
  0
LINE
  5
1ED
  8
1
 62
     7
 10
-442.55786620314012
 20
56.11491877268962
 30
0.0
 11
-444.15786620313997
 21
56.11491877268962
 31
0.0
  0
LINE
  5
1EE
  8
1
 62
     7
 10
-442.55786620314012
 20
56.11491877268962
 30
0.0
 11
-442.55786620314012
 21
71.614918772689634
 31
0.0
  0
LINE
  5
1EF
  8
1
 62
     7
 10
-442.55786620314012
 20
71.614918772689634
 30
0.0
 11
-442.55786620314012
 21
56.11491877268962
 31
0.0
  0
LINE
  5
1F0
  8
1
 62
     7
 10
-442.55786620314012
 20
72.364918772689634
 30
0.0
 11
-442.55786620314012
 21
71.614918772689634
 31
0.0
  0
LINE
  5
1F1
  8
1
 62
     7
 10
-439.35786620314002
 20
72.364918772689634
 30
0.0
 11
-442.55786620314012
 21
72.364918772689634
 31
0.0
  0
LINE
  5
1F2
  8
1
 62
     7
 10
-439.35786620314002
 20
117.36491877268951
 30
0.0
 11
-436.35786620313991
 21
120.36491877268951
 31
0.0
  0
LINE
  5
1F3
  8
1
 62
     7
 10
-405.35786620313991
 20
129.36491877268949
 30
0.0
 11
-403.35786620313991
 21
131.36491877268949
 31
0.0
  0
LINE
  5
1F4
  8
1
 62
     7
 10
-444.35786620313991
 20
18.86491877268962
 30
0.0
 11
-445.35786620314002
 21
17.86491877268962
 31
0.0
  0
LINE
  5
1F5
  8
1
 62
     7
 10
-375.35786620313991
 20
131.36491877268949
 30
0.0
 11
-403.35786620313991
 21
131.36491877268949
 31
0.0
  0
LINE
  5
1F6
  8
1
 62
     7
 10
-436.35786620313991
 20
120.36491877268951
 30
0.0
 11
-405.35786620313991
 21
120.36491877268951
 31
0.0
  0
LINE
  5
1F7
  8
1
 62
     7
 10
-442.55786620314012
 20
87.905630811314708
 30
0.0
 11
-450.05786620314012
 21
87.905630811314708
 31
0.0
  0
LINE
  5
1F8
  8
1
 62
     7
 10
-450.05786620314012
 20
87.905630811314708
 30
0.0
 11
-450.55786620314012
 21
88.771656215099242
 31
0.0
  0
LINE
  5
1F9
  8
1
 62
     7
 10
-450.55786620314012
 20
88.771656215099242
 30
0.0
 11
-450.55786620314012
 21
100.0396054075302
 31
0.0
  0
LINE
  5
1FA
  8
1
 62
     7
 10
-450.55786620314012
 20
100.0396054075302
 30
0.0
 11
-450.05786620314012
 21
100.90563081131459
 31
0.0
  0
LINE
  5
1FB
  8
1
 62
     7
 10
-450.05786620314012
 20
100.90563081131459
 30
0.0
 11
-442.55786620314012
 21
100.90563081131459
 31
0.0
  0
LINE
  5
1FC
  8
1
 62
     7
 10
-442.55786620314012
 20
100.90563081131459
 30
0.0
 11
-442.55786620314012
 21
87.905630811314708
 31
0.0
  0
LINE
  5
1FD
  8
1
 62
     7
 10
-450.05786620314012
 20
87.905630811314708
 30
0.0
 11
-450.05786620314012
 21
100.90563081131459
 31
0.0
  0
LINE
  5
1FE
  8
1
 62
     7
 10
-442.55786620314012
 20
156.86491877268949
 30
0.0
 11
-442.55786620314012
 21
81.864918772689634
 31
0.0
  0
LINE
  5
1FF
  8
1
  6
DASHDOT
 62
     3
 10
-444.1159621326218
 20
143.86491877268949
 30
0.0
 11
-436.81036951487499
 21
143.86491877268949
 31
0.0
  0
LINE
  5
200
  8
1
 62
     7
 10
-442.55786620314012
 20
156.86491877268949
 30
0.0
 11
-439.35786620314002
 21
156.86491877268949
 31
0.0
  0
LINE
  5
201
  8
1
 62
     7
 10
130.45500935077041
 20
130.65080820548121
 30
0.0
 11
130.45500935077041
 21
151.86497850724541
 31
0.0
  0
LINE
  5
202
  8
1
 62
     7
 10
100.45500935077
 20
130.64851398292021
 30
0.0
 11
100.45500935077
 21
151.86497850724541
 31
0.0
  0
LINE
  5
203
  8
1
 62
     7
 10
-442.55786620314012
 20
18.86491877268962
 30
0.0
 11
-444.35786620313991
 21
18.86491877268962
 31
0.0
  0
LINE
  5
204
  8
1
  6
DASHDOT
 62
     3
 10
-445.35786620314002
 20
-26.135081227310369
 30
0.0
 11
-452.35786620314002
 21
-26.135081227310369
 31
0.0
  0
LINE
  5
205
  8
1
 62
     7
 10
-197.89998813008111
 20
-106.13508122731039
 30
0.0
 11
-193.6999881300809
 21
-106.13508122731039
 31
0.0
  0
LINE
  5
206
  8
1
 62
     7
 10
-193.6999881300809
 20
-106.13508122731039
 30
0.0
 11
-193.6999881300809
 21
-97.728347967046915
 31
0.0
  0
LINE
  5
207
  8
1
 62
     7
 10
-159.69998813008101
 20
8.8649187726896326
 30
0.0
 11
-229.6999881300809
 21
8.8649187726896326
 31
0.0
  0
LINE
  5
208
  8
1
 62
     7
 10
-229.6999881300809
 20
3.864918772689633
 30
0.0
 11
-134.69998813008101
 21
3.8649187726896259
 31
0.0
  0
LINE
  5
209
  8
1
 62
     7
 10
-193.6999881300809
 20
53.86491877268962
 30
0.0
 11
-193.6999881300809
 21
18.86491877268962
 31
0.0
  0
LINE
  5
20A
  8
1
  6
DASHDOT
 62
     3
 10
136.90290412657691
 20
-26.135081227310291
 30
0.0
 11
94.007114574963566
 21
-26.135081227310291
 31
0.0
  0
LINE
  5
20B
  8
1
  6
DASHDOT
 62
     3
 10
115.4550093507703
 20
-4.6871864515035551
 30
0.0
 11
115.4550093507703
 21
-47.582976003117018
 31
0.0
  0
LINE
  5
20C
  8
1
  6
DASHDOT
 62
     3
 10
-666.83449236730996
 20
-7.5340881471703636
 30
0.0
 11
-666.83449236730996
 21
-44.736074307450203
 31
0.0
  0
LINE
  5
20D
  8
1
  6
DASHDOT
 62
     3
 10
-648.23349928716982
 20
-26.135081227310291
 30
0.0
 11
-685.43548544744988
 21
-26.135081227310291
 31
0.0
  0
LINE
  5
20E
  8
1
 62
     7
 10
-652.33449236730996
 20
93.132867965120724
 30
0.0
 11
-649.33449236731008
 21
91.400817157551785
 31
0.0
  0
LINE
  5
20F
  8
1
 62
     7
 10
-652.33449236730996
 20
96.596969580258502
 30
0.0
 11
-652.33449236730996
 21
93.132867965120724
 31
0.0
  0
LINE
  5
210
  8
1
 62
     7
 10
-649.33449236731008
 20
98.329020387827413
 30
0.0
 11
-652.33449236730996
 21
96.596969580258502
 31
0.0
  0
LINE
  5
211
  8
1
 62
     7
 10
-646.33449236730996
 20
96.596969580258502
 30
0.0
 11
-649.33449236731008
 21
98.329020387827413
 31
0.0
  0
LINE
  5
212
  8
1
 62
     7
 10
-646.33449236730996
 20
93.132867965120724
 30
0.0
 11
-646.33449236730996
 21
96.596969580258502
 31
0.0
  0
LINE
  5
213
  8
1
 62
     7
 10
-649.33449236731008
 20
91.400817157551785
 30
0.0
 11
-646.33449236730996
 21
93.132867965120724
 31
0.0
  0
LINE
  5
214
  8
1
 62
     7
 10
-687.34605278060576
 20
93.153047318090898
 30
0.0
 11
-684.35774840626198
 21
91.400895222444575
 31
0.0
  0
LINE
  5
215
  8
1
 62
     7
 10
-687.32279674165397
 20
96.617070868336015
 30
0.0
 11
-687.34605278060576
 21
93.153047318090898
 31
0.0
  0
LINE
  5
216
  8
1
 62
     7
 10
-684.31123632835806
 20
98.328942322934594
 30
0.0
 11
-687.32279674165397
 21
96.617070868336015
 31
0.0
  0
LINE
  5
217
  8
1
 62
     7
 10
-681.32293195401394
 20
96.576790227288299
 30
0.0
 11
-684.31123632835806
 21
98.328942322934594
 31
0.0
  0
LINE
  5
218
  8
1
 62
     7
 10
-681.34618799296595
 20
93.112766677043211
 30
0.0
 11
-681.32293195401394
 21
96.576790227288299
 31
0.0
  0
LINE
  5
219
  8
1
 62
     7
 10
-684.35774840626198
 20
91.400895222444575
 30
0.0
 11
-681.34618799296595
 21
93.112766677043211
 31
0.0
  0
LINE
  5
21A
  8
1
 62
     7
 10
-681.83449236731008
 20
106.86491877268951
 30
0.0
 11
-681.83449236731008
 21
153.86491877268949
 31
0.0
  0
LINE
  5
21B
  8
1
 62
     7
 10
-678.83449236731008
 20
156.86491877268949
 30
0.0
 11
-654.83449236730996
 21
156.86491877268949
 31
0.0
  0
LINE
  5
21C
  8
1
 62
     7
 10
-651.83449236730996
 20
153.86491877268949
 30
0.0
 11
-651.83449236730996
 21
106.86491877268951
 31
0.0
  0
LINE
  5
21D
  8
1
 62
     7
 10
-641.83449236730996
 20
96.864918772689592
 30
0.0
 11
-641.83449236730996
 21
81.864918772689606
 31
0.0
  0
LINE
  5
21E
  8
1
 62
     7
 10
-641.83449236730996
 20
81.864918772689606
 30
0.0
 11
-691.83449236731008
 21
81.864918772689606
 31
0.0
  0
LINE
  5
21F
  8
1
 62
     7
 10
-691.83449236731008
 20
81.864918772689606
 30
0.0
 11
-691.83449236731008
 21
96.864918772689592
 31
0.0
  0
LINE
  5
220
  8
1
 62
     7
 10
-667.41199236730995
 20
60.014918772689697
 30
0.0
 11
-666.25699236730998
 21
60.014918772689697
 31
0.0
  0
LINE
  5
221
  8
1
 62
     7
 10
-670.68449236730999
 20
64.44241877268972
 30
0.0
 11
-670.68449236730999
 21
63.287418772689712
 31
0.0
  0
LINE
  5
222
  8
1
 62
     7
 10
-666.25699236730998
 20
67.714918772689714
 30
0.0
 11
-667.41199236730995
 21
67.714918772689714
 31
0.0
  0
LINE
  5
223
  8
1
 62
     7
 10
-662.98449236730983
 20
63.287418772689712
 30
0.0
 11
-662.98449236730983
 21
64.44241877268972
 31
0.0
  0
LINE
  5
224
  8
1
 62
     7
 10
-580.68449236730987
 20
-25.557581227310269
 30
0.0
 11
-580.68449236730987
 21
-26.712581227310292
 31
0.0
  0
LINE
  5
225
  8
1
 62
     7
 10
-576.25699236730986
 20
-22.285081227310268
 30
0.0
 11
-577.41199236730995
 21
-22.285081227310268
 31
0.0
  0
LINE
  5
226
  8
1
 62
     7
 10
-572.98449236730971
 20
-26.712581227310292
 30
0.0
 11
-572.98449236730971
 21
-25.557581227310269
 31
0.0
  0
LINE
  5
227
  8
1
 62
     7
 10
-577.41199236730995
 20
-29.985081227310278
 30
0.0
 11
-576.25699236730986
 21
-29.985081227310278
 31
0.0
  0
LINE
  5
228
  8
1
 62
     7
 10
-666.25699236730998
 20
-112.2850812273103
 30
0.0
 11
-667.41199236730995
 21
-112.2850812273103
 31
0.0
  0
LINE
  5
229
  8
1
 62
     7
 10
-662.98449236730983
 20
-116.7125812273102
 30
0.0
 11
-662.98449236730983
 21
-115.55758122731029
 31
0.0
  0
LINE
  5
22A
  8
1
 62
     7
 10
-667.41199236730995
 20
-119.9850812273102
 30
0.0
 11
-666.25699236730998
 21
-119.9850812273102
 31
0.0
  0
LINE
  5
22B
  8
1
 62
     7
 10
-670.68449236730999
 20
-115.55758122731029
 30
0.0
 11
-670.68449236730999
 21
-116.7125812273102
 31
0.0
  0
LINE
  5
22C
  8
1
 62
     7
 10
-752.98449236730983
 20
-26.712581227310292
 30
0.0
 11
-752.98449236730983
 21
-25.557581227310269
 31
0.0
  0
LINE
  5
22D
  8
1
 62
     7
 10
-757.41199236731006
 20
-29.985081227310278
 30
0.0
 11
-756.25699236730986
 21
-29.985081227310278
 31
0.0
  0
LINE
  5
22E
  8
1
 62
     7
 10
-760.68449236730999
 20
-25.557581227310269
 30
0.0
 11
-760.68449236730999
 21
-26.712581227310292
 31
0.0
  0
LINE
  5
22F
  8
1
 62
     7
 10
-756.25699236730986
 20
-22.285081227310268
 30
0.0
 11
-757.41199236731006
 21
-22.285081227310268
 31
0.0
  0
LINE
  5
230
  8
1
 62
     7
 10
-675.78343398456809
 20
-77.184873367682997
 30
0.0
 11
-678.78343248379917
 21
-77.187874135601774
 31
0.0
  0
LINE
  5
231
  8
1
 62
     7
 10
-675.79038576357982
 20
-70.234876844463102
 30
0.0
 11
-675.78343398456809
 21
-77.184873367682997
 31
0.0
  0
LINE
  5
232
  8
1
 62
     7
 10
-657.78344298917796
 20
-77.166868760170345
 30
0.0
 11
-654.78344448994699
 21
-77.163867992251582
 31
0.0
  0
LINE
  5
233
  8
1
 62
     7
 10
-657.79039476819003
 20
-70.216872236950451
 30
0.0
 11
-657.78344298917796
 21
-77.166868760170345
 31
0.0
  0
LINE
  5
234
  8
1
 62
     7
 10
-681.78643175094987
 20
-74.190876404289014
 30
0.0
 11
-681.78679929574309
 21
-73.823425852854029
 31
0.0
  0
LINE
  5
235
  8
1
 62
     7
 10
-651.78644675863393
 20
-74.160868725101224
 30
0.0
 11
-651.7868143034259
 21
-73.793418173666282
 31
0.0
  0
LINE
  5
236
  8
1
 62
     7
 10
-659.33449236730996
 20
8.8649187726897196
 30
0.0
 11
-659.33449236730996
 21
2.9122938692453459
 31
0.0
  0
LINE
  5
237
  8
1
 62
     7
 10
-674.33449236731008
 20
8.8649187726897196
 30
0.0
 11
-659.33449236730996
 21
8.8649187726897196
 31
0.0
  0
LINE
  5
238
  8
1
 62
     7
 10
-674.33449236731008
 20
2.9122938692453459
 30
0.0
 11
-674.33449236731008
 21
8.8649187726897196
 31
0.0
  0
LINE
  5
239
  8
1
  6
DASHDOT
 62
     3
 10
-106.699988130081
 20
-26.135081227310369
 30
0.0
 11
-100.7761364421998
 21
-26.135081227310369
 31
0.0
  0
LINE
  5
23A
  8
1
  6
DASHDOT
 62
     3
 10
-658.60822434286285
 20
143.86491877268949
 30
0.0
 11
-675.0607603917573
 21
143.86491877268949
 31
0.0
  0
LINE
  5
23B
  8
1
  6
DASHDOT
 62
     3
 10
-666.83449236730996
 20
152.0911867971366
 30
0.0
 11
-666.83449236730996
 21
135.6386507482425
 31
0.0
  0
LINE
  5
23C
  8
1
  6
DASHDOT
 62
     3
 10
124.393240637068
 20
143.86497850724541
 30
0.0
 11
106.5167780644724
 21
143.86497850724541
 31
0.0
  0
LINE
  5
23D
  8
1
  6
DASHDOT
 62
     3
 10
115.4550093507702
 20
152.80320979354329
 30
0.0
 11
115.4550093507702
 21
134.9267472209477
 31
0.0
  0
LINE
  5
23E
  8
1
 62
     7
 10
-612.17844313151511
 20
167.79844286825579
 30
0.0
 11
-626.41206696992572
 21
114.6778355274848
 31
0.0
  0
LINE
  5
23F
  8
1
 62
     7
 10
-617.20125742821847
 20
169.14430190278901
 30
0.0
 11
-631.43488126662885
 21
116.02369456201779
 31
0.0
  0
LINE
  5
240
  8
1
 62
     7
 10
-617.20125742821847
 20
169.14430190278901
 30
0.0
 11
-612.17844313151511
 21
167.79844286825579
 31
0.0
  0
LINE
  5
241
  8
1
  6
DASHDOT
 62
     3
 10
-141.98719463753429
 20
-91.135081227310351
 30
0.0
 11
-103.9871946375342
 21
-91.135081227310351
 31
0.0
  0
LINE
  5
242
  8
1
 62
     7
 10
-145.19998813008101
 20
-65.135081227310366
 30
0.0
 11
-145.19998813008101
 21
-140.98508122731039
 31
0.0
  0
LINE
  5
243
  8
1
 62
     7
 10
-158.99998813008099
 20
-65.135081227310366
 30
0.0
 11
-158.99998813008099
 21
-183.63508122731039
 31
0.0
  0
LINE
  5
244
  8
1
 62
     7
 10
-352.25786620314011
 20
131.36491877268949
 30
0.0
 11
-350.15786620313992
 21
131.36491877268949
 31
0.0
  0
LINE
  5
245
  8
1
 62
     7
 10
-352.25786620314011
 20
-183.63508122731039
 30
0.0
 11
-350.15786620313992
 21
-183.63508122731039
 31
0.0
  0
LINE
  5
246
  8
1
 62
     7
 10
-360.85786620314008
 20
-183.63508122731039
 30
0.0
 11
-360.85786620314008
 21
131.36491877268949
 31
0.0
  0
LINE
  5
247
  8
1
 62
     7
 10
-356.85786620314008
 20
127.3328998869126
 30
0.0
 11
-356.85786620314008
 21
-179.6030623415333
 31
0.0
  0
LINE
  5
248
  8
1
 62
     7
 10
-134.49998813008091
 20
131.36491877268949
 30
0.0
 11
-136.59998813008099
 21
131.36491877268949
 31
0.0
  0
LINE
  5
249
  8
1
 62
     7
 10
-141.19998813008101
 20
127.3328998869126
 30
0.0
 11
-141.19998813008101
 21
85.864918772689634
 31
0.0
  0
LINE
  5
24A
  8
1
 62
     7
 10
-136.5999881300811
 20
128.7649187726895
 30
0.0
 11
-134.49998813008091
 21
128.7649187726895
 31
0.0
  0
LINE
  5
24B
  8
1
 62
     7
 10
-145.19998813008101
 20
131.36491877268949
 30
0.0
 11
-145.19998813008101
 21
85.864918772689634
 31
0.0
  0
LINE
  5
24C
  8
1
 62
     7
 10
-138.5999881300811
 20
93.864918772689634
 30
0.0
 11
-134.49998813008091
 21
93.864918772689634
 31
0.0
  0
LINE
  5
24D
  8
1
 62
     7
 10
-136.59998813008099
 20
61.36491877268962
 30
0.0
 11
-134.49998813008091
 21
61.36491877268962
 31
0.0
  0
LINE
  5
24E
  8
1
 62
     7
 10
-145.19998813008101
 20
12.864918772689631
 30
0.0
 11
-145.19998813008101
 21
69.864918772689634
 31
0.0
  0
LINE
  5
24F
  8
1
 62
     7
 10
-141.19998813008101
 20
69.864918772689634
 30
0.0
 11
-141.19998813008101
 21
65.396937658466612
 31
0.0
  0
LINE
  5
250
  8
1
 62
     7
 10
-113.799988130081
 20
73.26491877268974
 30
0.0
 11
-113.799988130081
 21
71.407559459808823
 31
0.0
  0
LINE
  5
251
  8
1
 62
     7
 10
-145.19998813008101
 20
-173.78508122731029
 30
0.0
 11
-145.19998813008101
 21
-183.63508122731039
 31
0.0
  0
LINE
  5
252
  8
1
 62
     7
 10
-141.5999881300809
 20
-176.43508122731041
 30
0.0
 11
-141.3756527091285
 21
-176.43508122731041
 31
0.0
  0
LINE
  5
253
  8
1
 62
     7
 10
-138.59998813008099
 20
-143.63508122731039
 30
0.0
 11
-134.49998813008091
 21
-143.63508122731039
 31
0.0
  0
LINE
  5
254
  8
1
 62
     7
 10
-138.59998813008099
 20
-138.88508122731039
 30
0.0
 11
-134.49998813008091
 21
-138.88508122731039
 31
0.0
  0
LINE
  5
255
  8
1
 62
     7
 10
-136.59998813008099
 20
-116.2350812273104
 30
0.0
 11
-134.49998813008091
 21
-116.2350812273104
 31
0.0
  0
LINE
  5
256
  8
1
 62
     7
 10
-136.59998813008099
 20
-113.63508122731039
 30
0.0
 11
-134.49998813008091
 21
-113.63508122731039
 31
0.0
  0
LINE
  5
257
  8
1
 62
     7
 10
-141.3756527091285
 20
-120.8350812273104
 30
0.0
 11
-141.5999881300809
 21
-120.8350812273104
 31
0.0
  0
LINE
  5
258
  8
1
 62
     7
 10
-142.5999881300809
 20
-121.8350812273104
 30
0.0
 11
-142.5999881300809
 21
-175.43508122731041
 31
0.0
  0
LINE
  5
259
  8
1
 62
     7
 10
-138.59998813008099
 20
-118.63508122731039
 30
0.0
 11
-134.49998813008091
 21
-118.63508122731039
 31
0.0
  0
ARC
  5
25A
  8
1
  6
DASHDOT
 62
     3
 10
115.4550093507703
 20
-26.135081227310291
 30
0.0
 40
64.999999999999844
 50
351.60733120595512
 51
8.7671741636348433
  0
ARC
  5
25B
  8
1
  6
DASHDOT
 62
     3
 10
115.4550093507703
 20
-26.135081227310291
 30
0.0
 40
64.999999999999801
 50
306.60733120595512
 51
323.76717416363482
  0
ARC
  5
25C
  8
1
  6
DASHDOT
 62
     3
 10
115.4550093507703
 20
-26.135081227310291
 30
0.0
 40
64.999999999999872
 50
261.60733120595512
 51
278.76717416363488
  0
ARC
  5
25D
  8
1
  6
DASHDOT
 62
     3
 10
115.4550093507703
 20
-26.135081227310291
 30
0.0
 40
64.999999999999815
 50
216.60733120595509
 51
233.76717416363459
  0
ARC
  5
25E
  8
1
  6
DASHDOT
 62
     3
 10
115.4550093507703
 20
-26.135081227310291
 30
0.0
 40
64.999999999999872
 50
171.60733120595509
 51
188.76717416363471
  0
ARC
  5
25F
  8
1
  6
DASHDOT
 62
     3
 10
115.4550093507703
 20
-26.135081227310291
 30
0.0
 40
64.999999999999915
 50
126.60733120595511
 51
143.76717416363479
  0
ARC
  5
260
  8
1
  6
DASHDOT
 62
     3
 10
115.4550093507703
 20
-26.135081227310291
 30
0.0
 40
64.999999999999901
 50
81.607331205955205
 51
98.767174163634877
  0
ARC
  5
261
  8
1
  6
DASHDOT
 62
     3
 10
115.4550093507703
 20
-26.135081227310291
 30
0.0
 40
64.999999999999829
 50
36.607331205955212
 51
53.767174163634749
  0
ARC
  5
262
  8
1
 62
     7
 10
-347.60762125909912
 20
65.11503573122161
 30
0.0
 40
3.2499264665814009
 50
25.367556225262561
 51
89.703809022139367
  0
ARC
  5
263
  8
1
 62
     7
 10
-347.60762125909912
 20
-117.3851981858424
 30
0.0
 40
3.2499264665810812
 50
270.29619097786048
 51
319.60268170187021
  0
ARC
  5
264
  8
1
 62
     7
 10
-131.95864519628691
 20
65.07445251836711
 30
0.0
 40
1.5052045536600911
 50
14.28609652083791
 51
82.171048978855666
  0
ARC
  5
265
  8
1
 62
     7
 10
-144.44240200102081
 20
-171.10897687378699
 30
0.0
 40
4.8819439086789966
 50
292.39742015402709
 51
67.827677135448212
  0
ARC
  5
266
  8
1
 62
     7
 10
-144.48469043507291
 20
-143.64154943063801
 30
0.0
 40
4.8847065875080871
 50
293.08583469447228
 51
67.304265426343107
  0
ARC
  5
267
  8
1
 62
     7
 10
125.4550093507704
 20
151.86497850724541
 30
0.0
 40
5.0000000000000133
 50
0.0
 51
90.0
  0
ARC
  5
268
  8
1
 62
     7
 10
115.4550093507702
 20
143.86497850724541
 30
0.0
 40
6.5
 50
270.0
 51
0.0
  0
ARC
  5
269
  8
1
 62
     7
 10
115.4550093507702
 20
143.86497850724541
 30
0.0
 40
6.5
 50
0.0
 51
90.0
  0
ARC
  5
26A
  8
1
 62
     7
 10
115.4550093507702
 20
143.86497850724541
 30
0.0
 40
6.5
 50
180.0
 51
270.0
  0
ARC
  5
26B
  8
1
 62
     7
 10
115.4550093507702
 20
143.86497850724541
 30
0.0
 40
6.5000000000001128
 50
90.0
 51
180.0
  0
ARC
  5
26C
  8
1
 62
     7
 10
-208.6999881300809
 20
-88.635081227310366
 30
0.0
 40
10.5
 50
239.99999999999989
 51
270.0
  0
ARC
  5
26D
  8
1
 62
     7
 10
-208.6999881300809
 20
-88.635081227310366
 30
0.0
 40
10.5
 50
299.99999999999989
 51
60.0
  0
ARC
  5
26E
  8
1
 62
     7
 10
-208.6999881300809
 20
-88.635081227310366
 30
0.0
 40
10.5
 50
119.9999999999999
 51
239.99999999999989
  0
ARC
  5
26F
  8
1
 62
     7
 10
-208.6999881300809
 20
-88.635081227310366
 30
0.0
 40
10.5
 50
60.0
 51
119.9999999999999
  0
ARC
  5
270
  8
1
 62
     7
 10
-208.6999881300809
 20
-88.635081227310366
 30
0.0
 40
10.5
 50
270.0
 51
299.99999999999989
  0
ARC
  5
271
  8
1
 62
     7
 10
-215.6999881300809
 20
-116.13508122731039
 30
0.0
 40
17.999999999999659
 50
163.3984504009793
 51
196.60154959902039
  0
ARC
  5
272
  8
1
 62
     7
 10
-215.6999881300809
 20
63.86491877268962
 30
0.0
 40
17.99999999999962
 50
163.3984504009795
 51
196.60154959902039
  0
ARC
  5
273
  8
1
 62
     7
 10
-208.6999881300809
 20
36.36491877268962
 30
0.0
 40
10.5
 50
60.000000000000021
 51
90.0
  0
ARC
  5
274
  8
1
 62
     7
 10
-208.6999881300809
 20
36.36491877268962
 30
0.0
 40
10.499999999999989
 50
239.99999999999989
 51
300.00000000000011
  0
ARC
  5
275
  8
1
 62
     7
 10
-208.6999881300809
 20
36.36491877268962
 30
0.0
 40
10.5
 50
119.9999999999999
 51
239.99999999999989
  0
ARC
  5
276
  8
1
 62
     7
 10
-208.6999881300809
 20
36.36491877268962
 30
0.0
 40
10.499999999999989
 50
300.00000000000011
 51
60.000000000000021
  0
ARC
  5
277
  8
1
 62
     7
 10
-208.6999881300809
 20
36.36491877268962
 30
0.0
 40
10.5
 50
90.0
 51
119.9999999999999
  0
ARC
  5
278
  8
1
 62
     7
 10
105.4550093507701
 20
151.86497850724541
 30
0.0
 40
5.0
 50
90.0
 51
180.0
  0
ARC
  5
279
  8
1
 62
     7
 10
145.86624715031641
 20
87.361203361655186
 30
0.0
 40
4.7500000000001279
 50
166.1581850546699
 51
236.702666502341
  0
ARC
  5
27A
  8
1
 62
     7
 10
145.86624715031641
 20
87.361203361655186
 30
0.0
 40
4.7499999999999662
 50
273.29733349765769
 51
343.84157815207527
  0
ARC
  5
27B
  8
1
 62
     7
 10
85.043771551223983
 20
87.361203361655186
 30
0.0
 40
4.750000000000143
 50
196.1581850546695
 51
266.70266650234242
  0
ARC
  5
27C
  8
1
 62
     7
 10
32.36996256135086
 20
56.949965562109021
 30
0.0
 40
4.750000000000079
 50
226.15818505467089
 51
296.70266650234231
  0
ARC
  5
27D
  8
1
 62
     7
 10
1.9587247618047741
 20
4.2761565722359194
 30
0.0
 40
4.7500000000001483
 50
256.15818505466888
 51
326.70266650234157
  0
ARC
  5
27E
  8
1
 62
     7
 10
1.958724761804675
 20
-56.546319026856452
 30
0.0
 40
4.7500000000001359
 50
286.15818505466962
 51
356.70266650234157
  0
ARC
  5
27F
  8
1
 62
     7
 10
32.36996256135086
 20
-109.2201280167295
 30
0.0
 40
4.7500000000000728
 50
316.15818505466888
 51
26.702666502341891
  0
ARC
  5
280
  8
1
 62
     7
 10
85.043771551223983
 20
-139.63136581627569
 30
0.0
 40
4.7500000000001217
 50
346.15818505467013
 51
56.702666502341167
  0
ARC
  5
281
  8
1
 62
     7
 10
145.86624715031641
 20
-139.63136581627569
 30
0.0
 40
4.7500000000000071
 50
16.158185054670142
 51
86.702666502342296
  0
ARC
  5
282
  8
1
 62
     7
 10
198.54005614018951
 20
-109.2201280167297
 30
0.0
 40
4.7500000000000853
 50
46.158185054670568
 51
116.702666502342
  0
ARC
  5
283
  8
1
 62
     7
 10
228.95129393973571
 20
-56.546319026856537
 30
0.0
 40
4.750000000000127
 50
76.158185054668849
 51
146.7026665023414
  0
ARC
  5
284
  8
1
 62
     7
 10
228.95129393973571
 20
4.2761565722358048
 30
0.0
 40
4.750000000000143
 50
106.1581850546696
 51
176.70266650234171
  0
ARC
  5
285
  8
1
 62
     7
 10
198.54005614018951
 20
56.949965562108929
 30
0.0
 40
4.7500000000000728
 50
136.15818505466891
 51
206.70266650234089
  0
ARC
  5
286
  8
1
 62
     7
 10
85.043771551223983
 20
87.361203361655186
 30
0.0
 40
4.7500000000000062
 50
303.29733349765962
 51
13.84157815207484
  0
ARC
  5
287
  8
1
 62
     7
 10
32.36996256135086
 20
56.949965562109021
 30
0.0
 40
4.75
 50
333.29733349765849
 51
43.84157815207471
  0
ARC
  5
288
  8
1
 62
     7
 10
1.9587247618047741
 20
4.2761565722359194
 30
0.0
 40
4.7499999999998712
 50
3.2973334976584501
 51
73.841578152076067
  0
ARC
  5
289
  8
1
 62
     7
 10
1.958724761804675
 20
-56.546319026856452
 30
0.0
 40
4.7500000000000471
 50
33.29733349765781
 51
103.8415781520747
  0
ARC
  5
28A
  8
1
 62
     7
 10
32.36996256135086
 20
-109.2201280167295
 30
0.0
 40
4.7500000000000444
 50
63.297333497657533
 51
133.8415781520755
  0
ARC
  5
28B
  8
1
 62
     7
 10
85.043771551223983
 20
-139.63136581627569
 30
0.0
 40
4.750000000000087
 50
93.297333497658997
 51
163.84157815207541
  0
ARC
  5
28C
  8
1
 62
     7
 10
145.86624715031641
 20
-139.63136581627569
 30
0.0
 40
4.749999999999984
 50
123.2973334976585
 51
193.84157815207499
  0
ARC
  5
28D
  8
1
 62
     7
 10
198.54005614018951
 20
-109.2201280167297
 30
0.0
 40
4.7500000000001199
 50
153.29733349765789
 51
223.84157815207399
  0
ARC
  5
28E
  8
1
 62
     7
 10
228.95129393973571
 20
-56.546319026856537
 30
0.0
 40
4.7500000000000844
 50
183.2973334976582
 51
253.84157815207399
  0
ARC
  5
28F
  8
1
 62
     7
 10
228.95129393973571
 20
4.2761565722358048
 30
0.0
 40
4.7500000000000391
 50
213.29733349765769
 51
283.84157815207482
  0
ARC
  5
290
  8
1
 62
     7
 10
198.54005614018951
 20
56.949965562108929
 30
0.0
 40
4.7499999999999929
 50
243.2973334976586
 51
313.84157815207578
  0
ARC
  5
291
  8
1
 62
     7
 10
115.4550093507703
 20
-26.135081227310291
 30
0.0
 40
119.9999999999999
 50
347.2685506116764
 51
0.0
  0
ARC
  5
292
  8
1
 62
     7
 10
115.4550093507703
 20
-26.135081227310291
 30
0.0
 40
119.9999999999999
 50
47.268550611676339
 51
72.731449388323682
  0
ARC
  5
293
  8
1
 62
     7
 10
115.4550093507703
 20
-26.135081227310291
 30
0.0
 40
119.9999999999999
 50
77.268550611676432
 51
102.7314493883237
  0
ARC
  5
294
  8
1
 62
     7
 10
115.4550093507703
 20
-26.135081227310291
 30
0.0
 40
120.0000000000001
 50
107.2685506116764
 51
132.73144938832371
  0
ARC
  5
295
  8
1
 62
     7
 10
115.4550093507703
 20
-26.135081227310291
 30
0.0
 40
120.0000000000001
 50
137.26855061167629
 51
152.5617685048835
  0
ARC
  5
296
  8
1
 62
     7
 10
115.4550093507703
 20
-26.135081227310291
 30
0.0
 40
120.0000000000002
 50
152.5617685048835
 51
162.73144938832351
  0
ARC
  5
297
  8
1
 62
     7
 10
115.4550093507703
 20
-26.135081227310291
 30
0.0
 40
120.0
 50
167.2685506116764
 51
192.73144938832351
  0
ARC
  5
298
  8
1
 62
     7
 10
115.4550093507703
 20
-26.135081227310291
 30
0.0
 40
120.0000000000001
 50
197.2685506116764
 51
222.73144938832351
  0
ARC
  5
299
  8
1
 62
     7
 10
115.4550093507703
 20
-26.135081227310291
 30
0.0
 40
120.0000000000001
 50
227.2685506116764
 51
252.7314493883236
  0
ARC
  5
29A
  8
1
 62
     7
 10
115.4550093507703
 20
-26.135081227310291
 30
0.0
 40
119.9999999999999
 50
317.26855061167612
 51
342.7314493883236
  0
ARC
  5
29B
  8
1
 62
     7
 10
115.4550093507703
 20
-26.135081227310291
 30
0.0
 40
120.0
 50
287.26855061167629
 51
312.73144938832348
  0
ARC
  5
29C
  8
1
 62
     7
 10
115.4550093507703
 20
-26.135081227310291
 30
0.0
 40
120.0
 50
257.26855061167629
 51
282.7314493883236
  0
ARC
  5
29D
  8
1
 62
     7
 10
115.4550093507703
 20
-26.135081227310291
 30
0.0
 40
119.9999999999997
 50
17.268550611676361
 51
42.731449388323583
  0
ARC
  5
29E
  8
1
 62
     7
 10
115.4550093507703
 20
-26.135081227310291
 30
0.0
 40
119.9999999999999
 50
0.0
 51
12.73144938832359
  0
ARC
  5
29F
  8
1
 62
     7
 10
-131.94974318604011
 20
65.11503573122161
 30
0.0
 40
3.2499264665809662
 50
359.41153364553833
 51
89.703809022139865
  0
ARC
  5
2A0
  8
1
 62
     7
 10
-127.7785964975979
 20
57.194354017952321
 30
0.0
 40
0.9317331516331147
 50
188.544497769646
 51
250.71202462334091
  0
ARC
  5
2A1
  8
1
 62
     7
 10
-127.6391990659009
 20
57.254881242809518
 30
0.0
 40
2.8717632979784531
 50
185.01058937386301
 51
252.5740065835285
  0
ARC
  5
2A2
  8
1
 62
     7
 10
-127.6391990659009
 20
-109.52504369743031
 30
0.0
 40
2.8717632979782031
 50
107.4259934164707
 51
174.9894106261369
  0
ARC
  5
2A3
  8
1
 62
     7
 10
-127.7785964975979
 20
-109.464516472573
 30
0.0
 40
0.9317331516326396
 50
109.28797537665911
 51
171.4555022303488
  0
ARC
  5
2A4
  8
1
 62
     7
 10
-131.94974318604011
 20
-117.3851981858424
 30
0.0
 40
3.2499264665810812
 50
270.29619097786008
 51
0.5884663544633861
  0
ARC
  5
2A5
  8
1
 62
     7
 10
-132.22493788376809
 20
-117.05205393253659
 30
0.0
 40
1.7830715870634839
 50
269.59615175004541
 51
345.33068912323921
  0
ARC
  5
2A6
  8
1
 62
     7
 10
-431.35786620314002
 20
-116.13508122731039
 30
0.0
 40
17.99999999999973
 50
163.39845040097941
 51
196.6015495990203
  0
ARC
  5
2A7
  8
1
 62
     7
 10
-431.35786620314002
 20
63.86491877268962
 30
0.0
 40
17.999999999999709
 50
163.3984504009797
 51
196.60154959902039
  0
ARC
  5
2A8
  8
1
 62
     7
 10
-666.83449236730996
 20
-26.135081227310291
 30
0.0
 40
146.4999999999998
 50
180.0
 51
84.123239074983204
  0
ARC
  5
2A9
  8
1
 62
     7
 10
-666.83449236730996
 20
-26.135081227310291
 30
0.0
 40
146.5
 50
95.876760925016796
 51
180.0
  0
ARC
  5
2AA
  8
1
 62
     7
 10
-670.68449236730999
 20
60.014918772689697
 30
0.0
 40
3.2725000000000359
 50
0.0
 51
90.0
  0
ARC
  5
2AB
  8
1
 62
     7
 10
-670.68449236730999
 20
67.714918772689714
 30
0.0
 40
3.272500000000008
 50
270.0
 51
0.0
  0
ARC
  5
2AC
  8
1
 62
     7
 10
-662.98449236730983
 20
67.714918772689714
 30
0.0
 40
3.2725000000000359
 50
180.0
 51
270.0
  0
ARC
  5
2AD
  8
1
 62
     7
 10
-662.98449236730983
 20
60.014918772689697
 30
0.0
 40
3.2725000000000009
 50
90.0
 51
180.0
  0
ARC
  5
2AE
  8
1
 62
     7
 10
-580.68449236730987
 20
-22.285081227310268
 30
0.0
 40
3.2725000000000009
 50
270.0
 51
0.0
  0
ARC
  5
2AF
  8
1
 62
     7
 10
-572.98449236730971
 20
-22.285081227310268
 30
0.0
 40
3.2725000000000359
 50
180.0
 51
270.0
  0
ARC
  5
2B0
  8
1
 62
     7
 10
-572.98449236730971
 20
-29.985081227310278
 30
0.0
 40
3.2724999999999871
 50
90.0
 51
180.0
  0
ARC
  5
2B1
  8
1
 62
     7
 10
-580.68449236730987
 20
-29.985081227310278
 30
0.0
 40
3.2725000000000359
 50
0.0
 51
90.0
  0
ARC
  5
2B2
  8
1
 62
     7
 10
-662.98449236730983
 20
-112.2850812273103
 30
0.0
 40
3.2725000000000359
 50
180.0
 51
270.0
  0
ARC
  5
2B3
  8
1
 62
     7
 10
-662.98449236730983
 20
-119.9850812273102
 30
0.0
 40
3.272500000000008
 50
90.0
 51
180.0
  0
ARC
  5
2B4
  8
1
 62
     7
 10
-670.68449236730999
 20
-119.9850812273102
 30
0.0
 40
3.2725000000000359
 50
0.0
 51
90.0
  0
ARC
  5
2B5
  8
1
 62
     7
 10
-670.68449236730999
 20
-112.2850812273103
 30
0.0
 40
3.2724999999999929
 50
270.0
 51
0.0
  0
ARC
  5
2B6
  8
1
 62
     7
 10
-752.98449236730983
 20
-29.985081227310278
 30
0.0
 40
3.2724999999999871
 50
90.0
 51
180.0
  0
ARC
  5
2B7
  8
1
 62
     7
 10
-760.68449236730999
 20
-29.985081227310278
 30
0.0
 40
3.2725000000000359
 50
0.0
 51
90.0
  0
ARC
  5
2B8
  8
1
 62
     7
 10
-760.68449236730999
 20
-22.285081227310268
 30
0.0
 40
3.2725000000000009
 50
270.0
 51
0.0
  0
ARC
  5
2B9
  8
1
 62
     7
 10
-752.98449236730983
 20
-22.285081227310268
 30
0.0
 40
3.2725000000000359
 50
180.0
 51
270.0
  0
ARC
  5
2BA
  8
1
 62
     7
 10
-666.83669293044989
 20
-23.935082327873761
 30
0.0
 40
49.049999999999898
 50
291.41232496866007
 51
248.70229594181509
  0
ARC
  5
2BB
  8
1
 62
     7
 10
-666.83449236730996
 20
-26.135081227310291
 30
0.0
 40
30.0
 50
270.0
 51
75.522487814070075
  0
ARC
  5
2BC
  8
1
 62
     7
 10
-666.83449236730996
 20
-26.135081227310291
 30
0.0
 40
30.000000000000011
 50
104.4775121859299
 51
180.0
  0
ARC
  5
2BD
  8
1
 62
     7
 10
-666.83449236730996
 20
-26.135081227310291
 30
0.0
 40
30.0
 50
180.0
 51
270.0
  0
ARC
  5
2BE
  8
1
 62
     7
 10
-342.45786620313987
 20
65.864918772689606
 30
0.0
 40
3.0
 50
0.0
 51
90.0
  0
ARC
  5
2BF
  8
1
 62
     7
 10
-342.45786620313987
 20
-118.13508122731039
 30
0.0
 40
3.0
 50
270.0
 51
0.0
  0
ARC
  5
2C0
  8
1
 62
     7
 10
-342.45786620313987
 20
14.86491877268972
 30
0.0
 40
3.0
 50
0.0
 51
90.0
  0
ARC
  5
2C1
  8
1
 62
     7
 10
-342.45786620313987
 20
36.86491877268972
 30
0.0
 40
3.0
 50
270.0
 51
0.0
  0
ARC
  5
2C2
  8
1
 62
     7
 10
-342.45786620313987
 20
-67.135081227310295
 30
0.0
 40
3.0
 50
270.0
 51
0.0
  0
ARC
  5
2C3
  8
1
 62
     7
 10
-342.45786620313987
 20
-89.135081227310295
 30
0.0
 40
3.0
 50
0.0
 51
90.0
  0
ARC
  5
2C4
  8
1
 62
     7
 10
-230.45803678157981
 20
-120.5350812273104
 30
0.0
 40
2.599999999999369
 50
196.6015495990234
 51
270.0
  0
ARC
  5
2C5
  8
1
 62
     7
 10
-230.45803678157981
 20
-111.7350812273103
 30
0.0
 40
2.600000000000009
 50
90.0
 51
163.39845040097441
  0
ARC
  5
2C6
  8
1
 62
     7
 10
-228.79998813008089
 20
-122.8350812273104
 30
0.0
 40
0.2999999999999972
 50
270.0
 51
0.0
  0
ARC
  5
2C7
  8
1
 62
     7
 10
-228.79998813008089
 20
-109.43508122731041
 30
0.0
 40
0.2999999999998977
 50
0.0
 51
90.0
  0
ARC
  5
2C8
  8
1
 62
     7
 10
-228.79998813008089
 20
57.16491877268961
 30
0.0
 40
0.2999999999999972
 50
270.0
 51
0.0
  0
ARC
  5
2C9
  8
1
 62
     7
 10
-228.79998813008089
 20
70.564918772689623
 30
0.0
 40
0.2999999999998977
 50
0.0
 51
90.0
  0
ARC
  5
2CA
  8
1
 62
     7
 10
-230.45803678157981
 20
59.464918772689629
 30
0.0
 40
2.5999999999993739
 50
196.6015495990238
 51
270.0
  0
ARC
  5
2CB
  8
1
 62
     7
 10
-230.45803678157981
 20
68.264918772689612
 30
0.0
 40
2.6000000000000218
 50
90.0
 51
163.39845040097649
  0
ARC
  5
2CC
  8
1
 62
     7
 10
-446.1159148546389
 20
-120.5350812273104
 30
0.0
 40
2.5999999999994512
 50
196.601549599023
 51
270.0
  0
ARC
  5
2CD
  8
1
 62
     7
 10
-446.1159148546389
 20
-111.7350812273103
 30
0.0
 40
2.600000000000009
 50
90.0
 51
163.3984504009741
  0
ARC
  5
2CE
  8
1
 62
     7
 10
-444.45786620313982
 20
-122.8350812273104
 30
0.0
 40
0.2999999999999972
 50
270.0
 51
0.0
  0
ARC
  5
2CF
  8
1
 62
     7
 10
-444.45786620313982
 20
-109.43508122731041
 30
0.0
 40
0.2999999999998977
 50
0.0
 51
90.0
  0
ARC
  5
2D0
  8
1
 62
     7
 10
-444.45786620313982
 20
57.16491877268961
 30
0.0
 40
0.2999999999999972
 50
270.0
 51
0.0
  0
ARC
  5
2D1
  8
1
 62
     7
 10
-444.45786620313982
 20
70.564918772689623
 30
0.0
 40
0.2999999999998977
 50
0.0
 51
90.0
  0
ARC
  5
2D2
  8
1
 62
     7
 10
-446.1159148546389
 20
59.464918772689629
 30
0.0
 40
2.5999999999993451
 50
196.6015495990238
 51
270.0
  0
ARC
  5
2D3
  8
1
 62
     7
 10
-446.1159148546389
 20
68.264918772689612
 30
0.0
 40
2.6000000000000218
 50
90.0
 51
163.39845040097629
  0
ARC
  5
2D4
  8
1
 62
     7
 10
-654.83449236730996
 20
153.86491877268949
 30
0.0
 40
3.0
 50
0.0
 51
90.0
  0
ARC
  5
2D5
  8
1
 62
     7
 10
-678.83449236731008
 20
153.86491877268949
 30
0.0
 40
3.0
 50
90.0
 51
180.0
  0
ARC
  5
2D6
  8
1
 62
     7
 10
-646.83449236730996
 20
106.86491877268951
 30
0.0
 40
5.0
 50
180.0
 51
270.0
  0
ARC
  5
2D7
  8
1
 62
     7
 10
-646.83449236730996
 20
96.864918772689592
 30
0.0
 40
5.0
 50
0.0
 51
90.0
  0
ARC
  5
2D8
  8
1
 62
     7
 10
-686.83449236731008
 20
106.86491877268951
 30
0.0
 40
5.0
 50
270.0
 51
0.0
  0
ARC
  5
2D9
  8
1
 62
     7
 10
-686.83449236731008
 20
96.864918772689592
 30
0.0
 40
5.0
 50
90.0
 51
180.0
  0
ARC
  5
2DA
  8
1
 62
     7
 10
-686.28679704459012
 20
-73.827927004732345
 30
0.0
 40
4.4999999999994964
 50
0.0573104552399456
 51
68.702295941813432
  0
ARC
  5
2DB
  8
1
 62
     7
 10
-647.28681655457899
 20
-73.788917021788265
 30
0.0
 40
4.50000000000004
 50
111.4123249686628
 51
180.05731045523621
  0
ARC
  5
2DC
  8
1
 62
     7
 10
-678.78643325171799
 20
-74.187875636370165
 30
0.0
 40
3.0000000000002709
 50
180.0573104552393
 51
270.05731045524311
  0
ARC
  5
2DD
  8
1
 62
     7
 10
-654.78644525786478
 20
-74.163869493019973
 30
0.0
 40
3.0
 50
270.0573104552214
 51
0.0573104552375087
  0
ARC
  5
2DE
  8
1
 62
     7
 10
-666.83449236730996
 20
-26.135081227310291
 30
0.0
 40
157.50000000000011
 50
75.945878054207199
 51
84.534976200094135
  0
ARC
  5
2DF
  8
1
 62
     7
 10
-666.83449236730996
 20
-26.135081227310291
 30
0.0
 40
157.5
 50
95.465023799905879
 51
0.0
  0
ARC
  5
2E0
  8
1
 62
     7
 10
-666.83449236730996
 20
-26.135081227310291
 30
0.0
 40
157.5
 50
0.0
 51
74.054121945792843
  0
ARC
  5
2E1
  8
1
 62
     7
 10
-142.1151525942216
 20
-180.0061429830611
 30
0.0
 40
3.646826311114606
 50
15.442777472840961
 51
78.300483888252103
  0
ARC
  5
2E2
  8
1
 62
     7
 10
-142.1151525942216
 20
-117.26401947155961
 30
0.0
 40
3.6468263111146082
 50
281.69951611174781
 51
344.5572225271589
  0
CIRCLE
  5
2E3
  8
1
 62
     3
 10
115.4550093507703
 20
-26.135081227310291
 30
0.0
 40
74.786670265165696
  0
CIRCLE
  5
2E4
  8
1
  6
DASHDOT
 62
     3
 10
115.4550093507703
 20
-26.135081227310291
 30
0.0
 40
77.999999999999929
  0
CIRCLE
  5
2E5
  8
1
 62
     7
 10
115.4550093507703
 20
-26.135081227310291
 30
0.0
 40
80.649999999999878
  0
CIRCLE
  5
2E6
  8
1
 62
     7
 10
115.4550093507703
 20
-26.135081227310291
 30
0.0
 40
55.0
  0
CIRCLE
  5
2E7
  8
1
 62
     7
 10
115.4550093507703
 20
-26.135081227310291
 30
0.0
 40
49.0
  0
CIRCLE
  5
2E8
  8
1
 62
     7
 10
115.4550093507703
 20
-26.135081227310291
 30
0.0
 40
36.0
  0
CIRCLE
  5
2E9
  8
1
 62
     7
 10
115.4550093507703
 20
-26.135081227310291
 30
0.0
 40
30.0
  0
CIRCLE
  5
2EA
  8
1
 62
     7
 10
115.4550093507703
 20
-26.135081227310291
 30
0.0
 40
157.49999999999989
  0
CIRCLE
  5
2EB
  8
1
 62
     7
 10
115.4550093507703
 20
-26.135081227310291
 30
0.0
 40
112.9999999999999
  0
CIRCLE
  5
2EC
  8
1
 62
     7
 10
115.4550093507703
 20
-26.135081227310291
 30
0.0
 40
94.999999999999915
  0
CIRCLE
  5
2ED
  8
1
 62
     7
 10
205.5216513443518
 20
25.86491877268972
 30
0.0
 40
5.0
  0
CIRCLE
  5
2EE
  8
1
 62
     7
 10
205.5216513443518
 20
25.86491877268972
 30
0.0
 40
4.0
  0
CIRCLE
  5
2EF
  8
1
 62
     7
 10
115.4550093507703
 20
77.864918772689705
 30
0.0
 40
4.0
  0
CIRCLE
  5
2F0
  8
1
 62
     7
 10
115.4550093507703
 20
77.864918772689705
 30
0.0
 40
5.0
  0
CIRCLE
  5
2F1
  8
1
 62
     7
 10
25.38836735718856
 20
25.864918772689741
 30
0.0
 40
3.999999999999917
  0
CIRCLE
  5
2F2
  8
1
 62
     7
 10
25.38836735718856
 20
25.864918772689741
 30
0.0
 40
5.0
  0
CIRCLE
  5
2F3
  8
1
 62
     7
 10
25.38836735718856
 20
-78.135081227310266
 30
0.0
 40
4.0
  0
CIRCLE
  5
2F4
  8
1
 62
     7
 10
25.38836735718856
 20
-78.135081227310266
 30
0.0
 40
5.0
  0
CIRCLE
  5
2F5
  8
1
 62
     7
 10
115.4550093507702
 20
-130.13508122731031
 30
0.0
 40
4.0
  0
CIRCLE
  5
2F6
  8
1
 62
     7
 10
115.4550093507702
 20
-130.13508122731031
 30
0.0
 40
5.0
  0
CIRCLE
  5
2F7
  8
1
 62
     7
 10
205.5216513443518
 20
-78.135081227310323
 30
0.0
 40
4.0
  0
CIRCLE
  5
2F8
  8
1
 62
     7
 10
205.5216513443518
 20
-78.135081227310323
 30
0.0
 40
5.0
  0
CIRCLE
  5
2F9
  8
1
 62
     3
 10
161.4169501278958
 20
19.82685954981531
 30
0.0
 40
6.0
  0
CIRCLE
  5
2FA
  8
1
 62
     7
 10
161.4169501278958
 20
19.82685954981531
 30
0.0
 40
5.0
  0
CIRCLE
  5
2FB
  8
1
 62
     7
 10
115.4550093507703
 20
38.864918772689713
 30
0.0
 40
6.5
  0
CIRCLE
  5
2FC
  8
1
 62
     7
 10
69.493068573644564
 20
19.82685954981531
 30
0.0
 40
5.0
  0
CIRCLE
  5
2FD
  8
1
 62
     3
 10
69.493068573644564
 20
19.82685954981531
 30
0.0
 40
6.0
  0
CIRCLE
  5
2FE
  8
1
 62
     7
 10
69.493068573644564
 20
-72.097022004435942
 30
0.0
 40
5.0
  0
CIRCLE
  5
2FF
  8
1
 62
     3
 10
69.493068573644564
 20
-72.097022004435942
 30
0.0
 40
6.0
  0
CIRCLE
  5
300
  8
1
 62
     7
 10
161.4169501278958
 20
-72.097022004435942
 30
0.0
 40
5.0
  0
CIRCLE
  5
301
  8
1
 62
     3
 10
161.4169501278958
 20
-72.097022004435942
 30
0.0
 40
6.0
  0
CIRCLE
  5
302
  8
1
 62
     7
 10
50.455009350770183
 20
-26.135081227310291
 30
0.0
 40
6.5
  0
CIRCLE
  5
303
  8
1
 62
     7
 10
115.4550093507702
 20
-91.135081227310351
 30
0.0
 40
6.5
  0
CIRCLE
  5
304
  8
1
 62
     7
 10
180.4550093507701
 20
-26.135081227310291
 30
0.0
 40
6.5
  0
CIRCLE
  5
305
  8
1
 62
     7
 10
115.4550093507703
 20
-26.135081227310291
 30
0.0
 40
154.89999999999989
  0
CIRCLE
  5
306
  8
1
 62
     7
 10
-649.33449236731008
 20
94.864918772689578
 30
0.0
 40
6.5
  0
CIRCLE
  5
307
  8
1
 62
     7
 10
-684.33449236730996
 20
94.864918772689578
 30
0.0
 40
6.5
  0
CIRCLE
  5
308
  8
1
 62
     7
 10
-666.83449236730996
 20
143.86491877268949
 30
0.0
 40
6.5
  0
CIRCLE
  5
309
  8
1
 62
     7
 10
-666.83449236730996
 20
63.864918772689677
 30
0.0
 40
7.0
  0
CIRCLE
  5
30A
  8
1
 62
     7
 10
-576.83449236730996
 20
-26.135081227310291
 30
0.0
 40
7.0
  0
CIRCLE
  5
30B
  8
1
 62
     7
 10
-666.83449236730996
 20
-116.1350812273102
 30
0.0
 40
7.0
  0
CIRCLE
  5
30C
  8
1
 62
     7
 10
-756.83449236731019
 20
-26.135081227310291
 30
0.0
 40
7.0
  0
CIRCLE
  5
30D
  8
1
 62
     7
 10
-666.83449236730996
 20
-26.135081227310291
 30
0.0
 40
98.500000000000014
  0
CIRCLE
  5
30E
  8
1
 62
     7
 10
-666.83449236730996
 20
-26.135081227310291
 30
0.0
 40
70.0
  0
CIRCLE
  5
30F
  8
1
 62
     7
 10
-678.7869083733051
 20
-73.712875873991834
 30
0.0
 40
1.5
  0
CIRCLE
  5
310
  8
1
 62
     7
 10
-654.78692037945189
 20
-73.688869730641628
 30
0.0
 40
1.5
  0
CIRCLE
  5
311
  8
1
 62
     7
 10
-666.83449236730996
 20
-26.135081227310291
 30
0.0
 40
45.0
  0
CIRCLE
  5
312
  8
1
 62
     7
 10
-666.83449236730996
 20
-26.135081227310291
 30
0.0
 40
45.0
  0
ARC
  5
313
  8
1
 62
     7
 10
-330.45786620313987
 20
-138.13508122731039
 30
0.0
 40
1.0
 50
270.0
 51
0.0
  0
ARC
  5
314
  8
1
 62
     7
 10
-330.45786620313987
 20
85.864918772689606
 30
0.0
 40
1.0
 50
0.0
 51
90.0
  0
ARC
  5
315
  8
1
 62
     7
 10
-114.799988130081
 20
85.864918772689634
 30
0.0
 40
1.0
 50
0.0
 51
90.0
  0
ARC
  5
316
  8
1
 62
     7
 10
-114.799988130081
 20
-138.13508122731039
 30
0.0
 40
1.0
 50
270.0
 51
0.0
  0
ARC
  5
317
  8
1
 62
     7
 10
-326.45786620313999
 20
-129.76738234132759
 30
0.0
 40
3.000000000000095
 50
135.0000000000002
 51
180.0
  0
ARC
  5
318
  8
1
 62
     7
 10
-326.45786620313999
 20
65.317899032910887
 30
0.0
 40
3.0
 50
180.0
 51
224.99999999999901
  0
ARC
  5
319
  8
1
 62
     7
 10
-110.799988130081
 20
-123.6777219144295
 30
0.0
 40
3.0000000000000031
 50
134.99999999999841
 51
180.0
  0
ARC
  5
31A
  8
1
 62
     7
 10
-110.799988130081
 20
71.407559459808823
 30
0.0
 40
3.0
 50
180.0
 51
225.00000000000071
  0
ARC
  5
31B
  8
1
 62
     7
 10
-352.25786620314011
 20
126.7649187726896
 30
0.0
 40
4.6000000000000076
 50
90.0
 51
170.0142125560379
  0
ARC
  5
31C
  8
1
 62
     7
 10
-357.25786620314011
 20
123.1649187726896
 30
0.0
 40
3.6000000000000041
 50
96.430174258088044
 51
180.0
  0
ARC
  5
31D
  8
1
 62
     7
 10
-357.77303066728058
 20
127.73598052844029
 30
0.0
 40
0.999999999999966
 50
276.43017425808318
 51
350.0142125560381
  0
ARC
  5
31E
  8
1
 62
     7
 10
-352.25786620314011
 20
-179.03508122731029
 30
0.0
 40
4.5999999999998913
 50
189.9857874439621
 51
270.0
  0
ARC
  5
31F
  8
1
 62
     7
 10
-357.25786620314011
 20
-175.43508122731041
 30
0.0
 40
3.599999999999965
 50
180.0
 51
263.56982574191181
  0
ARC
  5
320
  8
1
 62
     7
 10
-357.77303066728058
 20
-180.0061429830611
 30
0.0
 40
1.0000000000000591
 50
9.9857874439619625
 51
83.569825741916816
  0
ARC
  5
321
  8
1
 62
     7
 10
-136.59998813008099
 20
126.7649187726896
 30
0.0
 40
4.6000000000000076
 50
90.0
 51
170.0142125560381
  0
ARC
  5
322
  8
1
 62
     7
 10
-136.59998813008099
 20
126.7649187726896
 30
0.0
 40
2.0000000000000142
 50
90.0
 51
180.0
  0
ARC
  5
323
  8
1
 62
     7
 10
-141.5999881300811
 20
123.1649187726896
 30
0.0
 40
3.6000000000000041
 50
96.430174258088044
 51
180.0
  0
ARC
  5
324
  8
1
 62
     7
 10
-142.1151525942216
 20
127.73598052844029
 30
0.0
 40
0.9999999999999693
 50
276.43017425808478
 51
350.01421255603691
  0
ARC
  5
325
  8
1
 62
     7
 10
-136.59998813008099
 20
65.964918772689614
 30
0.0
 40
4.6000000000000334
 50
189.9857874439619
 51
270.0
  0
ARC
  5
326
  8
1
 62
     7
 10
-136.59998813008099
 20
65.964918772689614
 30
0.0
 40
2.0000000000000839
 50
180.0
 51
270.0
  0
ARC
  5
327
  8
1
 62
     7
 10
-141.5999881300811
 20
69.564918772689609
 30
0.0
 40
3.599999999999993
 50
180.0
 51
263.56982574191181
  0
ARC
  5
328
  8
1
 62
     7
 10
-142.1151525942216
 20
64.993857016938875
 30
0.0
 40
0.9999999999999468
 50
9.985787443963094
 51
83.569825741915281
  0
ARC
  5
329
  8
1
 62
     7
 10
-136.59998813008099
 20
-179.03508122731029
 30
0.0
 40
2.0
 50
180.0
 51
270.0
  0
ARC
  5
32A
  8
1
 62
     7
 10
-136.59998813008099
 20
-179.03508122731029
 30
0.0
 40
4.6000000000000316
 50
189.98578744396181
 51
270.0
  0
ARC
  5
32B
  8
1
 62
     7
 10
-141.5999881300811
 20
-175.43508122731041
 30
0.0
 40
3.599999999999993
 50
180.0
 51
263.56982574191181
  0
ARC
  5
32C
  8
1
 62
     7
 10
-142.1151525942216
 20
-180.0061429830611
 30
0.0
 40
0.9999999999999468
 50
9.985787443963094
 51
83.569825741915167
  0
ARC
  5
32D
  8
1
 62
     7
 10
-141.5999881300811
 20
-175.43508122731041
 30
0.0
 40
0.9999999999998012
 50
180.0
 51
270.0
  0
ARC
  5
32E
  8
1
 62
     7
 10
-136.59998813008099
 20
-118.2350812273104
 30
0.0
 40
2.0
 50
90.0
 51
180.0
  0
ARC
  5
32F
  8
1
 62
     7
 10
-136.59998813008099
 20
-118.2350812273104
 30
0.0
 40
4.6000000000000076
 50
90.0
 51
170.0142125560381
  0
ARC
  5
330
  8
1
 62
     7
 10
-141.5999881300811
 20
-121.8350812273104
 30
0.0
 40
3.6000000000000041
 50
96.430174258088044
 51
180.0
  0
ARC
  5
331
  8
1
 62
     7
 10
-142.1151525942216
 20
-117.26401947155961
 30
0.0
 40
0.9999999999999693
 50
276.43017425808478
 51
350.01421255603691
  0
ARC
  5
332
  8
1
 62
     7
 10
-141.5999881300811
 20
-121.8350812273104
 30
0.0
 40
1.0
 50
90.0
 51
180.0
  0
TEXT
  5
334
  8
1
 62
     7
 10
-802.45488084038004
 20
240.81121296073891
 30
0.0
 40
14.0
  1
MSC 70T
 41
0.9
  7
SIMPLEX
 72
     1
 11
-761.05488084037995
 21
240.81121296073891
 31
0.0
  0
ENDSEC
  0
EOF
