  0
SECTION
  2
HEADER
  9
$ACADVER
  1
AC1009
  9
$INSBASE
 10
0.0
 20
0.0
 30
0.0
  9
$EXTMIN
 10
-383.0
 20
-123.0
 30
0.0
  9
$EXTMAX
 10
381.54654022104688
 20
448.81673963258328
 30
0.0
  9
$LIMMIN
 10
-383.0
 20
-123.0
  9
$LIMMAX
 10
381.13232665867378
 20
447.15988538309102
  9
$ORTHOMODE
 70
     0
  9
$REGENMODE
 70
     1
  9
$FILLMODE
 70
     1
  9
$QTEXTMODE
 70
     0
  9
$MIRRTEXT
 70
     1
  9
$DRAGMODE
 70
     2
  9
$LTSCALE
 40
1.0
  9
$OSMODE
 70
    37
  9
$ATTMODE
 70
     1
  9
$TEXTSIZE
 40
3.5
  9
$TRACEWID
 40
0.5
  9
$TEXTSTYLE
  7
STANDARD
  9
$CLAYER
  8
0
  9
$CELTYPE
  6
BYLAYER
  9
$CECOLOR
 62
   256
  9
$DIMSCALE
 40
1.0
  9
$DIMASZ
 40
0.18
  9
$DIMEXO
 40
0.0625
  9
$DIMDLI
 40
0.38
  9
$DIMRND
 40
0.0
  9
$DIMDLE
 40
0.0
  9
$DIMEXE
 40
0.18
  9
$DIMTP
 40
0.0
  9
$DIMTM
 40
0.0
  9
$DIMTXT
 40
0.18
  9
$DIMCEN
 40
0.09
  9
$DIMTSZ
 40
0.0
  9
$DIMTOL
 70
     0
  9
$DIMLIM
 70
     0
  9
$DIMTIH
 70
     1
  9
$DIMTOH
 70
     1
  9
$DIMSE1
 70
     0
  9
$DIMSE2
 70
     0
  9
$DIMTAD
 70
     0
  9
$DIMZIN
 70
     0
  9
$DIMBLK
  1

  9
$DIMASO
 70
     1
  9
$DIMSHO
 70
     1
  9
$DIMPOST
  1

  9
$DIMAPOST
  1

  9
$DIMALT
 70
     0
  9
$DIMALTD
 70
     2
  9
$DIMALTF
 40
25.399999999999999
  9
$DIMLFAC
 40
1.0
  9
$DIMTOFL
 70
     0
  9
$DIMTVP
 40
0.0
  9
$DIMTIX
 70
     0
  9
$DIMSOXD
 70
     0
  9
$DIMSAH
 70
     0
  9
$DIMBLK1
  1

  9
$DIMBLK2
  1

  9
$DIMSTYLE
  2
STANDARD
  9
$DIMCLRD
 70
     0
  9
$DIMCLRE
 70
     0
  9
$DIMCLRT
 70
     0
  9
$DIMTFAC
 40
1.0
  9
$DIMGAP
 40
0.09
  9
$LUNITS
 70
     2
  9
$LUPREC
 70
     4
  9
$SKETCHINC
 40
0.1
  9
$FILLETRAD
 40
2.0
  9
$AUNITS
 70
     0
  9
$AUPREC
 70
     0
  9
$MENU
  1
ACAD
  9
$ELEVATION
 40
0.0
  9
$PELEVATION
 40
0.0
  9
$THICKNESS
 40
0.0
  9
$LIMCHECK
 70
     0
  9
$BLIPMODE
 70
     0
  9
$CHAMFERA
 40
0.0
  9
$CHAMFERB
 40
0.0
  9
$SKPOLY
 70
     0
  9
$TDCREATE
 40
2452094.8631038191
  9
$TDUPDATE
 40
2452094.865602199
  9
$TDINDWG
 40
0.0025135417
  9
$TDUSRTIMER
 40
0.0025135417
  9
$USRTIMER
 70
     1
  9
$ANGBASE
 50
0.0
  9
$ANGDIR
 70
     0
  9
$PDMODE
 70
     0
  9
$PDSIZE
 40
0.0
  9
$PLINEWID
 40
0.0
  9
$COORDS
 70
     1
  9
$SPLFRAME
 70
     0
  9
$SPLINETYPE
 70
     6
  9
$SPLINESEGS
 70
     8
  9
$ATTDIA
 70
     0
  9
$ATTREQ
 70
     1
  9
$HANDLING
 70
 10241
  9
$HANDSEED
  5
30F
  9
$SURFTAB1
 70
     6
  9
$SURFTAB2
 70
     6
  9
$SURFTYPE
 70
     6
  9
$SURFU
 70
     6
  9
$SURFV
 70
     6
  9
$UCSNAME
  2

  9
$UCSORG
 10
0.0
 20
0.0
 30
0.0
  9
$UCSXDIR
 10
1.0
 20
0.0
 30
0.0
  9
$UCSYDIR
 10
0.0
 20
1.0
 30
0.0
  9
$PUCSNAME
  2

  9
$PUCSORG
 10
0.0
 20
0.0
 30
0.0
  9
$PUCSXDIR
 10
1.0
 20
0.0
 30
0.0
  9
$PUCSYDIR
 10
0.0
 20
1.0
 30
0.0
  9
$USERI1
 70
     0
  9
$USERI2
 70
     0
  9
$USERI3
 70
     0
  9
$USERI4
 70
     0
  9
$USERI5
 70
     0
  9
$USERR1
 40
0.0
  9
$USERR2
 40
0.0
  9
$USERR3
 40
0.0
  9
$USERR4
 40
0.0
  9
$USERR5
 40
0.0
  9
$WORLDVIEW
 70
     1
  9
$SHADEDGE
 70
     3
  9
$SHADEDIF
 70
    70
  9
$TILEMODE
 70
     1
  9
$MAXACTVP
 70
    64
  9
$PLIMCHECK
 70
     0
  9
$PEXTMIN
 10
1.0000000000000000E+020
 20
1.0000000000000000E+020
 30
1.0000000000000000E+020
  9
$PEXTMAX
 10
-1.0000000000000000E+020
 20
-1.0000000000000000E+020
 30
-1.0000000000000000E+020
  9
$PLIMMIN
 10
0.0
 20
0.0
  9
$PLIMMAX
 10
12.0
 20
9.0
  9
$UNITMODE
 70
     0
  9
$VISRETAIN
 70
     1
  9
$PLINEGEN
 70
     0
  9
$PSLTSCALE
 70
     1
  0
ENDSEC
  0
SECTION
  2
TABLES
  0
TABLE
  2
VPORT
 70
     2
  0
VPORT
  2
*ACTIVE
 70
     0
 10
0.0
 20
0.0
 11
1.0
 21
1.0
 12
260.58637815831838
 22
322.008883800371
 13
0.0
 23
0.0
 14
1.0
 24
1.0
 15
0.0
 25
0.0
 16
0.0
 26
0.0
 36
1.0
 17
0.0
 27
0.0
 37
0.0
 40
8.7982061841580617
 41
2.4700460829493078
 42
50.0
 43
0.0
 44
0.0
 50
0.0
 51
0.0
 71
     0
 72
   100
 73
     1
 74
     1
 75
     0
 76
     0
 77
     0
 78
     0
  0
ENDTAB
  0
TABLE
  2
LTYPE
 70
     9
  0
LTYPE
  2
CONTINUOUS
 70
     0
  3
Solid line
 72
    65
 73
     0
 40
0.0
  0
LTYPE
  2
BORDER
 70
     0
  3
__ __ . __ __ .
 72
    65
 73
     6
 40
35.190304517175768
 49
10.054372719193079
 49
-5.0271863595965378
 49
10.054372719193079
 49
-5.0271863595965378
 49
0.0
 49
-5.0271863595965378
  0
LTYPE
  2
CENTER
 70
     0
  3
____ _ ____ _
 72
    65
 73
     4
 40
40.21749087677231
 49
25.135931797982689
 49
-5.0271863595965378
 49
5.0271863595965378
 49
-5.0271863595965378
  0
LTYPE
  2
DASHDOT
 70
     0
  3
__ . __ . __ .
 72
    65
 73
     4
 40
20.108745438386158
 49
10.054372719193079
 49
-5.0271863595965378
 49
0.0
 49
-5.0271863595965378
  0
LTYPE
  2
DASHED
 70
     0
  3
__ __ __ __ __
 72
    65
 73
     2
 40
15.08155907878961
 49
10.054372719193079
 49
-5.0271863595965378
  0
LTYPE
  2
DIVIDE
 70
     0
  3
__ . . __ . . 
 72
    65
 73
     6
 40
25.135931797982689
 49
10.054372719193079
 49
-5.0271863595965378
 49
0.0
 49
-5.0271863595965378
 49
0.0
 49
-5.0271863595965378
  0
LTYPE
  2
DOT
 70
     0
  3
..............
 72
    65
 73
     4
 40
10.054372719193079
 49
0.0
 49
-5.0271863595965378
 49
0.0
 49
-5.0271863595965378
  0
LTYPE
  2
HIDDEN
 70
     0
  3
_ _ _ _ _ _ _
 72
    65
 73
     2
 40
7.5407795393948094
 49
5.0271863595965378
 49
-2.513593179798268
  0
LTYPE
  2
PHANTOM
 70
     0
  3
_____ _ _ _____ _ _ 
 72
    65
 73
     6
 40
50.271863595965392
 49
25.135931797982689
 49
-5.0271863595965378
 49
5.0271863595965378
 49
-5.0271863595965378
 49
5.0271863595965378
 49
-5.0271863595965378
  0
ENDTAB
  0
TABLE
  2
LAYER
 70
     2
  0
LAYER
  2
0
 70
     0
 62
     7
  6
CONTINUOUS
  0
LAYER
  2
1
 70
     0
 62
     7
  6
CONTINUOUS
  0
ENDTAB
  0
TABLE
  2
STYLE
 70
     4
  0
STYLE
  2
STANDARD
 70
     0
 40
0.0
 41
1.0
 50
0.0
 71
     0
 42
3.5
  3
txt
  4

  0
STYLE
  2
SIMPLEX
 70
     0
 40
0.0
 41
1.0
 50
0.0
 71
     0
 42
3.5
  3
simplex
  4

  0
STYLE
  2
COMPLEX
 70
     0
 40
0.0
 41
1.0
 50
0.0
 71
     0
 42
3.5
  3
complex
  4

  0
STYLE
  2
ITALIC
 70
     0
 40
0.0
 41
1.0
 50
0.0
 71
     0
 42
3.5
  3
italic
  4

  0
ENDTAB
  0
TABLE
  2
VIEW
 70
     0
  0
ENDTAB
  0
TABLE
  2
UCS
 70
     0
  0
ENDTAB
  0
TABLE
  2
APPID
 70
     1
  0
APPID
  2
ACAD
 70
     0
  0
ENDTAB
  0
TABLE
  2
DIMSTYLE
 70
     1
  0
DIMSTYLE
  2
STANDARD
 70
     0
  3

  4

  5

  6

  7

 40
1.0
 41
0.18
 42
0.0625
 43
0.38
 44
0.18
 45
0.0
 46
0.0
 47
0.0
 48
0.0
140
0.18
141
0.09
142
0.0
143
25.399999999999999
144
1.0
145
0.0
146
1.0
147
0.09
 71
     0
 72
     0
 73
     1
 74
     1
 75
     0
 76
     0
 77
     0
 78
     0
170
     0
171
     2
172
     0
173
     0
174
     0
175
     0
176
     0
177
     0
178
     0
  0
ENDTAB
  0
ENDSEC
  0
SECTION
  2
BLOCKS
  0
BLOCK
  8
0
  2
$MODEL_SPACE
 70
     0
 10
0.0
 20
0.0
 30
0.0
  3
$MODEL_SPACE
  1

  0
ENDBLK
  5
20
  8
0
  0
BLOCK
 67
     1
  8
0
  2
$PAPER_SPACE
 70
     0
 10
0.0
 20
0.0
 30
0.0
  3
$PAPER_SPACE
  1

  0
ENDBLK
  5
1C
 67
     1
  8
0
  0
ENDSEC
  0
SECTION
  2
ENTITIES
  0
LINE
  5
33
  8
1
 62
     7
 10
155.44741962295859
 20
-31.206591523187399
 30
0.0
 11
134.04990995621071
 21
-31.181168697370239
 31
0.0
  0
LINE
  5
34
  8
1
 62
     7
 10
129.60410272578301
 20
-37.206546709565821
 30
0.0
 11
129.3361535333519
 21
-38.206546709565707
 31
0.0
  0
LINE
  5
35
  8
1
 62
     7
 10
151.37165516409129
 20
33.164043767882958
 30
0.0
 11
132.6152116939127
 21
-36.835956232116921
 31
0.0
  0
LINE
  5
36
  8
1
 62
     7
 10
127.6675249611783
 20
-37.206546709565707
 30
0.0
 11
132.13224878076821
 21
-37.206546709565707
 31
0.0
  0
LINE
  5
37
  8
1
 62
     7
 10
123.5403049373674
 20
-33.206546709565821
 30
0.0
 11
127.4360963580616
 21
-33.206546709565821
 31
0.0
  0
LINE
  5
38
  8
1
 62
     7
 10
125.0403049373673
 20
28.793453290434169
 30
0.0
 11
144.31689548122219
 21
28.793453290434289
 31
0.0
  0
LINE
  5
39
  8
1
 62
     7
 10
120.5403049373674
 20
-30.206546709565711
 30
0.0
 11
120.5403049373674
 21
24.293453290434289
 31
0.0
  0
LINE
  5
3A
  8
1
 62
     7
 10
145.94100551821231
 20
33.422862812985393
 30
0.0
 11
127.1845620480337
 21
-36.5771371870145
 31
0.0
  0
LINE
  5
3B
  8
1
 62
     7
 10
150.8886922509468
 20
33.793453290434172
 30
0.0
 11
146.42396843135691
 21
33.793453290434279
 31
0.0
  0
LINE
  5
3C
  8
1
 62
     7
 10
150.67537770199931
 20
30.565500903190578
 30
0.0
 11
154.95862240731489
 21
29.417808943416379
 31
0.0
  0
LINE
  5
3D
  8
1
 62
     7
 10
136.2624544247017
 20
-31.18385892197249
 30
0.0
 11
136.25394315699009
 21
-38.183853747564967
 31
0.0
  0
LINE
  5
3E
  8
1
 62
     7
 10
136.25394315699009
 20
-38.183853747564967
 30
0.0
 11
129.25394833139771
 21
-38.175342479853612
 31
0.0
  0
LINE
  5
3F
  8
1
  6
DASHDOT
 62
     3
 10
-381.0
 20
0.0000000000000007
 30
0.0
 11
-349.15247913859309
 21
0.0000000000000007
 31
0.0
  0
LINE
  5
40
  8
1
  6
DASHED
 62
     3
 10
-362.0
 20
-3.9999999999999978
 30
0.0
 11
-360.61435935394479
 21
-3.199999999999998
 31
0.0
  0
LINE
  5
41
  8
1
  6
DASHED
 62
     3
 10
-362.0
 20
4.0
 30
0.0
 11
-360.61435935394479
 21
3.2000000000000011
 31
0.0
  0
LINE
  5
42
  8
1
  6
DASHED
 62
     3
 10
-362.0
 20
-3.9999999999999978
 30
0.0
 11
-378.0
 21
-3.9999999999999978
 31
0.0
  0
LINE
  5
43
  8
1
  6
DASHED
 62
     3
 10
-362.0
 20
4.0
 30
0.0
 11
-362.0
 21
-3.9999999999999978
 31
0.0
  0
LINE
  5
44
  8
1
  6
DASHED
 62
     3
 10
-378.0
 20
4.0
 30
0.0
 11
-362.0
 21
4.0
 31
0.0
  0
LINE
  5
45
  8
1
  6
DASHED
 62
     3
 10
-353.29059892324142
 20
0.0000000000000007
 30
0.0
 11
-355.60000000000002
 21
-3.199999999999998
 31
0.0
  0
LINE
  5
46
  8
1
  6
DASHED
 62
     3
 10
-355.60000000000002
 20
3.2000000000000011
 30
0.0
 11
-353.29059892324142
 21
0.0000000000000007
 31
0.0
  0
LINE
  5
47
  8
1
  6
DASHED
 62
     3
 10
-355.60000000000002
 20
-3.199999999999998
 30
0.0
 11
-378.0
 21
-3.199999999999998
 31
0.0
  0
LINE
  5
48
  8
1
  6
DASHED
 62
     3
 10
-355.60000000000002
 20
3.2000000000000011
 30
0.0
 11
-355.60000000000002
 21
-3.199999999999998
 31
0.0
  0
LINE
  5
49
  8
1
  6
DASHED
 62
     3
 10
-378.0
 20
3.2000000000000011
 30
0.0
 11
-355.60000000000002
 21
3.2000000000000011
 31
0.0
  0
LINE
  5
4A
  8
1
  6
DASHDOT
 62
     3
 10
-2.0
 20
0.0000000000000011
 30
0.0
 11
-33.847520861406807
 21
-0.0000000000000028
 31
0.0
  0
LINE
  5
4B
  8
1
  6
DASHED
 62
     3
 10
-21.0
 20
3.9999999999999978
 30
0.0
 11
-22.385640646055101
 21
3.199999999999998
 31
0.0
  0
LINE
  5
4C
  8
1
  6
DASHED
 62
     3
 10
-21.0
 20
-4.0
 30
0.0
 11
-22.385640646055101
 21
-3.2000000000000011
 31
0.0
  0
LINE
  5
4D
  8
1
  6
DASHED
 62
     3
 10
-21.0
 20
3.9999999999999978
 30
0.0
 11
-5.0
 21
4.0
 31
0.0
  0
LINE
  5
4E
  8
1
  6
DASHED
 62
     3
 10
-21.0
 20
-4.0
 30
0.0
 11
-21.0
 21
3.9999999999999978
 31
0.0
  0
LINE
  5
4F
  8
1
  6
DASHED
 62
     3
 10
-4.9999999999999991
 20
-3.9999999999999978
 30
0.0
 11
-21.0
 21
-4.0
 31
0.0
  0
LINE
  5
50
  8
1
  6
DASHED
 62
     3
 10
-29.7094010767585
 20
-0.0000000000000023
 30
0.0
 11
-27.399999999999999
 21
3.199999999999998
 31
0.0
  0
LINE
  5
51
  8
1
  6
DASHED
 62
     3
 10
-27.399999999999999
 20
-3.2000000000000011
 30
0.0
 11
-29.7094010767585
 21
-0.0000000000000023
 31
0.0
  0
LINE
  5
52
  8
1
  6
DASHED
 62
     3
 10
-27.399999999999999
 20
3.199999999999998
 30
0.0
 11
-5.0
 21
3.2000000000000011
 31
0.0
  0
LINE
  5
53
  8
1
  6
DASHED
 62
     3
 10
-27.399999999999999
 20
-3.2000000000000011
 30
0.0
 11
-27.399999999999999
 21
3.199999999999998
 31
0.0
  0
LINE
  5
54
  8
1
  6
DASHED
 62
     3
 10
-5.0
 20
-3.199999999999998
 30
0.0
 11
-27.399999999999999
 21
-3.2000000000000011
 31
0.0
  0
LINE
  5
55
  8
1
 62
     7
 10
-214.0
 20
-85.623228390852503
 30
0.0
 11
-274.5
 21
-85.623228390852503
 31
0.0
  0
LINE
  5
56
  8
1
 62
     7
 10
-286.0
 20
-80.510678118654724
 30
0.0
 11
-286.0
 21
-60.910678118654729
 31
0.0
  0
LINE
  5
57
  8
1
 62
     7
 10
-293.10510708275592
 20
-60.910678118654729
 30
0.0
 11
-286.0
 21
-60.910678118654729
 31
0.0
  0
LINE
  5
58
  8
1
 62
     7
 10
-293.10510708275592
 20
-65.810678118654721
 30
0.0
 11
-286.0
 21
-65.810678118654721
 31
0.0
  0
LINE
  5
59
  8
1
 62
     7
 10
-293.10510708275592
 20
-75.610678118654732
 30
0.0
 11
-286.0
 21
-75.610678118654732
 31
0.0
  0
LINE
  5
5A
  8
1
 62
     7
 10
-293.10510708275592
 20
-80.510678118654724
 30
0.0
 11
-286.0
 21
-80.510678118654724
 31
0.0
  0
LINE
  5
5B
  8
1
 62
     7
 10
-294.0
 20
-78.060678118654721
 30
0.0
 11
-294.0
 21
-63.360678118654718
 31
0.0
  0
LINE
  5
5C
  8
1
 62
     7
 10
-286.0
 20
-61.510678118654717
 30
0.0
 11
-283.49999999999989
 21
-61.510678118654717
 31
0.0
  0
LINE
  5
5D
  8
1
 62
     7
 10
-283.49999999999989
 20
-79.910678118654744
 30
0.0
 11
-286.0
 21
-79.910678118654744
 31
0.0
  0
LINE
  5
5E
  8
1
 62
     7
 10
-283.49999999999989
 20
-68.210678118654727
 30
0.0
 11
-286.0
 21
-70.710678118654741
 31
0.0
  0
LINE
  5
5F
  8
1
 62
     7
 10
-283.49999999999989
 20
-70.710678118654741
 30
0.0
 11
-286.0
 21
-73.210678118654741
 31
0.0
  0
LINE
  5
60
  8
1
 62
     7
 10
-93.394892917244036
 20
60.910678118654751
 30
0.0
 11
-99.500000000000128
 21
60.910678118654751
 31
0.0
  0
LINE
  5
61
  8
1
 62
     7
 10
-93.394892917244036
 20
65.810678118654749
 30
0.0
 11
-99.500000000000128
 21
65.810678118654749
 31
0.0
  0
LINE
  5
62
  8
1
 62
     7
 10
-93.394892917244036
 20
75.610678118654761
 30
0.0
 11
-99.500000000000128
 21
75.610678118654761
 31
0.0
  0
LINE
  5
63
  8
1
 62
     7
 10
-93.394892917244036
 20
80.510678118654752
 30
0.0
 11
-99.500000000000128
 21
80.510678118654752
 31
0.0
  0
LINE
  5
64
  8
1
 62
     7
 10
-92.500000000000114
 20
78.060678118654735
 30
0.0
 11
-92.500000000000114
 21
63.360678118654761
 31
0.0
  0
LINE
  5
65
  8
1
 62
     7
 10
-99.500000000000128
 20
-60.71067811865472
 30
0.0
 11
-99.500000000000128
 21
-80.710678118654727
 31
0.0
  0
LINE
  5
66
  8
1
 62
     7
 10
-93.394892917244036
 20
-80.510678118654724
 30
0.0
 11
-99.500000000000128
 21
-80.510678118654724
 31
0.0
  0
LINE
  5
67
  8
1
 62
     7
 10
-93.394892917244036
 20
-75.610678118654732
 30
0.0
 11
-99.500000000000128
 21
-75.610678118654732
 31
0.0
  0
LINE
  5
68
  8
1
 62
     7
 10
-93.394892917244036
 20
-65.810678118654721
 30
0.0
 11
-99.500000000000128
 21
-65.810678118654721
 31
0.0
  0
LINE
  5
69
  8
1
 62
     7
 10
-93.394892917244036
 20
-60.910678118654729
 30
0.0
 11
-99.500000000000128
 21
-60.910678118654729
 31
0.0
  0
LINE
  5
6A
  8
1
 62
     7
 10
-92.500000000000114
 20
-63.360678118654718
 30
0.0
 11
-92.500000000000114
 21
-78.060678118654721
 31
0.0
  0
LINE
  5
6B
  8
1
 62
     7
 10
-179.0
 20
-42.018159090392928
 30
0.0
 11
-179.0
 21
-37.206546709565771
 31
0.0
  0
LINE
  5
6C
  8
1
 62
     7
 10
-105.5000000000001
 20
-44.018159090392928
 30
0.0
 11
-177.0
 21
-44.018159090392928
 31
0.0
  0
LINE
  5
6D
  8
1
 62
     7
 10
-105.5000000000001
 20
-49.499431836248547
 30
0.0
 11
-172.0
 21
-49.499431836248547
 31
0.0
  0
LINE
  5
6E
  8
1
 62
     7
 10
-109.5000000000002
 20
-57.084224849933463
 30
0.0
 11
-109.5000000000002
 21
-49.499431836248547
 31
0.0
  0
LINE
  5
6F
  8
1
 62
     7
 10
-109.5000000000002
 20
-57.084224849933463
 30
0.0
 11
-101.5000000000001
 21
-57.084224849933463
 31
0.0
  0
LINE
  5
70
  8
1
 62
     7
 10
-113.5000000000001
 20
-38.525096300180358
 30
0.0
 11
-179.0
 21
-38.525096300180358
 31
0.0
  0
LINE
  5
71
  8
1
 62
     7
 10
-172.0
 20
-61.084224849933463
 30
0.0
 11
-113.5000000000001
 21
-61.084224849933463
 31
0.0
  0
LINE
  5
72
  8
1
 62
     7
 10
-109.5000000000001
 20
-19.969540431696981
 30
0.0
 11
-109.5000000000002
 21
-34.525096300180373
 31
0.0
  0
LINE
  5
73
  8
1
 62
     7
 10
-172.0
 20
-102.0
 30
0.0
 11
-172.0
 21
-47.774713953717011
 31
0.0
  0
LINE
  5
74
  8
1
 62
     7
 10
-64.982926916383676
 20
-105.2779191823312
 30
0.0
 11
-100.02560962542449
 21
-84.581463478632003
 31
0.0
  0
LINE
  5
75
  8
1
 62
     7
 10
-101.5000000000001
 20
92.861008896683586
 30
0.0
 11
-101.5000000000001
 21
-102.0
 31
0.0
  0
LINE
  5
76
  8
1
 62
     7
 10
-98.500000000000128
 20
115.0
 30
0.0
 11
-284.5
 21
115.0
 31
0.0
  0
LINE
  5
77
  8
1
 62
     7
 10
-98.500000000000128
 20
92.861008896683586
 30
0.0
 11
-101.5000000000001
 21
92.861008896683586
 31
0.0
  0
LINE
  5
78
  8
1
 62
     7
 10
-95.500000000000128
 20
112.0
 30
0.0
 11
-95.500000000000128
 21
95.8610088966836
 31
0.0
  0
LINE
  5
79
  8
1
 62
     7
 10
-186.00000000000011
 20
-115.0
 30
0.0
 11
-197.0
 21
-115.0
 31
0.0
  0
LINE
  5
7A
  8
1
 62
     7
 10
-66.000000000000099
 20
-105.0
 30
0.0
 11
-186.00000000000011
 21
-105.0
 31
0.0
  0
LINE
  5
7B
  8
1
 62
     7
 10
-64.000000000000099
 20
-120.0
 30
0.0
 11
-186.00000000000011
 21
-120.0
 31
0.0
  0
LINE
  5
7C
  8
1
 62
     7
 10
-64.000000000000099
 20
-107.0
 30
0.0
 11
-64.000000000000099
 21
-120.0
 31
0.0
  0
LINE
  5
7D
  8
1
 62
     7
 10
-101.5000000000001
 20
80.710678118654727
 30
0.0
 11
-99.500000000000128
 21
80.710678118654727
 31
0.0
  0
LINE
  5
7E
  8
1
 62
     7
 10
-99.500000000000128
 20
80.710678118654727
 30
0.0
 11
-99.500000000000128
 21
60.71067811865472
 31
0.0
  0
LINE
  5
7F
  8
1
 62
     7
 10
-99.500000000000128
 20
60.71067811865472
 30
0.0
 11
-101.5000000000001
 21
60.710678118654712
 31
0.0
  0
LINE
  5
80
  8
1
 62
     7
 10
-64.500000000000085
 20
32.99309483670244
 30
0.0
 11
-100.71270210035981
 21
60.710678118654712
 31
0.0
  0
LINE
  5
81
  8
1
 62
     7
 10
-101.5000000000001
 20
32.99309483670244
 30
0.0
 11
-64.500000000000085
 21
32.99309483670244
 31
0.0
  0
LINE
  5
82
  8
1
 62
     7
 10
-100.71270210035981
 20
-60.710678118654712
 30
0.0
 11
-64.500000000000085
 21
-32.99309483670244
 31
0.0
  0
LINE
  5
83
  8
1
 62
     7
 10
-99.500000000000128
 20
-80.710678118654727
 30
0.0
 11
-101.5000000000001
 21
-80.710678118654727
 31
0.0
  0
LINE
  5
84
  8
1
 62
     7
 10
-101.5000000000001
 20
-60.710678118654712
 30
0.0
 11
-99.500000000000128
 21
-60.71067811865472
 31
0.0
  0
LINE
  5
85
  8
1
 62
     7
 10
-64.500000000000085
 20
-32.99309483670244
 30
0.0
 11
-101.5000000000001
 21
-32.99309483670244
 31
0.0
  0
LINE
  5
86
  8
1
 62
     7
 10
-66.500000000000099
 20
-50.0
 30
0.0
 11
-86.719324970102193
 21
-50.0
 31
0.0
  0
LINE
  5
87
  8
1
 62
     7
 10
-66.500000000000099
 20
50.0
 30
0.0
 11
-86.719324970102193
 21
50.0
 31
0.0
  0
LINE
  5
88
  8
1
 62
     7
 10
-64.500000000000085
 20
48.0
 30
0.0
 11
-64.500000000000085
 21
-48.0
 31
0.0
  0
LINE
  5
89
  8
1
 62
     7
 10
236.1323266586738
 20
-79.847018143580783
 30
0.0
 11
236.1323266586738
 21
-91.847018143580783
 31
0.0
  0
LINE
  5
8A
  8
1
 62
     7
 10
296.13232665867378
 20
-79.847018143580783
 30
0.0
 11
236.1323266586738
 21
-79.847018143580783
 31
0.0
  0
LINE
  5
8B
  8
1
 62
     7
 10
296.13232665867378
 20
-91.847018143580783
 30
0.0
 11
296.13232665867378
 21
-79.847018143580783
 31
0.0
  0
LINE
  5
8C
  8
1
 62
     7
 10
236.1323266586738
 20
-91.847018143580783
 30
0.0
 11
296.13232665867378
 21
-91.847018143580783
 31
0.0
  0
LINE
  5
8D
  8
1
  6
DASHDOT
 62
     3
 10
166.1323266586738
 20
-123.0
 30
0.0
 11
166.1323266586738
 21
-102.0
 31
0.0
  0
LINE
  5
8E
  8
1
  6
DASHED
 62
     3
 10
160.6323266586738
 20
-120.0
 30
0.0
 11
160.6323266586738
 21
-107.0
 31
0.0
  0
LINE
  5
8F
  8
1
  6
DASHED
 62
     3
 10
171.6323266586738
 20
-120.0
 30
0.0
 11
171.6323266586738
 21
-107.0
 31
0.0
  0
LINE
  5
90
  8
1
  6
DASHED
 62
     3
 10
177.3823266586738
 20
-105.0
 30
0.0
 11
177.3823266586738
 21
-107.0
 31
0.0
  0
LINE
  5
91
  8
1
  6
DASHED
 62
     3
 10
177.3823266586738
 20
-107.0
 30
0.0
 11
154.8823266586738
 21
-107.0
 31
0.0
  0
LINE
  5
92
  8
1
  6
DASHED
 62
     3
 10
154.8823266586738
 20
-107.0
 30
0.0
 11
154.8823266586738
 21
-105.0
 31
0.0
  0
LINE
  5
93
  8
1
  6
DASHDOT
 62
     3
 10
366.13232665867378
 20
-102.0
 30
0.0
 11
366.13232665867378
 21
-123.0
 31
0.0
  0
LINE
  5
94
  8
1
  6
DASHED
 62
     3
 10
371.63232665867378
 20
-107.0
 30
0.0
 11
371.63232665867378
 21
-120.0
 31
0.0
  0
LINE
  5
95
  8
1
  6
DASHED
 62
     3
 10
360.63232665867378
 20
-107.0
 30
0.0
 11
360.63232665867378
 21
-120.0
 31
0.0
  0
LINE
  5
96
  8
1
  6
DASHED
 62
     3
 10
354.88232665867378
 20
-107.0
 30
0.0
 11
354.88232665867378
 21
-105.0
 31
0.0
  0
LINE
  5
97
  8
1
  6
DASHED
 62
     3
 10
377.38232665867378
 20
-107.0
 30
0.0
 11
354.88232665867378
 21
-107.0
 31
0.0
  0
LINE
  5
98
  8
1
  6
DASHED
 62
     3
 10
377.38232665867378
 20
-105.0
 30
0.0
 11
377.38232665867378
 21
-107.0
 31
0.0
  0
LINE
  5
99
  8
1
 62
     7
 10
263.13232665867378
 20
-69.232050807568882
 30
0.0
 11
266.13232665867378
 21
-70.96410161513775
 31
0.0
  0
LINE
  5
9A
  8
1
 62
     7
 10
263.13232665867378
 20
-65.767949192431118
 30
0.0
 11
263.13232665867378
 21
-69.232050807568882
 31
0.0
  0
LINE
  5
9B
  8
1
 62
     7
 10
266.13232665867378
 20
-64.03589838486225
 30
0.0
 11
263.13232665867378
 21
-65.767949192431118
 31
0.0
  0
LINE
  5
9C
  8
1
 62
     7
 10
269.13232665867389
 20
-65.767949192431118
 30
0.0
 11
266.13232665867378
 21
-64.03589838486225
 31
0.0
  0
LINE
  5
9D
  8
1
 62
     7
 10
269.13232665867389
 20
-69.232050807568882
 30
0.0
 11
269.13232665867389
 21
-65.767949192431118
 31
0.0
  0
LINE
  5
9E
  8
1
 62
     7
 10
266.13232665867378
 20
-70.96410161513775
 30
0.0
 11
269.13232665867389
 21
-69.232050807568882
 31
0.0
  0
LINE
  5
9F
  8
1
 62
     7
 10
196.90027585110499
 20
3.0000000000000062
 30
0.0
 11
195.1682250435361
 21
0.000000000000006
 31
0.0
  0
LINE
  5
A0
  8
1
 62
     7
 10
200.36437746624279
 20
3.000000000000004
 30
0.0
 11
196.90027585110499
 21
3.0000000000000062
 31
0.0
  0
LINE
  5
A1
  8
1
 62
     7
 10
202.0964282738116
 20
0.0000000000000059
 30
0.0
 11
200.36437746624279
 21
3.000000000000004
 31
0.0
  0
LINE
  5
A2
  8
1
 62
     7
 10
200.36437746624279
 20
-2.9999999999999929
 30
0.0
 11
202.0964282738116
 21
0.0000000000000059
 31
0.0
  0
LINE
  5
A3
  8
1
 62
     7
 10
196.90027585110499
 20
-2.9999999999999929
 30
0.0
 11
200.36437746624279
 21
-2.9999999999999929
 31
0.0
  0
LINE
  5
A4
  8
1
 62
     7
 10
195.1682250435361
 20
0.000000000000006
 30
0.0
 11
196.90027585110499
 21
-2.9999999999999929
 31
0.0
  0
LINE
  5
A5
  8
1
 62
     7
 10
269.13232665867389
 20
69.232050807568882
 30
0.0
 11
266.13232665867378
 21
70.96410161513775
 31
0.0
  0
LINE
  5
A6
  8
1
 62
     7
 10
269.13232665867389
 20
65.767949192431118
 30
0.0
 11
269.13232665867389
 21
69.232050807568882
 31
0.0
  0
LINE
  5
A7
  8
1
 62
     7
 10
266.13232665867378
 20
64.03589838486225
 30
0.0
 11
269.13232665867389
 21
65.767949192431118
 31
0.0
  0
LINE
  5
A8
  8
1
 62
     7
 10
263.13232665867378
 20
65.767949192431118
 30
0.0
 11
266.13232665867378
 21
64.03589838486225
 31
0.0
  0
LINE
  5
A9
  8
1
 62
     7
 10
263.13232665867378
 20
69.232050807568882
 30
0.0
 11
263.13232665867378
 21
65.767949192431118
 31
0.0
  0
LINE
  5
AA
  8
1
 62
     7
 10
266.13232665867378
 20
70.96410161513775
 30
0.0
 11
263.13232665867378
 21
69.232050807568882
 31
0.0
  0
LINE
  5
AB
  8
1
 62
     7
 10
335.36437746624279
 20
-3.0000000000000009
 30
0.0
 11
337.09642827381163
 21
-0.0000000000000005
 31
0.0
  0
LINE
  5
AC
  8
1
 62
     7
 10
331.90027585110511
 20
-3.0000000000000009
 30
0.0
 11
335.36437746624279
 21
-3.0000000000000009
 31
0.0
  0
LINE
  5
AD
  8
1
 62
     7
 10
330.16822504353621
 20
-0.0000000000000012
 30
0.0
 11
331.90027585110511
 21
-3.0000000000000009
 31
0.0
  0
LINE
  5
AE
  8
1
 62
     7
 10
331.90027585110511
 20
2.9999999999999978
 30
0.0
 11
330.16822504353621
 21
-0.0000000000000012
 31
0.0
  0
LINE
  5
AF
  8
1
 62
     7
 10
335.36437746624279
 20
2.9999999999999978
 30
0.0
 11
331.90027585110511
 21
2.9999999999999978
 31
0.0
  0
LINE
  5
B0
  8
1
 62
     7
 10
337.09642827381163
 20
-0.0000000000000005
 30
0.0
 11
335.36437746624279
 21
2.9999999999999978
 31
0.0
  0
LINE
  5
B1
  8
1
 62
     7
 10
256.13232665867389
 20
100.39920318408829
 30
0.0
 11
256.13232665867389
 21
98.386991009990993
 31
0.0
  0
LINE
  5
B2
  8
1
 62
     7
 10
215.63480196686351
 20
87.464278422679527
 30
0.0
 11
216.63485197561559
 21
85.732140997411264
 31
0.0
  0
LINE
  5
B3
  8
1
 62
     7
 10
316.62985135048427
 20
87.464278422679499
 30
0.0
 11
315.62980134173227
 21
85.732140997411193
 31
0.0
  0
LINE
  5
B4
  8
1
 62
     7
 10
276.13232665867378
 20
100.399203184089
 30
0.0
 11
276.13232665867378
 21
98.386991009990766
 31
0.0
  0
LINE
  5
B5
  8
1
 62
     7
 10
323.63232665867378
 20
99.592921435210471
 30
0.0
 11
320.61168054617889
 21
94.3610088966836
 31
0.0
  0
LINE
  5
B6
  8
1
 62
     7
 10
208.63232665867389
 20
99.592921435210471
 30
0.0
 11
211.652972771169
 21
94.3610088966836
 31
0.0
  0
LINE
  5
B7
  8
1
 62
     7
 10
275.15126170689803
 20
-103.0868993160642
 30
0.0
 11
276.01854563713351
 21
-113.0
 31
0.0
  0
LINE
  5
B8
  8
1
 62
     7
 10
299.8223388856423
 20
-97.842899978247274
 30
0.0
 11
305.04134696052529
 21
-113.0
 31
0.0
  0
LINE
  5
B9
  8
1
 62
     7
 10
256.24610768021432
 20
-113.0
 30
0.0
 11
257.11339161044981
 21
-103.0868993160642
 31
0.0
  0
LINE
  5
BA
  8
1
 62
     7
 10
227.22330635682249
 20
-113.0
 30
0.0
 11
232.44231443170551
 21
-97.842899978247274
 31
0.0
  0
LINE
  5
BB
  8
1
 62
     7
 10
209.1323266586738
 20
-113.0
 30
0.0
 11
323.13232665867378
 21
-113.0
 31
0.0
  0
LINE
  5
BC
  8
1
 62
     7
 10
348.77566793741062
 20
-62.276224534619487
 30
0.0
 11
357.97541031411271
 21
-69.208727662485558
 31
0.0
  0
LINE
  5
BD
  8
1
 62
     7
 10
359.3536755709037
 20
-44.788727454398568
 30
0.0
 11
369.9340908435305
 21
-49.499431836248547
 31
0.0
  0
LINE
  5
BE
  8
1
 62
     7
 10
361.79409542935753
 20
-39.30745470854248
 30
0.0
 11
372.37451070198529
 21
-44.018159090392928
 31
0.0
  0
LINE
  5
BF
  8
1
 62
     7
 10
368.04089721711728
 20
-17.969230554885868
 30
0.0
 11
379.3852182550778
 21
-19.969540431696981
 31
0.0
  0
LINE
  5
C0
  8
1
 62
     7
 10
381.10547489838513
 20
-106.6733717340383
 30
0.0
 11
371.19005428757299
 21
-46.774713953717018
 31
0.0
  0
LINE
  5
C1
  8
1
 62
     7
 10
343.13232665867378
 20
-103.0
 30
0.0
 11
343.13232665867378
 21
-87.612784455238057
 31
0.0
  0
LINE
  5
C2
  8
1
 62
     7
 10
327.13232665867378
 20
-83.710678118654741
 30
0.0
 11
337.13232665867378
 21
-83.710678118654741
 31
0.0
  0
LINE
  5
C3
  8
1
 62
     7
 10
338.13232665867378
 20
-103.0
 30
0.0
 11
338.13232665867378
 21
-83.710678118654741
 31
0.0
  0
LINE
  5
C4
  8
1
 62
     7
 10
326.13232665867378
 20
-83.710678118654741
 30
0.0
 11
326.13232665867378
 21
-120.0
 31
0.0
  0
LINE
  5
C5
  8
1
 62
     7
 10
328.13232665867378
 20
-105.0
 30
0.0
 11
379.13232665867378
 21
-105.0
 31
0.0
  0
LINE
  5
C6
  8
1
 62
     7
 10
381.13232665867378
 20
-107.0
 30
0.0
 11
381.13232665867378
 21
-120.0
 31
0.0
  0
LINE
  5
C7
  8
1
 62
     7
 10
381.13232665867378
 20
-120.0
 30
0.0
 11
326.13232665867378
 21
-120.0
 31
0.0
  0
LINE
  5
C8
  8
1
 62
     7
 10
189.13232665867389
 20
-87.612784455238057
 30
0.0
 11
189.13232665867389
 21
-103.0
 31
0.0
  0
LINE
  5
C9
  8
1
 62
     7
 10
161.07459902977479
 20
-46.774713953717018
 30
0.0
 11
151.1591784189628
 21
-106.6733717340383
 31
0.0
  0
LINE
  5
CA
  8
1
 62
     7
 10
174.2892430032351
 20
-69.208727662485558
 30
0.0
 11
183.4889853799373
 21
-62.276224534619487
 31
0.0
  0
LINE
  5
CB
  8
1
 62
     7
 10
162.33056247381731
 20
-49.499431836248547
 30
0.0
 11
172.9109777464441
 21
-44.788727454398568
 31
0.0
  0
LINE
  5
CC
  8
1
 62
     7
 10
159.89014261536241
 20
-44.018159090392928
 30
0.0
 11
170.47055788798971
 21
-39.307454708542771
 31
0.0
  0
LINE
  5
CD
  8
1
 62
     7
 10
152.87943506227001
 20
-19.969540431696981
 30
0.0
 11
164.22375610022991
 21
-17.969230554885989
 31
0.0
  0
LINE
  5
CE
  8
1
 62
     7
 10
195.13232665867389
 20
-83.710678118654741
 30
0.0
 11
205.1323266586738
 21
-83.710678118654741
 31
0.0
  0
LINE
  5
CF
  8
1
 62
     7
 10
194.13232665867389
 20
-83.710678118654741
 30
0.0
 11
194.13232665867389
 21
-103.0
 31
0.0
  0
LINE
  5
D0
  8
1
 62
     7
 10
206.13232665867389
 20
-120.0
 30
0.0
 11
206.13232665867389
 21
-83.710678118654741
 31
0.0
  0
LINE
  5
D1
  8
1
 62
     7
 10
153.1323266586738
 20
-105.0
 30
0.0
 11
204.13232665867389
 21
-105.0
 31
0.0
  0
LINE
  5
D2
  8
1
 62
     7
 10
151.1323266586738
 20
-120.0
 30
0.0
 11
151.1323266586738
 21
-107.0
 31
0.0
  0
LINE
  5
D3
  8
1
 62
     7
 10
206.13232665867389
 20
-120.0
 30
0.0
 11
151.1323266586738
 21
-120.0
 31
0.0
  0
LINE
  5
D4
  8
1
 62
     7
 10
334.30270760618578
 20
-80.191196227683264
 30
0.0
 11
343.78322571521431
 21
-77.650899056540425
 31
0.0
  0
LINE
  5
D5
  8
1
 62
     7
 10
327.36248666830011
 20
-73.250975289797594
 30
0.0
 11
334.30270760618578
 21
-80.191196227683264
 31
0.0
  0
LINE
  5
D6
  8
1
 62
     7
 10
329.90278383944298
 20
-63.7704571807691
 30
0.0
 11
327.36248666830011
 21
-73.250975289797594
 31
0.0
  0
LINE
  5
D7
  8
1
 62
     7
 10
339.38330194847151
 20
-61.230160009626282
 30
0.0
 11
329.90278383944298
 21
-63.7704571807691
 31
0.0
  0
LINE
  5
D8
  8
1
 62
     7
 10
346.32352288635713
 20
-68.170380947511944
 30
0.0
 11
339.38330194847151
 21
-61.230160009626282
 31
0.0
  0
LINE
  5
D9
  8
1
 62
     7
 10
343.78322571521431
 20
-77.650899056540425
 30
0.0
 11
346.32352288635713
 21
-68.170380947511944
 31
0.0
  0
LINE
  5
DA
  8
1
 62
     7
 10
330.80957190573832
 20
-60.434604559945079
 30
0.0
 11
305.48938252605529
 21
-35.114415180262093
 31
0.0
  0
LINE
  5
DB
  8
1
 62
     7
 10
326.56693121861878
 20
-64.677245247064377
 30
0.0
 11
301.24674183893598
 21
-39.357055867381384
 31
0.0
  0
LINE
  5
DC
  8
1
 62
     7
 10
185.9411304309906
 20
-68.170380947511916
 30
0.0
 11
188.48142760213341
 21
-77.65089905654041
 31
0.0
  0
LINE
  5
DD
  8
1
 62
     7
 10
192.88135136887641
 20
-61.230160009626253
 30
0.0
 11
185.9411304309906
 21
-68.170380947511916
 31
0.0
  0
LINE
  5
DE
  8
1
 62
     7
 10
202.3618694779048
 20
-63.770457180769078
 30
0.0
 11
192.88135136887641
 21
-61.230160009626253
 31
0.0
  0
LINE
  5
DF
  8
1
 62
     7
 10
204.9021666490477
 20
-73.250975289797566
 30
0.0
 11
202.3618694779048
 21
-63.770457180769078
 31
0.0
  0
LINE
  5
E0
  8
1
 62
     7
 10
197.961945711162
 20
-80.191196227683236
 30
0.0
 11
204.9021666490477
 21
-73.250975289797566
 31
0.0
  0
LINE
  5
E1
  8
1
 62
     7
 10
188.48142760213341
 20
-77.65089905654041
 30
0.0
 11
197.961945711162
 21
-80.191196227683236
 31
0.0
  0
LINE
  5
E2
  8
1
 62
     7
 10
205.6977220987288
 20
-64.67724524706432
 30
0.0
 11
231.0179114784118
 21
-39.357055867381369
 31
0.0
  0
LINE
  5
E3
  8
1
 62
     7
 10
201.4550814116096
 20
-60.434604559945051
 30
0.0
 11
226.7752707912924
 21
-35.114415180262078
 31
0.0
  0
LINE
  5
E4
  8
1
 62
     7
 10
197.961945711162
 20
80.19119622768325
 30
0.0
 11
188.48142760213341
 21
77.650899056540425
 31
0.0
  0
LINE
  5
E5
  8
1
 62
     7
 10
204.9021666490477
 20
73.25097528979758
 30
0.0
 11
197.961945711162
 21
80.19119622768325
 31
0.0
  0
LINE
  5
E6
  8
1
 62
     7
 10
202.3618694779048
 20
63.770457180769093
 30
0.0
 11
204.9021666490477
 21
73.25097528979758
 31
0.0
  0
LINE
  5
E7
  8
1
 62
     7
 10
192.88135136887641
 20
61.230160009626267
 30
0.0
 11
202.3618694779048
 21
63.770457180769093
 31
0.0
  0
LINE
  5
E8
  8
1
 62
     7
 10
185.9411304309906
 20
68.17038094751193
 30
0.0
 11
192.88135136887641
 21
61.230160009626267
 31
0.0
  0
LINE
  5
E9
  8
1
 62
     7
 10
188.48142760213341
 20
77.650899056540425
 30
0.0
 11
185.9411304309906
 21
68.17038094751193
 31
0.0
  0
LINE
  5
EA
  8
1
 62
     7
 10
201.4550814116096
 20
60.434604559945072
 30
0.0
 11
226.7752707912924
 21
35.114415180262078
 31
0.0
  0
LINE
  5
EB
  8
1
 62
     7
 10
205.69772209872889
 20
64.677245247064363
 30
0.0
 11
231.0179114784118
 21
39.357055867381384
 31
0.0
  0
LINE
  5
EC
  8
1
 62
     7
 10
346.32352288635713
 20
68.17038094751193
 30
0.0
 11
343.78322571521431
 21
77.650899056540425
 31
0.0
  0
LINE
  5
ED
  8
1
 62
     7
 10
339.38330194847151
 20
61.230160009626267
 30
0.0
 11
346.32352288635713
 21
68.17038094751193
 31
0.0
  0
LINE
  5
EE
  8
1
 62
     7
 10
329.90278383944298
 20
63.770457180769093
 30
0.0
 11
339.38330194847151
 21
61.230160009626267
 31
0.0
  0
LINE
  5
EF
  8
1
 62
     7
 10
327.36248666830011
 20
73.25097528979758
 30
0.0
 11
329.90278383944298
 21
63.770457180769093
 31
0.0
  0
LINE
  5
F0
  8
1
 62
     7
 10
334.30270760618578
 20
80.19119622768325
 30
0.0
 11
327.36248666830011
 21
73.25097528979758
 31
0.0
  0
LINE
  5
F1
  8
1
 62
     7
 10
343.78322571521431
 20
77.650899056540425
 30
0.0
 11
334.30270760618578
 21
80.19119622768325
 31
0.0
  0
LINE
  5
F2
  8
1
 62
     7
 10
326.56693121861878
 20
64.677245247064349
 30
0.0
 11
301.24674183893598
 21
39.357055867381384
 31
0.0
  0
LINE
  5
F3
  8
1
 62
     7
 10
330.80957190573832
 20
60.434604559945051
 30
0.0
 11
305.48938252605529
 21
35.114415180262078
 31
0.0
  0
LINE
  5
F4
  8
1
  6
DASHDOT
 62
     3
 10
266.13232665867378
 20
6.9999999999999991
 30
0.0
 11
266.13232665867378
 21
-7.0
 31
0.0
  0
LINE
  5
F5
  8
1
  6
DASHDOT
 62
     3
 10
273.13232665867389
 20
-0.0000000000000009
 30
0.0
 11
259.13232665867378
 21
0.0
 31
0.0
  0
LINE
  5
F6
  8
1
 62
     7
 10
262.63232665867389
 20
18.0
 30
0.0
 11
262.63232665867389
 21
11.0
 31
0.0
  0
LINE
  5
F7
  8
1
 62
     7
 10
269.63232665867378
 20
18.0
 30
0.0
 11
262.63232665867389
 21
18.0
 31
0.0
  0
LINE
  5
F8
  8
1
 62
     7
 10
269.63232665867378
 20
11.0
 30
0.0
 11
269.63232665867378
 21
18.0
 31
0.0
  0
LINE
  5
F9
  8
1
 62
     7
 10
262.63232665867389
 20
11.0
 30
0.0
 11
269.63232665867378
 21
11.0
 31
0.0
  0
LINE
  5
FA
  8
1
 62
     7
 10
262.63232665867389
 20
-21.54642819948225
 30
0.0
 11
260.13232665867378
 21
-21.54642819948225
 31
0.0
  0
LINE
  5
FB
  8
1
 62
     7
 10
262.63232665867389
 20
-17.146428199482251
 30
0.0
 11
262.63232665867389
 21
-21.54642819948225
 31
0.0
  0
LINE
  5
FC
  8
1
 62
     7
 10
269.63232665867378
 20
-21.54642819948225
 30
0.0
 11
272.13232665867378
 21
-21.54642819948225
 31
0.0
  0
LINE
  5
FD
  8
1
 62
     7
 10
269.63232665867378
 20
-17.146428199482251
 30
0.0
 11
269.63232665867378
 21
-21.54642819948225
 31
0.0
  0
LINE
  5
FE
  8
1
 62
     7
 10
257.63232665867378
 20
-19.046428199482239
 30
0.0
 11
257.63232665867378
 21
-18.54331947507854
 31
0.0
  0
LINE
  5
FF
  8
1
 62
     7
 10
274.63232665867378
 20
-19.046428199482239
 30
0.0
 11
274.63232665867378
 21
-18.54331947507854
 31
0.0
  0
LINE
  5
100
  8
1
 62
     7
 10
-185.00000000000011
 20
-47.774713953717011
 30
0.0
 11
-173.0
 21
-47.774713953717011
 31
0.0
  0
LINE
  5
101
  8
1
 62
     7
 10
-186.00000000000011
 20
-47.774713953717011
 30
0.0
 11
-186.00000000000011
 21
-120.0
 31
0.0
  0
LINE
  5
102
  8
1
 62
     7
 10
-108.5000000000001
 20
-85.623228390852503
 30
0.0
 11
-169.0
 21
-85.623228390852503
 31
0.0
  0
LINE
  5
103
  8
1
 62
     7
 10
-105.5000000000001
 20
-69.208727662485558
 30
0.0
 11
-172.00000000000011
 21
-69.208727662485558
 31
0.0
  0
LINE
  5
104
  8
1
 62
     7
 10
-105.5000000000001
 20
-19.969540431696981
 30
0.0
 11
-147.5
 21
-19.969540431696981
 31
0.0
  0
LINE
  5
105
  8
1
  6
DASHDOT
 62
     3
 10
-79.000000000000099
 20
-123.0
 30
0.0
 11
-79.000000000000099
 21
-102.0
 31
0.0
  0
LINE
  5
106
  8
1
  6
DASHED
 62
     3
 10
-84.500000000000085
 20
-120.0
 30
0.0
 11
-84.500000000000085
 21
-107.0
 31
0.0
  0
LINE
  5
107
  8
1
  6
DASHED
 62
     3
 10
-73.500000000000099
 20
-120.0
 30
0.0
 11
-73.500000000000099
 21
-107.0
 31
0.0
  0
LINE
  5
108
  8
1
  6
DASHED
 62
     3
 10
-67.750000000000099
 20
-105.0
 30
0.0
 11
-67.750000000000099
 21
-107.0
 31
0.0
  0
LINE
  5
109
  8
1
  6
DASHED
 62
     3
 10
-67.750000000000099
 20
-107.0
 30
0.0
 11
-90.250000000000114
 21
-107.0
 31
0.0
  0
LINE
  5
10A
  8
1
  6
DASHED
 62
     3
 10
-90.250000000000114
 20
-107.0
 30
0.0
 11
-90.250000000000114
 21
-105.0
 31
0.0
  0
LINE
  5
10B
  8
1
 62
     7
 10
-101.5000000000001
 20
0.0
 30
0.0
 11
-99.500000000000128
 21
2.0
 31
0.0
  0
LINE
  5
10C
  8
1
 62
     7
 10
-101.5000000000001
 20
-2.0
 30
0.0
 11
-99.500000000000128
 21
0.0
 31
0.0
  0
LINE
  5
10D
  8
1
 62
     7
 10
-101.5000000000001
 20
7.7000000000000002
 30
0.0
 11
-99.500000000000128
 21
7.7000000000000002
 31
0.0
  0
LINE
  5
10E
  8
1
 62
     7
 10
-99.500000000000128
 20
7.7000000000000002
 30
0.0
 11
-99.500000000000128
 21
-7.7000000000000002
 31
0.0
  0
LINE
  5
10F
  8
1
 62
     7
 10
-99.500000000000128
 20
-7.7000000000000002
 30
0.0
 11
-101.5000000000001
 21
-7.7000000000000002
 31
0.0
  0
LINE
  5
110
  8
1
 62
     7
 10
-99.500000000000128
 20
6.5
 30
0.0
 11
-92.000000000000128
 21
6.4999999999999991
 31
0.0
  0
LINE
  5
111
  8
1
 62
     7
 10
-92.000000000000128
 20
6.4999999999999991
 30
0.0
 11
-91.500000000000114
 21
5.6339745962155607
 31
0.0
  0
LINE
  5
112
  8
1
 62
     7
 10
-91.500000000000114
 20
5.6339745962155607
 30
0.0
 11
-91.500000000000114
 21
-5.6339745962155616
 31
0.0
  0
LINE
  5
113
  8
1
 62
     7
 10
-91.500000000000114
 20
-5.6339745962155616
 30
0.0
 11
-92.000000000000128
 21
-6.5
 31
0.0
  0
LINE
  5
114
  8
1
 62
     7
 10
-92.000000000000128
 20
-6.5
 30
0.0
 11
-99.500000000000128
 21
-6.5
 31
0.0
  0
LINE
  5
115
  8
1
 62
     7
 10
-92.000000000000128
 20
6.4999999999999991
 30
0.0
 11
-92.000000000000128
 21
-6.5
 31
0.0
  0
LINE
  5
116
  8
1
 62
     7
 10
-204.0
 20
-37.206546709565771
 30
0.0
 11
-204.0
 21
-42.018159090392928
 31
0.0
  0
LINE
  5
117
  8
1
 62
     7
 10
-206.0
 20
-44.018159090392928
 30
0.0
 11
-277.49999999999989
 21
-44.018159090392928
 31
0.0
  0
LINE
  5
118
  8
1
 62
     7
 10
-211.0
 20
-49.499431836248547
 30
0.0
 11
-277.49999999999989
 21
-49.499431836248547
 31
0.0
  0
LINE
  5
119
  8
1
 62
     7
 10
-273.49999999999989
 20
-49.499431836248547
 30
0.0
 11
-273.49999999999989
 21
-57.084224849933463
 31
0.0
  0
LINE
  5
11A
  8
1
 62
     7
 10
-281.49999999999989
 20
-57.084224849933463
 30
0.0
 11
-273.49999999999989
 21
-57.084224849933463
 31
0.0
  0
LINE
  5
11B
  8
1
 62
     7
 10
-204.0
 20
-38.525096300180358
 30
0.0
 11
-269.49999999999989
 21
-38.525096300180358
 31
0.0
  0
LINE
  5
11C
  8
1
 62
     7
 10
-269.49999999999989
 20
-61.084224849933463
 30
0.0
 11
-211.0
 21
-61.084224849933463
 31
0.0
  0
LINE
  5
11D
  8
1
 62
     7
 10
-273.49999999999989
 20
-34.525096300180373
 30
0.0
 11
-273.49999999999989
 21
-19.969540431696981
 31
0.0
  0
LINE
  5
11E
  8
1
 62
     7
 10
-211.0
 20
-47.774713953717011
 30
0.0
 11
-211.0
 21
-102.0
 31
0.0
  0
LINE
  5
11F
  8
1
 62
     7
 10
-282.97439037457542
 20
-84.581463478632003
 30
0.0
 11
-318.01707308361631
 21
-105.2779191823312
 31
0.0
  0
LINE
  5
120
  8
1
 62
     7
 10
-281.49999999999989
 20
-102.0
 30
0.0
 11
-281.49999999999989
 21
92.861008896683586
 31
0.0
  0
LINE
  5
121
  8
1
 62
     7
 10
-281.49999999999989
 20
92.861008896683586
 30
0.0
 11
-284.5
 21
92.861008896683586
 31
0.0
  0
LINE
  5
122
  8
1
 62
     7
 10
-287.5
 20
95.8610088966836
 30
0.0
 11
-287.5
 21
112.0
 31
0.0
  0
LINE
  5
123
  8
1
 62
     7
 10
-197.0
 20
-105.0
 30
0.0
 11
-317.0
 21
-105.0
 31
0.0
  0
LINE
  5
124
  8
1
 62
     7
 10
-197.0
 20
-120.0
 30
0.0
 11
-319.0
 21
-120.0
 31
0.0
  0
LINE
  5
125
  8
1
 62
     7
 10
-319.0
 20
-120.0
 30
0.0
 11
-319.0
 21
-107.0
 31
0.0
  0
LINE
  5
126
  8
1
 62
     7
 10
-283.49999999999989
 20
80.710678118654727
 30
0.0
 11
-281.49999999999989
 21
80.710678118654727
 31
0.0
  0
LINE
  5
127
  8
1
 62
     7
 10
-283.49999999999989
 20
60.71067811865472
 30
0.0
 11
-283.49999999999989
 21
80.710678118654727
 31
0.0
  0
LINE
  5
128
  8
1
 62
     7
 10
-281.49999999999989
 20
60.710678118654712
 30
0.0
 11
-283.49999999999989
 21
60.71067811865472
 31
0.0
  0
LINE
  5
129
  8
1
 62
     7
 10
-282.28729789964018
 20
60.710678118654712
 30
0.0
 11
-318.5
 21
32.99309483670244
 31
0.0
  0
LINE
  5
12A
  8
1
 62
     7
 10
-318.5
 20
32.99309483670244
 30
0.0
 11
-281.49999999999989
 21
32.99309483670244
 31
0.0
  0
LINE
  5
12B
  8
1
 62
     7
 10
-318.5
 20
-32.99309483670244
 30
0.0
 11
-282.28729789964018
 21
-60.710678118654712
 31
0.0
  0
LINE
  5
12C
  8
1
 62
     7
 10
-281.49999999999989
 20
-80.710678118654727
 30
0.0
 11
-283.49999999999989
 21
-80.710678118654727
 31
0.0
  0
LINE
  5
12D
  8
1
 62
     7
 10
-283.49999999999989
 20
-80.710678118654727
 30
0.0
 11
-283.49999999999989
 21
-60.71067811865472
 31
0.0
  0
LINE
  5
12E
  8
1
 62
     7
 10
-283.49999999999989
 20
-60.71067811865472
 30
0.0
 11
-281.49999999999989
 21
-60.710678118654712
 31
0.0
  0
LINE
  5
12F
  8
1
 62
     7
 10
-281.49999999999989
 20
-32.99309483670244
 30
0.0
 11
-318.5
 21
-32.99309483670244
 31
0.0
  0
LINE
  5
130
  8
1
 62
     7
 10
-296.28067502989802
 20
-50.0
 30
0.0
 11
-316.5
 21
-50.0
 31
0.0
  0
LINE
  5
131
  8
1
 62
     7
 10
-296.28067502989802
 20
50.0
 30
0.0
 11
-316.5
 21
50.0
 31
0.0
  0
LINE
  5
132
  8
1
 62
     7
 10
-318.5
 20
-48.0
 30
0.0
 11
-318.5
 21
48.0
 31
0.0
  0
LINE
  5
133
  8
1
 62
     7
 10
-210.0
 20
-47.774713953717011
 30
0.0
 11
-198.0
 21
-47.774713953717011
 31
0.0
  0
LINE
  5
134
  8
1
 62
     7
 10
-197.0
 20
-120.0
 30
0.0
 11
-197.0
 21
-47.774713953717011
 31
0.0
  0
LINE
  5
135
  8
1
 62
     7
 10
-211.0
 20
-69.208727662485558
 30
0.0
 11
-277.49999999999989
 21
-69.208727662485558
 31
0.0
  0
LINE
  5
136
  8
1
 62
     7
 10
-235.49999999999989
 20
-19.969540431696981
 30
0.0
 11
-277.49999999999989
 21
-19.969540431696981
 31
0.0
  0
LINE
  5
137
  8
1
  6
DASHDOT
 62
     3
 10
-304.0
 20
-102.0
 30
0.0
 11
-304.0
 21
-123.0
 31
0.0
  0
LINE
  5
138
  8
1
  6
DASHED
 62
     3
 10
-298.49999999999989
 20
-107.0
 30
0.0
 11
-298.49999999999989
 21
-120.0
 31
0.0
  0
LINE
  5
139
  8
1
  6
DASHED
 62
     3
 10
-309.5
 20
-107.0
 30
0.0
 11
-309.5
 21
-120.0
 31
0.0
  0
LINE
  5
13A
  8
1
  6
DASHED
 62
     3
 10
-315.24999999999989
 20
-107.0
 30
0.0
 11
-315.24999999999989
 21
-105.0
 31
0.0
  0
LINE
  5
13B
  8
1
  6
DASHED
 62
     3
 10
-292.75
 20
-107.0
 30
0.0
 11
-315.24999999999989
 21
-107.0
 31
0.0
  0
LINE
  5
13C
  8
1
  6
DASHED
 62
     3
 10
-292.75
 20
-105.0
 30
0.0
 11
-292.75
 21
-107.0
 31
0.0
  0
LINE
  5
13D
  8
1
 62
     7
 10
-283.49999999999989
 20
2.0
 30
0.0
 11
-281.49999999999989
 21
0.0
 31
0.0
  0
LINE
  5
13E
  8
1
 62
     7
 10
-283.49999999999989
 20
0.0
 30
0.0
 11
-281.49999999999989
 21
-2.0
 31
0.0
  0
LINE
  5
13F
  8
1
 62
     7
 10
-283.49999999999989
 20
7.7000000000000002
 30
0.0
 11
-281.49999999999989
 21
7.7000000000000002
 31
0.0
  0
LINE
  5
140
  8
1
 62
     7
 10
-283.49999999999989
 20
-7.7000000000000002
 30
0.0
 11
-283.49999999999989
 21
7.7000000000000002
 31
0.0
  0
LINE
  5
141
  8
1
 62
     7
 10
-281.49999999999989
 20
-7.7000000000000002
 30
0.0
 11
-283.49999999999989
 21
-7.7000000000000002
 31
0.0
  0
LINE
  5
142
  8
1
 62
     7
 10
-291.0
 20
6.4999999999999991
 30
0.0
 11
-283.49999999999989
 21
6.5
 31
0.0
  0
LINE
  5
143
  8
1
 62
     7
 10
-291.5
 20
5.6339745962155607
 30
0.0
 11
-291.0
 21
6.4999999999999991
 31
0.0
  0
LINE
  5
144
  8
1
 62
     7
 10
-291.5
 20
-5.6339745962155616
 30
0.0
 11
-291.5
 21
5.6339745962155607
 31
0.0
  0
LINE
  5
145
  8
1
 62
     7
 10
-291.0
 20
-6.5
 30
0.0
 11
-291.5
 21
-5.6339745962155616
 31
0.0
  0
LINE
  5
146
  8
1
 62
     7
 10
-283.49999999999989
 20
-6.5
 30
0.0
 11
-291.0
 21
-6.5
 31
0.0
  0
LINE
  5
147
  8
1
 62
     7
 10
-291.0
 20
-6.5
 30
0.0
 11
-291.0
 21
6.4999999999999991
 31
0.0
  0
LINE
  5
148
  8
1
 62
     7
 10
-191.1925
 20
-30.156546709565699
 30
0.0
 11
-191.8075
 21
-30.156546709565699
 31
0.0
  0
LINE
  5
149
  8
1
 62
     7
 10
-193.5500000000003
 20
-31.89904670956577
 30
0.0
 11
-193.5500000000003
 21
-32.514046709565783
 31
0.0
  0
LINE
  5
14A
  8
1
 62
     7
 10
-191.8075
 20
-34.256546709565733
 30
0.0
 11
-191.1925
 21
-34.256546709565733
 31
0.0
  0
LINE
  5
14B
  8
1
 62
     7
 10
-189.44999999999999
 20
-32.514046709565783
 30
0.0
 11
-189.44999999999999
 21
-31.89904670956577
 31
0.0
  0
LINE
  5
14C
  8
1
 62
     7
 10
-200.19999999999979
 20
-32.206546709565771
 30
0.0
 11
-227.0
 21
-32.206546709565771
 31
0.0
  0
LINE
  5
14D
  8
1
 62
     7
 10
-235.5
 20
-32.206546709565771
 30
0.0
 11
-235.5
 21
28.793453290434229
 31
0.0
  0
LINE
  5
14E
  8
1
 62
     7
 10
-152.5000000000002
 20
-37.206546709565771
 30
0.0
 11
-230.50000000000011
 21
-37.206546709565771
 31
0.0
  0
LINE
  5
14F
  8
1
 62
     7
 10
-147.5000000000002
 20
28.793453290434229
 30
0.0
 11
-147.5000000000002
 21
-32.206546709565771
 31
0.0
  0
LINE
  5
150
  8
1
 62
     7
 10
-230.50000000000011
 20
33.793453290434222
 30
0.0
 11
-152.5000000000002
 21
33.793453290434222
 31
0.0
  0
LINE
  5
151
  8
1
 62
     7
 10
-232.0
 20
-27.206546709565771
 30
0.0
 11
-232.0
 21
24.293453290434229
 31
0.0
  0
LINE
  5
152
  8
1
 62
     7
 10
-156.0000000000002
 20
-32.206546709565771
 30
0.0
 11
-182.80000000000001
 21
-32.206546709565771
 31
0.0
  0
LINE
  5
153
  8
1
 62
     7
 10
-151.0000000000002
 20
24.293453290434229
 30
0.0
 11
-151.0000000000002
 21
-27.206546709565771
 31
0.0
  0
LINE
  5
154
  8
1
 62
     7
 10
-227.0
 20
29.293453290434229
 30
0.0
 11
-156.0000000000002
 21
29.293453290434229
 31
0.0
  0
LINE
  5
155
  8
1
 62
     7
 10
-293.99999999999989
 20
-65.710678118654741
 30
0.0
 11
-298.49999999999989
 21
-65.710678118654727
 31
0.0
  0
LINE
  5
156
  8
1
 62
     7
 10
-298.49999999999989
 20
-65.710678118654727
 30
0.0
 11
-299.5
 21
-66.710678118654727
 31
0.0
  0
LINE
  5
157
  8
1
 62
     7
 10
-299.5
 20
-66.710678118654727
 30
0.0
 11
-299.5
 21
-74.710678118654741
 31
0.0
  0
LINE
  5
158
  8
1
 62
     7
 10
-299.5
 20
-74.710678118654741
 30
0.0
 11
-298.49999999999989
 21
-75.710678118654741
 31
0.0
  0
LINE
  5
159
  8
1
 62
     7
 10
-298.49999999999989
 20
-75.710678118654741
 30
0.0
 11
-293.99999999999989
 21
-75.710678118654741
 31
0.0
  0
LINE
  5
15A
  8
1
 62
     7
 10
-298.49999999999989
 20
-65.710678118654727
 30
0.0
 11
-298.49999999999989
 21
-75.710678118654741
 31
0.0
  0
LINE
  5
15B
  8
1
 62
     3
 10
-299.5
 20
-66.710678118654727
 30
0.0
 11
-294.0
 21
-66.710678118654684
 31
0.0
  0
LINE
  5
15C
  8
1
 62
     3
 10
-299.5
 20
-74.710678118654741
 30
0.0
 11
-294.0
 21
-74.710678118654684
 31
0.0
  0
LINE
  5
15D
  8
1
 62
     7
 10
-293.10510708275592
 20
80.510678118654724
 30
0.0
 11
-286.0
 21
80.510678118654724
 31
0.0
  0
LINE
  5
15E
  8
1
 62
     7
 10
-293.10510708275592
 20
75.610678118654732
 30
0.0
 11
-286.0
 21
75.610678118654732
 31
0.0
  0
LINE
  5
15F
  8
1
 62
     7
 10
-293.10510708275592
 20
65.810678118654721
 30
0.0
 11
-286.0
 21
65.810678118654721
 31
0.0
  0
LINE
  5
160
  8
1
 62
     7
 10
-294.0
 20
63.360678118654718
 30
0.0
 11
-294.0
 21
78.060678118654721
 31
0.0
  0
LINE
  5
161
  8
1
 62
     7
 10
-286.0
 20
79.910678118654744
 30
0.0
 11
-283.49999999999989
 21
79.910678118654744
 31
0.0
  0
LINE
  5
162
  8
1
 62
     7
 10
-283.49999999999989
 20
61.510678118654717
 30
0.0
 11
-286.0
 21
61.510678118654717
 31
0.0
  0
LINE
  5
163
  8
1
 62
     7
 10
-283.49999999999989
 20
73.210678118654741
 30
0.0
 11
-286.0
 21
70.710678118654741
 31
0.0
  0
LINE
  5
164
  8
1
 62
     7
 10
-283.49999999999989
 20
70.710678118654741
 30
0.0
 11
-286.0
 21
68.210678118654727
 31
0.0
  0
LINE
  5
165
  8
1
 62
     7
 10
-293.99999999999989
 20
75.710678118654698
 30
0.0
 11
-298.49999999999989
 21
75.710678118654741
 31
0.0
  0
LINE
  5
166
  8
1
 62
     7
 10
-298.49999999999989
 20
75.710678118654741
 30
0.0
 11
-299.5
 21
74.710678118654741
 31
0.0
  0
LINE
  5
167
  8
1
 62
     7
 10
-299.5
 20
74.710678118654741
 30
0.0
 11
-299.5
 21
66.710678118654727
 31
0.0
  0
LINE
  5
168
  8
1
 62
     7
 10
-299.5
 20
66.710678118654727
 30
0.0
 11
-298.49999999999989
 21
65.710678118654727
 31
0.0
  0
LINE
  5
169
  8
1
 62
     7
 10
-298.49999999999989
 20
65.710678118654727
 30
0.0
 11
-293.99999999999989
 21
65.710678118654712
 31
0.0
  0
LINE
  5
16A
  8
1
 62
     7
 10
-298.49999999999989
 20
75.710678118654741
 30
0.0
 11
-298.49999999999989
 21
65.710678118654727
 31
0.0
  0
LINE
  5
16B
  8
1
 62
     3
 10
-299.5
 20
74.710678118654741
 30
0.0
 11
-294.0
 21
74.710678118654769
 31
0.0
  0
LINE
  5
16C
  8
1
 62
     3
 10
-299.5
 20
66.710678118654727
 30
0.0
 11
-294.0
 21
66.710678118654755
 31
0.0
  0
LINE
  5
16D
  8
1
 62
     7
 10
-293.10510708275592
 20
60.910678118654729
 30
0.0
 11
-286.0
 21
60.910678118654729
 31
0.0
  0
LINE
  5
16E
  8
1
 62
     7
 10
-286.0
 20
60.910678118654729
 30
0.0
 11
-286.0
 21
80.510678118654724
 31
0.0
  0
LINE
  5
16F
  8
1
 62
     7
 10
-59.0
 20
15.0
 30
0.0
 11
-6.0
 21
15.0
 31
0.0
  0
LINE
  5
170
  8
1
 62
     7
 10
-5.0
 20
-14.0
 30
0.0
 11
-5.0
 21
18.0
 31
0.0
  0
LINE
  5
171
  8
1
 62
     7
 10
-6.0
 20
-15.0
 30
0.0
 11
-59.0
 21
-15.0
 31
0.0
  0
LINE
  5
172
  8
1
 62
     7
 10
-59.0
 20
17.5
 30
0.0
 11
-59.0
 21
-17.5
 31
0.0
  0
LINE
  5
173
  8
1
 62
     7
 10
-59.0
 20
-17.5
 30
0.0
 11
-62.899999999999991
 21
-17.5
 31
0.0
  0
LINE
  5
174
  8
1
 62
     7
 10
-62.899999999999991
 20
20.5
 30
0.0
 11
-64.500000000000085
 21
20.5
 31
0.0
  0
LINE
  5
175
  8
1
 62
     7
 10
-64.500000000000085
 20
-21.54642819948225
 30
0.0
 11
-62.899999999999991
 21
-21.54642819948225
 31
0.0
  0
LINE
  5
176
  8
1
 62
     7
 10
-62.899999999999991
 20
-21.54642819948225
 30
0.0
 11
-62.899999999999991
 21
20.5
 31
0.0
  0
LINE
  5
177
  8
1
 62
     7
 10
-62.899999999999991
 20
17.5
 30
0.0
 11
-59.0
 21
17.5
 31
0.0
  0
LINE
  5
178
  8
1
 62
     7
 10
-5.0
 20
14.0
 30
0.0
 11
-6.0
 21
15.0
 31
0.0
  0
LINE
  5
179
  8
1
 62
     7
 10
-6.0
 20
-15.0
 30
0.0
 11
-5.0
 21
-14.0
 31
0.0
  0
LINE
  5
17A
  8
1
 62
     7
 10
-6.0
 20
15.0
 30
0.0
 11
-6.0
 21
-15.0
 31
0.0
  0
LINE
  5
17B
  8
1
 62
     7
 10
-54.0
 20
18.0
 30
0.0
 11
-5.0
 21
18.0
 31
0.0
  0
LINE
  5
17C
  8
1
 62
     7
 10
-54.0
 20
15.0
 30
0.0
 11
-54.0
 21
18.0
 31
0.0
  0
LINE
  5
17D
  8
1
 62
     7
 10
-377.0
 20
15.0
 30
0.0
 11
-324.0
 21
15.0
 31
0.0
  0
LINE
  5
17E
  8
1
 62
     7
 10
-378.0
 20
18.0
 30
0.0
 11
-378.0
 21
-14.0
 31
0.0
  0
LINE
  5
17F
  8
1
 62
     7
 10
-324.0
 20
-15.0
 30
0.0
 11
-377.0
 21
-15.0
 31
0.0
  0
LINE
  5
180
  8
1
 62
     7
 10
-324.0
 20
-17.5
 30
0.0
 11
-324.0
 21
17.5
 31
0.0
  0
LINE
  5
181
  8
1
 62
     7
 10
-320.09999999999991
 20
-17.5
 30
0.0
 11
-324.0
 21
-17.5
 31
0.0
  0
LINE
  5
182
  8
1
 62
     7
 10
-318.5
 20
20.5
 30
0.0
 11
-320.09999999999991
 21
20.5
 31
0.0
  0
LINE
  5
183
  8
1
 62
     7
 10
-320.09999999999991
 20
-21.54642819948225
 30
0.0
 11
-318.5
 21
-21.54642819948225
 31
0.0
  0
LINE
  5
184
  8
1
 62
     7
 10
-320.09999999999991
 20
20.5
 30
0.0
 11
-320.09999999999991
 21
-21.54642819948225
 31
0.0
  0
LINE
  5
185
  8
1
 62
     7
 10
-324.0
 20
17.5
 30
0.0
 11
-320.09999999999991
 21
17.5
 31
0.0
  0
LINE
  5
186
  8
1
 62
     7
 10
-377.0
 20
15.0
 30
0.0
 11
-378.0
 21
14.0
 31
0.0
  0
LINE
  5
187
  8
1
 62
     7
 10
-378.0
 20
-14.0
 30
0.0
 11
-377.0
 21
-15.0
 31
0.0
  0
LINE
  5
188
  8
1
 62
     7
 10
-377.0
 20
-15.0
 30
0.0
 11
-377.0
 21
15.0
 31
0.0
  0
LINE
  5
189
  8
1
 62
     7
 10
-378.0
 20
18.0
 30
0.0
 11
-329.0
 21
18.0
 31
0.0
  0
LINE
  5
18A
  8
1
 62
     7
 10
-329.0
 20
18.0
 30
0.0
 11
-329.0
 21
15.0
 31
0.0
  0
LINE
  5
18B
  8
1
 62
     7
 10
-63.999999999999893
 20
225.15988538309099
 30
0.0
 11
-63.999999999999893
 21
264.15988538309102
 31
0.0
  0
LINE
  5
18C
  8
1
 62
     7
 10
-63.999999999999893
 20
400.15988538309091
 30
0.0
 11
-63.999999999999893
 21
439.15988538309102
 31
0.0
  0
LINE
  5
18D
  8
1
 62
     7
 10
-93.394892917243808
 20
393.07056350174571
 30
0.0
 11
-99.499999999999886
 21
393.07056350174571
 31
0.0
  0
LINE
  5
18E
  8
1
 62
     7
 10
-93.394892917243808
 20
397.97056350174557
 30
0.0
 11
-99.499999999999886
 21
397.97056350174557
 31
0.0
  0
LINE
  5
18F
  8
1
 62
     7
 10
-93.394892917243808
 20
407.77056350174581
 30
0.0
 11
-99.499999999999886
 21
407.77056350174581
 31
0.0
  0
LINE
  5
190
  8
1
 62
     7
 10
-93.394892917243808
 20
412.67056350174562
 30
0.0
 11
-99.499999999999886
 21
412.67056350174562
 31
0.0
  0
LINE
  5
191
  8
1
 62
     7
 10
-92.499999999999872
 20
410.22056350174557
 30
0.0
 11
-92.499999999999872
 21
395.52056350174581
 31
0.0
  0
LINE
  5
192
  8
1
 62
     7
 10
-99.499999999999886
 20
271.44920726443632
 30
0.0
 11
-99.499999999999886
 21
251.4492072644363
 31
0.0
  0
LINE
  5
193
  8
1
 62
     7
 10
-93.394892917243808
 20
251.6492072644362
 30
0.0
 11
-99.499999999999886
 21
251.6492072644362
 31
0.0
  0
LINE
  5
194
  8
1
 62
     7
 10
-93.394892917243808
 20
256.54920726443612
 30
0.0
 11
-99.499999999999886
 21
256.54920726443612
 31
0.0
  0
LINE
  5
195
  8
1
 62
     7
 10
-93.394892917243808
 20
266.34920726443607
 30
0.0
 11
-99.499999999999886
 21
266.34920726443607
 31
0.0
  0
LINE
  5
196
  8
1
 62
     7
 10
-93.394892917243808
 20
271.24920726443611
 30
0.0
 11
-99.499999999999886
 21
271.24920726443611
 31
0.0
  0
LINE
  5
197
  8
1
 62
     7
 10
-92.499999999999872
 20
268.79920726443618
 30
0.0
 11
-92.499999999999872
 21
254.0992072644361
 31
0.0
  0
LINE
  5
198
  8
1
 62
     7
 10
-101.4999999999999
 20
412.87056350174561
 30
0.0
 11
-99.499999999999886
 21
412.87056350174561
 31
0.0
  0
LINE
  5
199
  8
1
 62
     7
 10
-99.499999999999886
 20
412.87056350174561
 30
0.0
 11
-99.499999999999886
 21
392.87056350174561
 31
0.0
  0
LINE
  5
19A
  8
1
 62
     7
 10
-99.499999999999886
 20
392.87056350174561
 30
0.0
 11
-101.4999999999999
 21
392.87056350174561
 31
0.0
  0
LINE
  5
19B
  8
1
 62
     7
 10
-64.499999999999901
 20
365.15298021979328
 30
0.0
 11
-100.71270210035981
 21
392.87056350174561
 31
0.0
  0
LINE
  5
19C
  8
1
 62
     7
 10
-100.71270210035981
 20
271.44920726443632
 30
0.0
 11
-64.499999999999901
 21
299.16679054638843
 31
0.0
  0
LINE
  5
19D
  8
1
 62
     7
 10
-99.499999999999886
 20
251.4492072644363
 30
0.0
 11
-101.4999999999999
 21
251.4492072644363
 31
0.0
  0
LINE
  5
19E
  8
1
 62
     7
 10
-101.4999999999999
 20
271.44920726443632
 30
0.0
 11
-99.499999999999886
 21
271.44920726443632
 31
0.0
  0
LINE
  5
19F
  8
1
 62
     7
 10
-64.499999999999901
 20
299.16679054638843
 30
0.0
 11
-95.499999999999886
 21
299.16679054638843
 31
0.0
  0
LINE
  5
1A0
  8
1
 62
     7
 10
-66.499999999999901
 20
282.1598853830908
 30
0.0
 11
-86.719324970101979
 21
282.1598853830908
 31
0.0
  0
LINE
  5
1A1
  8
1
 62
     7
 10
-66.499999999999901
 20
382.15988538309091
 30
0.0
 11
-86.719324970101979
 21
382.15988538309091
 31
0.0
  0
LINE
  5
1A2
  8
1
 62
     7
 10
-64.499999999999901
 20
380.15988538309091
 30
0.0
 11
-64.499999999999901
 21
284.1598853830908
 31
0.0
  0
LINE
  5
1A3
  8
1
 62
     7
 10
-91.999999999999858
 20
338.65988538309102
 30
0.0
 11
-91.499999999999872
 21
337.79385997930638
 31
0.0
  0
LINE
  5
1A4
  8
1
 62
     7
 10
-91.499999999999872
 20
337.79385997930638
 30
0.0
 11
-91.499999999999872
 21
326.52591078687527
 31
0.0
  0
LINE
  5
1A5
  8
1
 62
     7
 10
-91.499999999999872
 20
326.52591078687527
 30
0.0
 11
-91.999999999999858
 21
325.65988538309102
 31
0.0
  0
LINE
  5
1A6
  8
1
 62
     7
 10
-91.999999999999858
 20
325.65988538309102
 30
0.0
 11
-95.499999999999886
 21
325.65988538309102
 31
0.0
  0
LINE
  5
1A7
  8
1
 62
     7
 10
-91.999999999999858
 20
338.65988538309102
 30
0.0
 11
-91.999999999999858
 21
325.65988538309102
 31
0.0
  0
LINE
  5
1A8
  8
1
 62
     7
 10
-58.999999999999773
 20
347.15988538309091
 30
0.0
 11
-5.9999999999997717
 21
347.15988538309091
 31
0.0
  0
LINE
  5
1A9
  8
1
 62
     7
 10
-4.9999999999997726
 20
318.1598853830908
 30
0.0
 11
-4.9999999999997726
 21
346.15988538309091
 31
0.0
  0
LINE
  5
1AA
  8
1
 62
     7
 10
-5.9999999999997717
 20
317.1598853830908
 30
0.0
 11
-58.999999999999773
 21
317.1598853830908
 31
0.0
  0
LINE
  5
1AB
  8
1
 62
     7
 10
-58.999999999999773
 20
349.65988538309091
 30
0.0
 11
-58.999999999999773
 21
314.6598853830908
 31
0.0
  0
LINE
  5
1AC
  8
1
 62
     7
 10
-58.999999999999773
 20
314.6598853830908
 30
0.0
 11
-62.89999999999992
 21
314.6598853830908
 31
0.0
  0
LINE
  5
1AD
  8
1
 62
     7
 10
-62.89999999999992
 20
352.65988538309091
 30
0.0
 11
-64.499999999999901
 21
352.65988538309091
 31
0.0
  0
LINE
  5
1AE
  8
1
 62
     7
 10
-64.499999999999901
 20
310.61345718360872
 30
0.0
 11
-62.89999999999992
 21
310.61345718360872
 31
0.0
  0
LINE
  5
1AF
  8
1
 62
     7
 10
-62.89999999999992
 20
310.61345718360872
 30
0.0
 11
-62.89999999999992
 21
352.65988538309091
 31
0.0
  0
LINE
  5
1B0
  8
1
 62
     7
 10
-62.89999999999992
 20
349.65988538309091
 30
0.0
 11
-58.999999999999773
 21
349.65988538309091
 31
0.0
  0
LINE
  5
1B1
  8
1
  6
DASHDOT
 62
     3
 10
0.0
 20
332.15988538309102
 30
0.0
 11
-5.0
 21
332.15988538309102
 31
0.0
  0
LINE
  5
1B2
  8
1
 62
     7
 10
-4.9999999999997726
 20
346.15988538309091
 30
0.0
 11
-5.9999999999997717
 21
347.15988538309091
 31
0.0
  0
LINE
  5
1B3
  8
1
 62
     7
 10
-5.9999999999997717
 20
317.1598853830908
 30
0.0
 11
-4.9999999999997726
 21
318.1598853830908
 31
0.0
  0
LINE
  5
1B4
  8
1
 62
     7
 10
-5.9999999999997717
 20
347.15988538309091
 30
0.0
 11
-5.9999999999997717
 21
335.65988538309102
 31
0.0
  0
LINE
  5
1B5
  8
1
 62
     7
 10
-101.4999999999999
 20
389.65988538309091
 30
0.0
 11
-98.499999999999872
 21
389.65988538309091
 31
0.0
  0
LINE
  5
1B6
  8
1
 62
     7
 10
-95.499999999999886
 20
386.65988538309091
 30
0.0
 11
-95.499999999999886
 21
277.65988538309102
 31
0.0
  0
LINE
  5
1B7
  8
1
 62
     7
 10
-98.499999999999872
 20
274.65988538309102
 30
0.0
 11
-101.4999999999999
 21
274.65988538309102
 31
0.0
  0
LINE
  5
1B8
  8
1
 62
     7
 10
-95.499999999999886
 20
365.15298021979328
 30
0.0
 11
-64.499999999999901
 21
365.15298021979328
 31
0.0
  0
LINE
  5
1B9
  8
1
 62
     7
 10
-95.499999999999886
 20
338.65988538309102
 30
0.0
 11
-91.999999999999858
 21
338.65988538309102
 31
0.0
  0
LINE
  5
1BA
  8
1
 62
     7
 10
-99.784209354859712
 20
392.15988538309091
 30
0.0
 11
-71.999999999999901
 21
392.15988538309091
 31
0.0
  0
LINE
  5
1BB
  8
1
 62
     7
 10
-99.784209354859712
 20
272.15988538309102
 30
0.0
 11
-71.999999999999901
 21
272.15988538309102
 31
0.0
  0
LINE
  5
1BC
  8
1
 62
     7
 10
-101.4999999999999
 20
389.65988538309091
 30
0.0
 11
-101.4999999999999
 21
444.15988538309091
 31
0.0
  0
LINE
  5
1BD
  8
1
 62
     7
 10
-101.4999999999999
 20
274.65988538309102
 30
0.0
 11
-101.4999999999999
 21
220.15988538309099
 31
0.0
  0
LINE
  5
1BE
  8
1
 62
     7
 10
-50.499999999999773
 20
335.65988538309102
 30
0.0
 11
-4.9999999999997726
 21
335.65988538309102
 31
0.0
  0
LINE
  5
1BF
  8
1
 62
     7
 10
-50.499999999999773
 20
328.65988538309102
 30
0.0
 11
-4.9999999999997726
 21
328.65988538309102
 31
0.0
  0
LINE
  5
1C0
  8
1
 62
     7
 10
-5.9999999999997717
 20
328.65988538309102
 30
0.0
 11
-5.9999999999997717
 21
317.1598853830908
 31
0.0
  0
LINE
  5
1C1
  8
1
  6
DASHDOT
 62
     3
 10
-78.999999999999901
 20
246.15988538309099
 30
0.0
 11
-78.999999999999901
 21
218.15988538309099
 31
0.0
  0
LINE
  5
1C2
  8
1
  6
DASHDOT
 62
     3
 10
-92.999999999999886
 20
232.15988538309099
 30
0.0
 11
-64.999999999999901
 21
232.15988538309099
 31
0.0
  0
LINE
  5
1C3
  8
1
  6
DASHDOT
 62
     3
 10
-78.999999999999901
 20
446.15988538309091
 30
0.0
 11
-78.999999999999901
 21
418.15988538309102
 31
0.0
  0
LINE
  5
1C4
  8
1
  6
DASHDOT
 62
     3
 10
-92.999999999999886
 20
432.15988538309091
 30
0.0
 11
-64.999999999999901
 21
432.15988538309091
 31
0.0
  0
LINE
  5
1C5
  8
1
 62
     7
 10
-318.99999999999989
 20
264.15988538309102
 30
0.0
 11
-318.99999999999989
 21
225.15988538309099
 31
0.0
  0
LINE
  5
1C6
  8
1
 62
     7
 10
-318.99999999999989
 20
439.15988538309102
 30
0.0
 11
-318.99999999999989
 21
400.15988538309091
 31
0.0
  0
LINE
  5
1C7
  8
1
 62
     7
 10
-283.49999999999989
 20
251.4492072644363
 30
0.0
 11
-283.49999999999989
 21
271.44920726443632
 31
0.0
  0
LINE
  5
1C8
  8
1
 62
     7
 10
-283.49999999999989
 20
412.87056350174561
 30
0.0
 11
-281.49999999999989
 21
412.87056350174561
 31
0.0
  0
LINE
  5
1C9
  8
1
 62
     7
 10
-283.49999999999989
 20
392.87056350174561
 30
0.0
 11
-283.49999999999989
 21
412.87056350174561
 31
0.0
  0
LINE
  5
1CA
  8
1
 62
     7
 10
-281.49999999999989
 20
392.87056350174561
 30
0.0
 11
-283.49999999999989
 21
392.87056350174561
 31
0.0
  0
LINE
  5
1CB
  8
1
 62
     7
 10
-282.28729789964001
 20
392.87056350174561
 30
0.0
 11
-318.49999999999977
 21
365.15298021979328
 31
0.0
  0
LINE
  5
1CC
  8
1
 62
     7
 10
-318.49999999999977
 20
299.16679054638843
 30
0.0
 11
-282.28729789964001
 21
271.44920726443632
 31
0.0
  0
LINE
  5
1CD
  8
1
 62
     7
 10
-281.49999999999989
 20
251.4492072644363
 30
0.0
 11
-283.49999999999989
 21
251.4492072644363
 31
0.0
  0
LINE
  5
1CE
  8
1
 62
     7
 10
-283.49999999999989
 20
271.44920726443632
 30
0.0
 11
-281.49999999999989
 21
271.44920726443632
 31
0.0
  0
LINE
  5
1CF
  8
1
 62
     7
 10
-287.49999999999989
 20
299.16679054638843
 30
0.0
 11
-318.49999999999977
 21
299.16679054638843
 31
0.0
  0
LINE
  5
1D0
  8
1
 62
     7
 10
-296.28067502989779
 20
282.15988538309102
 30
0.0
 11
-316.49999999999989
 21
282.15988538309102
 31
0.0
  0
LINE
  5
1D1
  8
1
 62
     7
 10
-296.28067502989779
 20
382.15988538309091
 30
0.0
 11
-316.49999999999989
 21
382.15988538309091
 31
0.0
  0
LINE
  5
1D2
  8
1
 62
     7
 10
-318.49999999999977
 20
284.15988538309102
 30
0.0
 11
-318.49999999999977
 21
380.15988538309091
 31
0.0
  0
LINE
  5
1D3
  8
1
 62
     7
 10
-291.49999999999977
 20
337.79385997930638
 30
0.0
 11
-290.99999999999977
 21
338.65988538309102
 31
0.0
  0
LINE
  5
1D4
  8
1
 62
     7
 10
-291.49999999999977
 20
326.52591078687527
 30
0.0
 11
-291.49999999999977
 21
337.79385997930638
 31
0.0
  0
LINE
  5
1D5
  8
1
 62
     7
 10
-290.99999999999977
 20
325.65988538309102
 30
0.0
 11
-291.49999999999977
 21
326.52591078687527
 31
0.0
  0
LINE
  5
1D6
  8
1
 62
     7
 10
-287.49999999999989
 20
325.65988538309102
 30
0.0
 11
-290.99999999999977
 21
325.65988538309102
 31
0.0
  0
LINE
  5
1D7
  8
1
 62
     7
 10
-290.99999999999977
 20
325.65988538309102
 30
0.0
 11
-290.99999999999977
 21
338.65988538309102
 31
0.0
  0
LINE
  5
1D8
  8
1
 62
     7
 10
-377.0
 20
347.15988538309091
 30
0.0
 11
-324.0
 21
347.15988538309091
 31
0.0
  0
LINE
  5
1D9
  8
1
 62
     7
 10
-378.0
 20
346.15988538309091
 30
0.0
 11
-378.0
 21
318.15988538309102
 31
0.0
  0
LINE
  5
1DA
  8
1
 62
     7
 10
-324.0
 20
317.15988538309102
 30
0.0
 11
-377.0
 21
317.15988538309102
 31
0.0
  0
LINE
  5
1DB
  8
1
 62
     7
 10
-324.0
 20
314.65988538309102
 30
0.0
 11
-324.0
 21
349.65988538309091
 31
0.0
  0
LINE
  5
1DC
  8
1
 62
     7
 10
-320.09999999999991
 20
314.65988538309102
 30
0.0
 11
-324.0
 21
314.65988538309102
 31
0.0
  0
LINE
  5
1DD
  8
1
 62
     7
 10
-318.49999999999977
 20
352.65988538309091
 30
0.0
 11
-320.09999999999991
 21
352.65988538309091
 31
0.0
  0
LINE
  5
1DE
  8
1
 62
     7
 10
-320.09999999999991
 20
310.61345718360877
 30
0.0
 11
-318.49999999999977
 21
310.61345718360877
 31
0.0
  0
LINE
  5
1DF
  8
1
 62
     7
 10
-320.09999999999991
 20
352.65988538309091
 30
0.0
 11
-320.09999999999991
 21
310.61345718360877
 31
0.0
  0
LINE
  5
1E0
  8
1
 62
     7
 10
-324.0
 20
349.65988538309091
 30
0.0
 11
-320.09999999999991
 21
349.65988538309091
 31
0.0
  0
LINE
  5
1E1
  8
1
  6
DASHDOT
 62
     3
 10
-378.0
 20
332.15988538309102
 30
0.0
 11
-383.0
 21
332.15988538309102
 31
0.0
  0
LINE
  5
1E2
  8
1
 62
     7
 10
-377.0
 20
347.15988538309091
 30
0.0
 11
-378.0
 21
346.15988538309091
 31
0.0
  0
LINE
  5
1E3
  8
1
 62
     7
 10
-378.0
 20
318.15988538309102
 30
0.0
 11
-377.0
 21
317.15988538309102
 31
0.0
  0
LINE
  5
1E4
  8
1
 62
     7
 10
-377.0
 20
335.65988538309102
 30
0.0
 11
-377.0
 21
347.15988538309091
 31
0.0
  0
LINE
  5
1E5
  8
1
 62
     7
 10
-284.49999999999977
 20
389.65988538309091
 30
0.0
 11
-281.49999999999989
 21
389.65988538309091
 31
0.0
  0
LINE
  5
1E6
  8
1
 62
     7
 10
-287.49999999999989
 20
277.65988538309102
 30
0.0
 11
-287.49999999999989
 21
386.65988538309091
 31
0.0
  0
LINE
  5
1E7
  8
1
 62
     7
 10
-281.49999999999989
 20
274.65988538309102
 30
0.0
 11
-284.49999999999977
 21
274.65988538309102
 31
0.0
  0
LINE
  5
1E8
  8
1
 62
     7
 10
-318.49999999999977
 20
365.15298021979328
 30
0.0
 11
-287.49999999999989
 21
365.15298021979328
 31
0.0
  0
LINE
  5
1E9
  8
1
 62
     7
 10
-290.99999999999977
 20
338.65988538309102
 30
0.0
 11
-287.49999999999989
 21
338.65988538309102
 31
0.0
  0
LINE
  5
1EA
  8
1
 62
     7
 10
-310.99999999999977
 20
392.15988538309091
 30
0.0
 11
-283.21579064513992
 21
392.15988538309091
 31
0.0
  0
LINE
  5
1EB
  8
1
 62
     7
 10
-310.99999999999977
 20
272.15988538309102
 30
0.0
 11
-283.21579064513992
 21
272.15988538309102
 31
0.0
  0
LINE
  5
1EC
  8
1
 62
     7
 10
-281.49999999999989
 20
444.15988538309091
 30
0.0
 11
-281.49999999999989
 21
389.65988538309091
 31
0.0
  0
LINE
  5
1ED
  8
1
 62
     7
 10
-281.49999999999989
 20
220.15988538309099
 30
0.0
 11
-281.49999999999989
 21
274.65988538309102
 31
0.0
  0
LINE
  5
1EE
  8
1
 62
     7
 10
-71.999999999999901
 20
447.15988538309102
 30
0.0
 11
-310.99999999999977
 21
447.15988538309102
 31
0.0
  0
LINE
  5
1EF
  8
1
 62
     7
 10
-310.99999999999977
 20
217.15988538309099
 30
0.0
 11
-230.5
 21
217.15988538309099
 31
0.0
  0
LINE
  5
1F0
  8
1
 62
     7
 10
-378.0
 20
335.65988538309102
 30
0.0
 11
-332.5
 21
335.65988538309102
 31
0.0
  0
LINE
  5
1F1
  8
1
 62
     7
 10
-378.0
 20
328.65988538309102
 30
0.0
 11
-332.5
 21
328.65988538309102
 31
0.0
  0
LINE
  5
1F2
  8
1
 62
     7
 10
-377.0
 20
317.15988538309102
 30
0.0
 11
-377.0
 21
328.65988538309102
 31
0.0
  0
LINE
  5
1F3
  8
1
  6
DASHDOT
 62
     3
 10
-303.99999999999989
 20
218.15988538309099
 30
0.0
 11
-303.99999999999989
 21
246.15988538309099
 31
0.0
  0
LINE
  5
1F4
  8
1
  6
DASHDOT
 62
     3
 10
-317.99999999999977
 20
232.15988538309099
 30
0.0
 11
-289.99999999999977
 21
232.15988538309099
 31
0.0
  0
LINE
  5
1F5
  8
1
  6
DASHDOT
 62
     3
 10
-303.99999999999989
 20
418.15988538309102
 30
0.0
 11
-303.99999999999989
 21
446.15988538309091
 31
0.0
  0
LINE
  5
1F6
  8
1
  6
DASHDOT
 62
     3
 10
-317.99999999999977
 20
432.15988538309091
 30
0.0
 11
-289.99999999999977
 21
432.15988538309091
 31
0.0
  0
LINE
  5
1F7
  8
1
 62
     7
 10
-293.10510708275581
 20
271.24920726443622
 30
0.0
 11
-285.99999999999989
 21
271.24920726443622
 31
0.0
  0
LINE
  5
1F8
  8
1
 62
     7
 10
-293.10510708275581
 20
266.34920726443642
 30
0.0
 11
-285.99999999999989
 21
266.34920726443642
 31
0.0
  0
LINE
  5
1F9
  8
1
 62
     7
 10
-293.10510708275581
 20
256.54920726443618
 30
0.0
 11
-285.99999999999989
 21
256.54920726443618
 31
0.0
  0
LINE
  5
1FA
  8
1
 62
     7
 10
-293.99999999999989
 20
254.0992072644363
 30
0.0
 11
-293.99999999999989
 21
268.79920726443618
 31
0.0
  0
LINE
  5
1FB
  8
1
 62
     7
 10
-285.99999999999989
 20
270.64920726443631
 30
0.0
 11
-283.49999999999989
 21
270.64920726443631
 31
0.0
  0
LINE
  5
1FC
  8
1
 62
     7
 10
-283.49999999999989
 20
252.24920726443631
 30
0.0
 11
-285.99999999999989
 21
252.24920726443631
 31
0.0
  0
LINE
  5
1FD
  8
1
 62
     7
 10
-283.49999999999989
 20
263.94920726443632
 30
0.0
 11
-285.99999999999989
 21
261.44920726443632
 31
0.0
  0
LINE
  5
1FE
  8
1
 62
     7
 10
-283.49999999999989
 20
261.44920726443632
 30
0.0
 11
-285.99999999999989
 21
258.94920726443632
 31
0.0
  0
LINE
  5
1FF
  8
1
 62
     7
 10
-293.99999999999977
 20
266.44920726443632
 30
0.0
 11
-298.49999999999989
 21
266.44920726443632
 31
0.0
  0
LINE
  5
200
  8
1
 62
     7
 10
-298.49999999999989
 20
266.44920726443632
 30
0.0
 11
-299.49999999999977
 21
265.44920726443632
 31
0.0
  0
LINE
  5
201
  8
1
 62
     7
 10
-299.49999999999977
 20
265.44920726443632
 30
0.0
 11
-299.49999999999977
 21
257.44920726443632
 31
0.0
  0
LINE
  5
202
  8
1
 62
     7
 10
-299.49999999999977
 20
257.44920726443632
 30
0.0
 11
-298.49999999999989
 21
256.44920726443632
 31
0.0
  0
LINE
  5
203
  8
1
 62
     7
 10
-298.49999999999989
 20
256.44920726443632
 30
0.0
 11
-293.99999999999977
 21
256.44920726443632
 31
0.0
  0
LINE
  5
204
  8
1
 62
     7
 10
-298.49999999999989
 20
266.44920726443632
 30
0.0
 11
-298.49999999999989
 21
256.44920726443632
 31
0.0
  0
LINE
  5
205
  8
1
 62
     3
 10
-299.49999999999977
 20
265.44920726443632
 30
0.0
 11
-293.99999999999989
 21
265.44920726443632
 31
0.0
  0
LINE
  5
206
  8
1
 62
     3
 10
-299.49999999999977
 20
257.44920726443632
 30
0.0
 11
-293.99999999999989
 21
257.44920726443638
 31
0.0
  0
LINE
  5
207
  8
1
 62
     7
 10
-293.10510708275581
 20
251.64920726443631
 30
0.0
 11
-285.99999999999989
 21
251.64920726443631
 31
0.0
  0
LINE
  5
208
  8
1
 62
     7
 10
-285.99999999999989
 20
251.64920726443631
 30
0.0
 11
-285.99999999999989
 21
271.24920726443622
 31
0.0
  0
LINE
  5
209
  8
1
 62
     7
 10
-293.10510708275581
 20
412.67056350174562
 30
0.0
 11
-285.99999999999989
 21
412.67056350174562
 31
0.0
  0
LINE
  5
20A
  8
1
 62
     7
 10
-293.10510708275581
 20
407.77056350174581
 30
0.0
 11
-285.99999999999989
 21
407.77056350174581
 31
0.0
  0
LINE
  5
20B
  8
1
 62
     7
 10
-293.10510708275581
 20
397.97056350174557
 30
0.0
 11
-285.99999999999989
 21
397.97056350174557
 31
0.0
  0
LINE
  5
20C
  8
1
 62
     7
 10
-293.99999999999989
 20
395.52056350174581
 30
0.0
 11
-293.99999999999989
 21
410.22056350174557
 31
0.0
  0
LINE
  5
20D
  8
1
 62
     7
 10
-285.99999999999989
 20
412.07056350174571
 30
0.0
 11
-283.49999999999989
 21
412.07056350174571
 31
0.0
  0
LINE
  5
20E
  8
1
 62
     7
 10
-283.49999999999989
 20
393.67056350174562
 30
0.0
 11
-285.99999999999989
 21
393.67056350174562
 31
0.0
  0
LINE
  5
20F
  8
1
 62
     7
 10
-283.49999999999989
 20
405.37056350174561
 30
0.0
 11
-285.99999999999989
 21
402.87056350174561
 31
0.0
  0
LINE
  5
210
  8
1
 62
     7
 10
-283.49999999999989
 20
402.87056350174561
 30
0.0
 11
-285.99999999999989
 21
400.37056350174561
 31
0.0
  0
LINE
  5
211
  8
1
 62
     7
 10
-293.99999999999977
 20
407.87056350174561
 30
0.0
 11
-298.49999999999989
 21
407.87056350174561
 31
0.0
  0
LINE
  5
212
  8
1
 62
     7
 10
-298.49999999999989
 20
407.87056350174561
 30
0.0
 11
-299.49999999999977
 21
406.87056350174561
 31
0.0
  0
LINE
  5
213
  8
1
 62
     7
 10
-299.49999999999977
 20
406.87056350174561
 30
0.0
 11
-299.49999999999977
 21
398.87056350174561
 31
0.0
  0
LINE
  5
214
  8
1
 62
     7
 10
-299.49999999999977
 20
398.87056350174561
 30
0.0
 11
-298.49999999999989
 21
397.87056350174561
 31
0.0
  0
LINE
  5
215
  8
1
 62
     7
 10
-298.49999999999989
 20
397.87056350174561
 30
0.0
 11
-293.99999999999977
 21
397.87056350174561
 31
0.0
  0
LINE
  5
216
  8
1
 62
     7
 10
-298.49999999999989
 20
407.87056350174561
 30
0.0
 11
-298.49999999999989
 21
397.87056350174561
 31
0.0
  0
LINE
  5
217
  8
1
 62
     3
 10
-299.49999999999977
 20
406.87056350174561
 30
0.0
 11
-293.99999999999989
 21
406.87056350174561
 31
0.0
  0
LINE
  5
218
  8
1
 62
     3
 10
-299.49999999999977
 20
398.87056350174561
 30
0.0
 11
-293.99999999999989
 21
398.87056350174578
 31
0.0
  0
LINE
  5
219
  8
1
 62
     7
 10
-293.10510708275581
 20
393.07056350174571
 30
0.0
 11
-285.99999999999989
 21
393.07056350174571
 31
0.0
  0
LINE
  5
21A
  8
1
 62
     7
 10
-285.99999999999989
 20
393.07056350174571
 30
0.0
 11
-285.99999999999989
 21
412.67056350174562
 31
0.0
  0
LINE
  5
21B
  8
1
 62
     7
 10
-149.5
 20
185.29321602102479
 30
0.0
 11
-233.49999999999989
 21
185.29321602102479
 31
0.0
  0
LINE
  5
21C
  8
1
 62
     7
 10
-232.0
 20
210.83070094029111
 30
0.0
 11
-232.0
 21
187.29321602102451
 31
0.0
  0
LINE
  5
21D
  8
1
 62
     7
 10
-151.0
 20
210.83070094029131
 30
0.0
 11
-151.0
 21
187.29321602102479
 31
0.0
  0
LINE
  5
21E
  8
1
 62
     7
 10
-235.49999999999989
 20
215.80736430972561
 30
0.0
 11
-235.49999999999989
 21
187.29321602102479
 31
0.0
  0
LINE
  5
21F
  8
1
 62
     7
 10
-147.5
 20
215.80736430972581
 30
0.0
 11
-147.5
 21
187.29321602102479
 31
0.0
  0
LINE
  5
220
  8
1
 62
     7
 10
-147.5
 20
215.80736430972581
 30
0.0
 11
-235.49999999999989
 21
215.80736430972561
 31
0.0
  0
LINE
  5
221
  8
1
 62
     7
 10
-149.5
 20
210.83070094029131
 30
0.0
 11
-233.49999999999989
 21
210.83070094029111
 31
0.0
  0
LINE
  5
222
  8
1
 62
     7
 10
-230.5
 20
219.87024208286309
 30
0.0
 11
-230.5
 21
215.80736430972561
 31
0.0
  0
LINE
  5
223
  8
1
 62
     7
 10
-152.5
 20
219.87024208286331
 30
0.0
 11
-152.5
 21
215.80736430972581
 31
0.0
  0
LINE
  5
224
  8
1
 62
     7
 10
-154.49999999999989
 20
221.87024208286331
 30
0.0
 11
-228.5
 21
221.87024208286309
 31
0.0
  0
LINE
  5
225
  8
1
 62
     7
 10
-152.5
 20
217.15988538309099
 30
0.0
 11
-71.999999999999901
 21
217.15988538309099
 31
0.0
  0
ARC
  5
226
  8
1
 62
     7
 10
-66.000000000000099
 20
-107.0
 30
0.0
 40
2.0
 50
0.0
 51
90.0
  0
ARC
  5
227
  8
1
 62
     7
 10
-66.500000000000099
 20
-48.0
 30
0.0
 40
2.0
 50
270.0
 51
0.0
  0
ARC
  5
228
  8
1
 62
     7
 10
-66.500000000000099
 20
48.0
 30
0.0
 40
2.0
 50
0.0
 51
90.0
  0
ARC
  5
229
  8
1
 62
     7
 10
-98.500000000000128
 20
95.8610088966836
 30
0.0
 40
3.0
 50
270.0
 51
0.0
  0
ARC
  5
22A
  8
1
 62
     7
 10
-98.500000000000128
 20
112.0
 30
0.0
 40
3.0
 50
0.0
 51
90.0
  0
ARC
  5
22B
  8
1
 62
     7
 10
216.5008273706479
 20
87.964278422679541
 30
0.0
 40
0.999999999999321
 50
119.4327057854622
 51
209.99999999999801
  0
ARC
  5
22C
  8
1
 62
     7
 10
217.50087737940001
 20
86.232140997411264
 30
0.0
 40
0.9999999999999593
 50
210.00000000000139
 51
299.42124491033428
  0
ARC
  5
22D
  8
1
 62
     7
 10
255.1323266586738
 20
98.386991009990993
 30
0.0
 40
1.0000000000000011
 50
276.37937020844288
 51
0.0
  0
ARC
  5
22E
  8
1
 62
     7
 10
255.1323266586738
 20
100.39920318408829
 30
0.0
 40
1.0
 50
0.0
 51
96.252537029974761
  0
ARC
  5
22F
  8
1
 62
     7
 10
277.13232665867389
 20
100.399203184089
 30
0.0
 40
0.9999999999999435
 50
83.747462970016443
 51
180.0
  0
ARC
  5
230
  8
1
 62
     7
 10
277.13232665867389
 20
98.386991009990766
 30
0.0
 40
1.0
 50
180.0
 51
263.62062979156519
  0
ARC
  5
231
  8
1
 62
     7
 10
314.76377593794768
 20
86.232140997411193
 30
0.0
 40
0.9999999999999795
 50
240.57875508966239
 51
330.00000000000102
  0
ARC
  5
232
  8
1
 62
     7
 10
315.7638259466998
 20
87.964278422679499
 30
0.0
 40
1.000000000000032
 50
330.00000000000102
 51
60.567294214533597
  0
ARC
  5
233
  8
1
 62
     7
 10
214.25104898252229
 20
95.8610088966836
 30
0.0
 40
2.999999999999901
 50
210.00000000000099
 51
298.42285277926231
  0
ARC
  5
234
  8
1
 62
     7
 10
318.01360433482557
 20
95.8610088966836
 30
0.0
 40
2.9999999999999778
 50
241.5771472207374
 51
329.99999999999977
  0
ARC
  5
235
  8
1
 62
     7
 10
164.57105245556389
 20
-19.9388460609104
 30
0.0
 40
1.999999999999889
 50
11.107233736436051
 51
100.0000000000033
  0
ARC
  5
236
  8
1
 62
     7
 10
169.65708460183799
 20
-37.48036379325756
 30
0.0
 40
2.0000000000000391
 50
294.00000000000227
 51
21.231010199191061
  0
ARC
  5
237
  8
1
 62
     7
 10
173.7244510325956
 20
-46.615818369683772
 30
0.0
 40
1.9999999999999909
 50
26.768989800803531
 51
114.0000000000001
  0
ARC
  5
238
  8
1
 62
     7
 10
182.28535533363299
 20
-60.678953514524913
 30
0.0
 40
2.0000000000000511
 50
307.00000000000261
 51
35.892766263562358
  0
ARC
  5
239
  8
1
 62
     7
 10
234.3333515829041
 20
-98.494036287161578
 30
0.0
 40
2.0000000000000071
 50
72.107233736397049
 51
160.99999999999949
  0
ARC
  5
23A
  8
1
 62
     7
 10
255.12100221426621
 20
-102.912587830569
 30
0.0
 40
2.0000000000001039
 50
355.00000000000051
 51
83.892766263564894
  0
ARC
  5
23B
  8
1
 62
     7
 10
277.14365110308171
 20
-102.912587830569
 30
0.0
 40
2.0000000000000231
 50
96.107233736435091
 51
184.9999999999994
  0
ARC
  5
23C
  8
1
 62
     7
 10
297.93130173444382
 20
-98.494036287161606
 30
0.0
 40
1.999999999999958
 50
19.000000000000529
 51
107.89276626360601
  0
ARC
  5
23D
  8
1
 62
     7
 10
349.97929798371479
 20
-60.678953514524913
 30
0.0
 40
2.0000000000000631
 50
144.10723373643549
 51
232.99999999999801
  0
ARC
  5
23E
  8
1
 62
     7
 10
358.54020228475213
 20
-46.61581836968378
 30
0.0
 40
2.0000000000000102
 50
65.999999999999062
 51
153.23101019919909
  0
ARC
  5
23F
  8
1
 62
     7
 10
362.6075687155091
 20
-37.480363793257283
 30
0.0
 40
2.0000000000000102
 50
158.76898980080421
 51
245.9999999999975
  0
ARC
  5
240
  8
1
 62
     7
 10
367.6936008617833
 20
-19.93884606091029
 30
0.0
 40
1.9999999999999949
 50
79.999999999999801
 51
168.8927662635665
  0
ARC
  5
241
  8
1
 62
     7
 10
323.13232665867378
 20
-116.0
 30
0.0
 40
3.0
 50
0.0
 51
90.0
  0
ARC
  5
242
  8
1
 62
     7
 10
379.13232665867378
 20
-107.0
 30
0.0
 40
2.0
 50
0.0
 51
90.0
  0
ARC
  5
243
  8
1
 62
     7
 10
328.13232665867378
 20
-107.0
 30
0.0
 40
2.0
 50
90.0
 51
180.0
  0
ARC
  5
244
  8
1
 62
     7
 10
209.1323266586738
 20
-116.0
 30
0.0
 40
3.0
 50
90.0
 51
180.0
  0
ARC
  5
245
  8
1
 62
     7
 10
153.1323266586738
 20
-107.0
 30
0.0
 40
2.0
 50
90.0
 51
180.0
  0
ARC
  5
246
  8
1
 62
     7
 10
204.13232665867389
 20
-107.0
 30
0.0
 40
2.0
 50
0.0
 51
90.0
  0
ARC
  5
247
  8
1
 62
     7
 10
324.44561087505929
 20
-66.798565590624023
 30
0.0
 40
2.9999999999998481
 50
342.4864262503803
 51
45.000000000002103
  0
ARC
  5
248
  8
1
 62
     7
 10
332.93089224929781
 20
-58.313284216385433
 30
0.0
 40
2.9999999999999729
 50
225.0000000000006
 51
287.5135737496181
  0
ARC
  5
249
  8
1
 62
     7
 10
307.61070286961478
 20
-32.99309483670244
 30
0.0
 40
2.9999999999998881
 50
141.50024989204249
 51
225.0000000000021
  0
ARC
  5
24A
  8
1
 62
     7
 10
299.12542149537632
 20
-41.478376210941043
 30
0.0
 40
2.9999999999999729
 50
45.00000000000059
 51
128.49975010795549
  0
ARC
  5
24B
  8
1
 62
     7
 10
199.33376106804999
 20
-58.313284216385412
 30
0.0
 40
3.0000000000000111
 50
252.48642625037991
 51
314.99999999999949
  0
ARC
  5
24C
  8
1
 62
     7
 10
207.81904244228849
 20
-66.79856559062398
 30
0.0
 40
3.0000000000000351
 50
135.0000000000006
 51
197.5135737496185
  0
ARC
  5
24D
  8
1
 62
     7
 10
233.13923182197149
 20
-41.478376210941001
 30
0.0
 40
2.999999999999984
 50
51.500249892043811
 51
134.99999999999949
  0
ARC
  5
24E
  8
1
 62
     7
 10
224.65395044773291
 20
-32.99309483670244
 30
0.0
 40
2.9999999999999778
 50
314.99999999999932
 51
38.49975010795653
  0
ARC
  5
24F
  8
1
 62
     7
 10
207.81904244228849
 20
66.798565590623994
 30
0.0
 40
2.9999999999999569
 50
162.4864262503809
 51
225.0000000000006
  0
ARC
  5
250
  8
1
 62
     7
 10
199.33376106804999
 20
58.313284216385433
 30
0.0
 40
2.999999999999968
 50
45.000000000000469
 51
107.513573749618
  0
ARC
  5
251
  8
1
 62
     7
 10
224.65395044773291
 20
32.99309483670244
 30
0.0
 40
2.9999999999999609
 50
321.50024989204343
 51
45.00000000000059
  0
ARC
  5
252
  8
1
 62
     7
 10
233.13923182197149
 20
41.478376210941022
 30
0.0
 40
2.999999999999968
 50
225.0000000000004
 51
308.49975010795612
  0
ARC
  5
253
  8
1
 62
     7
 10
332.93089224929781
 20
58.313284216385412
 30
0.0
 40
2.9999999999999951
 50
72.48642625038093
 51
134.9999999999994
  0
ARC
  5
254
  8
1
 62
     7
 10
324.44561087505929
 20
66.798565590623994
 30
0.0
 40
2.999999999999893
 50
314.99999999999778
 51
17.51357374961864
  0
ARC
  5
255
  8
1
 62
     7
 10
299.12542149537632
 20
41.478376210941022
 30
0.0
 40
2.9999999999999711
 50
231.5002498920442
 51
314.99999999999949
  0
ARC
  5
256
  8
1
 62
     7
 10
307.61070286961501
 20
32.99309483670244
 30
0.0
 40
2.9999999999999729
 50
134.9999999999994
 51
218.499750107956
  0
ARC
  5
257
  8
1
 62
     7
 10
253.8823266586738
 20
-18.54331947507854
 30
0.0
 40
3.75
 50
0.0
 51
58.051440542406148
  0
ARC
  5
258
  8
1
 62
     7
 10
278.38232665867378
 20
-18.54331947507854
 30
0.0
 40
3.749999999999944
 50
121.9485594575914
 51
180.0
  0
ARC
  5
259
  8
1
 62
     7
 10
260.13232665867378
 20
-19.046428199482239
 30
0.0
 40
2.5
 50
180.0
 51
270.0
  0
ARC
  5
25A
  8
1
 62
     7
 10
272.13232665867378
 20
-19.046428199482239
 30
0.0
 40
2.5
 50
270.0
 51
0.0
  0
ARC
  5
25B
  8
1
 62
     7
 10
-177.0
 20
-42.018159090392928
 30
0.0
 40
2.0
 50
180.0
 51
270.0
  0
ARC
  5
25C
  8
1
 62
     7
 10
-317.0
 20
-107.0
 30
0.0
 40
2.0
 50
90.0
 51
180.0
  0
ARC
  5
25D
  8
1
 62
     7
 10
-316.5
 20
-48.0
 30
0.0
 40
2.0
 50
180.0
 51
270.0
  0
ARC
  5
25E
  8
1
 62
     7
 10
-316.5
 20
48.0
 30
0.0
 40
2.0
 50
90.0
 51
180.0
  0
ARC
  5
25F
  8
1
 62
     7
 10
-284.5
 20
95.8610088966836
 30
0.0
 40
3.0
 50
180.0
 51
270.0
  0
ARC
  5
260
  8
1
 62
     7
 10
-284.5
 20
112.0
 30
0.0
 40
3.0
 50
90.0
 51
180.0
  0
ARC
  5
261
  8
1
 62
     7
 10
-206.0
 20
-42.018159090392928
 30
0.0
 40
2.0
 50
270.0
 51
0.0
  0
ARC
  5
262
  8
1
 62
     7
 10
-230.50000000000011
 20
-32.206546709565771
 30
0.0
 40
5.0
 50
180.0
 51
270.0
  0
ARC
  5
263
  8
1
 62
     7
 10
-227.0
 20
-27.206546709565771
 30
0.0
 40
5.0
 50
180.0
 51
270.0
  0
ARC
  5
264
  8
1
 62
     7
 10
-152.5000000000002
 20
-32.206546709565771
 30
0.0
 40
5.0
 50
270.0
 51
0.0
  0
ARC
  5
265
  8
1
 62
     7
 10
-156.0000000000002
 20
-27.206546709565771
 30
0.0
 40
5.0
 50
270.0
 51
0.0
  0
ARC
  5
266
  8
1
 62
     7
 10
-156.0000000000002
 20
24.293453290434229
 30
0.0
 40
5.0
 50
0.0
 51
90.0
  0
ARC
  5
267
  8
1
 62
     7
 10
-152.5000000000002
 20
28.793453290434229
 30
0.0
 40
5.0
 50
0.0
 51
90.0
  0
ARC
  5
268
  8
1
 62
     7
 10
-227.0
 20
24.293453290434229
 30
0.0
 40
5.0
 50
90.0
 51
180.0
  0
ARC
  5
269
  8
1
 62
     7
 10
-230.50000000000011
 20
28.793453290434229
 30
0.0
 40
5.0
 50
90.0
 51
180.0
  0
ARC
  5
26A
  8
1
 62
     7
 10
-66.499999999999901
 20
284.1598853830908
 30
0.0
 40
2.0
 50
270.0
 51
0.0
  0
ARC
  5
26B
  8
1
 62
     7
 10
-66.499999999999901
 20
380.15988538309091
 30
0.0
 40
2.0
 50
0.0
 51
90.0
  0
ARC
  5
26C
  8
1
 62
     7
 10
-98.499999999999872
 20
386.65988538309091
 30
0.0
 40
3.0
 50
0.0
 51
90.0
  0
ARC
  5
26D
  8
1
 62
     7
 10
-98.499999999999872
 20
277.65988538309102
 30
0.0
 40
3.0
 50
270.0
 51
0.0
  0
ARC
  5
26E
  8
1
 62
     7
 10
-71.999999999999901
 20
439.15988538309102
 30
0.0
 40
7.999999999999992
 50
0.0
 51
90.0
  0
ARC
  5
26F
  8
1
 62
     7
 10
-71.999999999999901
 20
225.15988538309099
 30
0.0
 40
8.0
 50
270.0
 51
0.0
  0
ARC
  5
270
  8
1
 62
     7
 10
-71.999999999999901
 20
264.15988538309102
 30
0.0
 40
7.999999999999992
 50
0.0
 51
90.0
  0
ARC
  5
271
  8
1
 62
     7
 10
-71.999999999999901
 20
400.15988538309091
 30
0.0
 40
8.0
 50
270.0
 51
0.0
  0
ARC
  5
272
  8
1
 62
     7
 10
-104.4999999999999
 20
444.15988538309091
 30
0.0
 40
3.0
 50
0.0
 51
90.0
  0
ARC
  5
273
  8
1
 62
     7
 10
-104.4999999999999
 20
220.15988538309099
 30
0.0
 40
3.0
 50
270.0
 51
0.0
  0
ARC
  5
274
  8
1
 62
     7
 10
-316.49999999999989
 20
284.15988538309102
 30
0.0
 40
2.0
 50
180.0
 51
270.0
  0
ARC
  5
275
  8
1
 62
     7
 10
-316.49999999999989
 20
380.15988538309091
 30
0.0
 40
2.0
 50
90.0
 51
180.0
  0
ARC
  5
276
  8
1
 62
     7
 10
-284.49999999999977
 20
386.65988538309091
 30
0.0
 40
3.0
 50
90.0
 51
180.0
  0
ARC
  5
277
  8
1
 62
     7
 10
-284.49999999999977
 20
277.65988538309102
 30
0.0
 40
3.0
 50
180.0
 51
270.0
  0
ARC
  5
278
  8
1
 62
     7
 10
-310.99999999999977
 20
439.15988538309102
 30
0.0
 40
8.0
 50
90.0
 51
180.0
  0
ARC
  5
279
  8
1
 62
     7
 10
-310.99999999999977
 20
225.15988538309099
 30
0.0
 40
8.0
 50
180.0
 51
270.0
  0
ARC
  5
27A
  8
1
 62
     7
 10
-310.99999999999977
 20
264.15988538309102
 30
0.0
 40
8.0
 50
90.0
 51
180.0
  0
ARC
  5
27B
  8
1
 62
     7
 10
-310.99999999999977
 20
400.15988538309091
 30
0.0
 40
8.0
 50
180.0
 51
270.0
  0
ARC
  5
27C
  8
1
 62
     7
 10
-278.49999999999989
 20
444.15988538309091
 30
0.0
 40
3.0
 50
90.0
 51
180.0
  0
ARC
  5
27D
  8
1
 62
     7
 10
-278.49999999999989
 20
220.15988538309099
 30
0.0
 40
3.0
 50
180.0
 51
270.0
  0
ARC
  5
27E
  8
1
 62
     7
 10
-149.5
 20
187.29321602102479
 30
0.0
 40
2.0
 50
270.0
 51
0.0
  0
ARC
  5
27F
  8
1
 62
     7
 10
-233.49999999999989
 20
187.29321602102479
 30
0.0
 40
2.0
 50
180.0
 51
270.0
  0
ARC
  5
280
  8
1
 62
     7
 10
-149.5
 20
212.83070094029131
 30
0.0
 40
2.0
 50
270.0
 51
0.0
  0
ARC
  5
281
  8
1
 62
     7
 10
-233.49999999999989
 20
212.83070094029111
 30
0.0
 40
2.0
 50
180.0
 51
270.0
  0
ARC
  5
282
  8
1
 62
     7
 10
-153.0
 20
187.29321602102479
 30
0.0
 40
2.0
 50
270.0
 51
0.0
  0
ARC
  5
283
  8
1
 62
     7
 10
-230.0
 20
187.29321602102451
 30
0.0
 40
2.0
 50
180.0
 51
270.0
  0
ARC
  5
284
  8
1
 62
     7
 10
-228.5
 20
219.87024208286309
 30
0.0
 40
2.0
 50
90.0
 51
180.0
  0
ARC
  5
285
  8
1
 62
     7
 10
-154.49999999999989
 20
219.87024208286331
 30
0.0
 40
2.0
 50
0.0
 51
90.0
  0
ARC
  5
286
  8
1
 62
     7
 10
-290.19880032446463
 20
-63.360678118654718
 30
0.0
 40
3.801199675535341
 50
139.86930256112541
 51
220.13069743887439
  0
ARC
  5
287
  8
1
 62
     7
 10
-280.13754067372412
 20
-70.710678118654741
 30
0.0
 40
13.86245932627577
 50
159.30013540055711
 51
200.6998645994428
  0
ARC
  5
288
  8
1
 62
     7
 10
-290.19880032446463
 20
-78.060678118654721
 30
0.0
 40
3.801199675535333
 50
139.86930256112561
 51
220.13069743887451
  0
ARC
  5
289
  8
1
 62
     7
 10
-96.301199675535713
 20
63.360678118654761
 30
0.0
 40
3.801199675535603
 50
319.86930256112862
 51
40.130697438871039
  0
ARC
  5
28A
  8
1
 62
     7
 10
-106.36245932627671
 20
70.710678118654769
 30
0.0
 40
13.862459326276589
 50
339.3001354005583
 51
20.699864599441572
  0
ARC
  5
28B
  8
1
 62
     7
 10
-96.301199675535713
 20
78.060678118654735
 30
0.0
 40
3.8011996755355928
 50
319.86930256112902
 51
40.130697438871209
  0
ARC
  5
28C
  8
1
 62
     7
 10
-96.301199675535713
 20
-78.060678118654721
 30
0.0
 40
3.801199675535603
 50
319.86930256112862
 51
40.130697438871039
  0
ARC
  5
28D
  8
1
 62
     7
 10
-106.36245932627671
 20
-70.710678118654741
 30
0.0
 40
13.862459326276589
 50
339.3001354005583
 51
20.699864599441572
  0
ARC
  5
28E
  8
1
 62
     7
 10
-96.301199675535713
 20
-63.360678118654718
 30
0.0
 40
3.8011996755355928
 50
319.86930256112902
 51
40.130697438871209
  0
ARC
  5
28F
  8
1
 62
     7
 10
-105.5000000000001
 20
-45.49943183624854
 30
0.0
 40
4.0
 50
270.0
 51
0.0
  0
ARC
  5
290
  8
1
 62
     7
 10
-113.5000000000001
 20
-34.525096300180373
 30
0.0
 40
4.0
 50
270.0
 51
0.0
  0
ARC
  5
291
  8
1
 62
     7
 10
-105.5000000000001
 20
-40.018159090392928
 30
0.0
 40
4.0
 50
270.0
 51
0.0
  0
ARC
  5
292
  8
1
 62
     7
 10
-113.5000000000001
 20
-57.084224849933463
 30
0.0
 40
4.0
 50
270.0
 51
0.0
  0
ARC
  5
293
  8
1
 62
     7
 10
-105.5000000000001
 20
-65.208727662485543
 30
0.0
 40
4.0
 50
270.0
 51
0.0
  0
ARC
  5
294
  8
1
 62
     7
 10
-169.0
 20
-102.0
 30
0.0
 40
3.0
 50
180.0
 51
270.0
  0
ARC
  5
295
  8
1
 62
     7
 10
-98.500000000000128
 20
-81.998342252128694
 30
0.0
 40
2.9999999999999858
 50
180.0
 51
239.43360139427989
  0
ARC
  5
296
  8
1
 62
     7
 10
-98.500000000000128
 20
-102.0
 30
0.0
 40
2.9999999999999858
 50
180.0
 51
270.0
  0
ARC
  5
297
  8
1
 62
     7
 10
266.13232665867378
 20
-0.0000000000000009
 30
0.0
 40
101.9999999999992
 50
96.252537029982335
 51
119.4327057854637
  0
ARC
  5
298
  8
1
 62
     7
 10
266.13232665867378
 20
-0.0000000000000009
 30
0.0
 40
98.00000000000027
 50
96.379370208442793
 51
119.4212449103392
  0
ARC
  5
299
  8
1
 62
     7
 10
266.13232665867292
 20
-0.0000000000029309
 30
0.0
 40
98.000000000002998
 50
60.578755089661122
 51
83.620629791556794
  0
ARC
  5
29A
  8
1
 62
     7
 10
266.13232665867429
 20
0.0000000000011804
 30
0.0
 40
101.99999999999881
 50
60.56729421453597
 51
83.747462970017835
  0
ARC
  5
29B
  8
1
 62
     7
 10
266.13232665867378
 20
-0.0000000000011957
 30
0.0
 40
106.00000000000099
 50
61.577147220735668
 51
118.4228527792643
  0
ARC
  5
29C
  8
1
 62
     7
 10
266.13232665870231
 20
0.0000000000193139
 30
0.0
 40
110.2500000000349
 50
275.0
 51
289.00000000004133
  0
ARC
  5
29D
  8
1
 62
     7
 10
266.1323266587051
 20
0.0000000000278334
 30
0.0
 40
101.5000000000465
 50
276.10723373643413
 51
287.89276626360481
  0
ARC
  5
29E
  8
1
 62
     7
 10
266.13232665864552
 20
0.0000000000193139
 30
0.0
 40
110.2500000000349
 50
250.99999999995859
 51
264.99999999999989
  0
ARC
  5
29F
  8
1
 62
     7
 10
266.13232665864268
 20
0.0000000000278334
 30
0.0
 40
101.5000000000465
 50
252.10723373639499
 51
263.89276626356582
  0
ARC
  5
2A0
  8
1
 62
     7
 10
266.13232665867542
 20
-0.0000000000009904
 30
0.0
 40
110.2499999999982
 50
322.99999999999977
 51
334.44073870811042
  0
ARC
  5
2A1
  8
1
 62
     7
 10
266.13232665867378
 20
-0.0000000000000009
 30
0.0
 40
110.25
 50
337.55926129188981
 51
349.99999999999977
  0
ARC
  5
2A2
  8
1
 62
     7
 10
266.13232665867378
 20
-0.0000000000000009
 30
0.0
 40
101.4999999999994
 50
338.76898980080563
 51
348.89276626356332
  0
ARC
  5
2A3
  8
1
 62
     7
 10
266.13232665867378
 20
-0.0000000000000009
 30
0.0
 40
101.5000000000003
 50
324.10723373643663
 51
333.23101019919432
  0
ARC
  5
2A4
  8
1
 62
     7
 10
345.13232665867378
 20
-103.0
 30
0.0
 40
2.0
 50
180.0
 51
270.0
  0
ARC
  5
2A5
  8
1
 62
     7
 10
348.13232665867378
 20
-87.612784455238057
 30
0.0
 40
4.9999999999999014
 50
133.10467381989551
 51
180.0
  0
ARC
  5
2A6
  8
1
 62
     7
 10
340.13232665867378
 20
-103.0
 30
0.0
 40
2.0
 50
180.0
 51
270.0
  0
ARC
  5
2A7
  8
1
 62
     7
 10
340.13232665867378
 20
-83.710678118654741
 30
0.0
 40
2.0
 50
90.0
 51
180.0
  0
ARC
  5
2A8
  8
1
 62
     7
 10
324.13232665867378
 20
-83.710678118654741
 30
0.0
 40
2.0
 50
0.0
 51
90.0
  0
ARC
  5
2A9
  8
1
 62
     7
 10
266.13232665867378
 20
-0.0000000000000009
 30
0.0
 40
115.0000000000001
 50
313.10467381989599
 51
226.89532618010409
  0
ARC
  5
2AA
  8
1
 62
     7
 10
187.1323266586738
 20
-103.0
 30
0.0
 40
2.0
 50
270.0
 51
0.0
  0
ARC
  5
2AB
  8
1
 62
     7
 10
184.13232665867389
 20
-87.612784455238057
 30
0.0
 40
5.0
 50
0.0
 51
46.895326180103382
  0
ARC
  5
2AC
  8
1
 62
     7
 10
266.13232665867241
 20
-0.0000000000009904
 30
0.0
 40
110.2499999999982
 50
205.5592612918895
 51
217.00000000000011
  0
ARC
  5
2AD
  8
1
 62
     7
 10
266.13232665867378
 20
-0.0000000000000009
 30
0.0
 40
110.2499999999998
 50
190.0
 51
202.44073870811019
  0
ARC
  5
2AE
  8
1
 62
     7
 10
266.13232665867378
 20
-0.0000000000000009
 30
0.0
 40
101.5
 50
191.1072337364366
 51
201.2310101991944
  0
ARC
  5
2AF
  8
1
 62
     7
 10
266.13232665867378
 20
-0.0000000000000009
 30
0.0
 40
101.5000000000003
 50
206.7689898008056
 51
215.89276626356349
  0
ARC
  5
2B0
  8
1
 62
     7
 10
192.13232665867389
 20
-103.0
 30
0.0
 40
2.0
 50
270.0
 51
0.0
  0
ARC
  5
2B1
  8
1
 62
     7
 10
192.13232665867389
 20
-83.710678118654741
 30
0.0
 40
2.0
 50
0.0
 51
90.0
  0
ARC
  5
2B2
  8
1
 62
     7
 10
208.1323266586738
 20
-83.710678118654741
 30
0.0
 40
2.0
 50
90.0
 51
180.0
  0
ARC
  5
2B3
  8
1
 62
     7
 10
266.13232665867378
 20
-0.0000000000000009
 30
0.0
 40
15.0
 50
103.49339882155169
 51
76.506601178448321
  0
ARC
  5
2B4
  8
1
 62
     7
 10
266.13232665867378
 20
-0.0000000000000009
 30
0.0
 40
17.5
 50
101.5369590328154
 51
78.46304096718454
  0
ARC
  5
2B5
  8
1
 62
     7
 10
266.13232665867378
 20
1.0999999999999981
 30
0.0
 40
19.400000000000048
 50
301.94855945759332
 51
238.05144054240711
  0
ARC
  5
2B6
  8
1
 62
     7
 10
-170.0
 20
-47.774713953717011
 30
0.0
 40
2.0
 50
90.0
 51
180.0
  0
ARC
  5
2B7
  8
1
 62
     7
 10
-188.0000000000002
 20
-47.774713953717011
 30
0.0
 40
2.0000000000000839
 50
0.0
 51
90.0
  0
ARC
  5
2B8
  8
1
 62
     7
 10
-108.5000000000001
 20
-81.623228390852503
 30
0.0
 40
4.0
 50
270.0
 51
0.0
  0
ARC
  5
2B9
  8
1
 62
     7
 10
-105.5000000000001
 20
-15.96954043169699
 30
0.0
 40
4.0000000000000009
 50
270.0
 51
0.0
  0
ARC
  5
2BA
  8
1
 62
     7
 10
-277.49999999999989
 20
-45.49943183624854
 30
0.0
 40
4.0
 50
180.0
 51
270.0
  0
ARC
  5
2BB
  8
1
 62
     7
 10
-269.49999999999989
 20
-34.525096300180373
 30
0.0
 40
4.0
 50
180.0
 51
270.0
  0
ARC
  5
2BC
  8
1
 62
     7
 10
-277.49999999999989
 20
-40.018159090392928
 30
0.0
 40
4.0
 50
180.0
 51
270.0
  0
ARC
  5
2BD
  8
1
 62
     7
 10
-269.49999999999989
 20
-57.084224849933463
 30
0.0
 40
4.0
 50
180.0
 51
270.0
  0
ARC
  5
2BE
  8
1
 62
     7
 10
-277.49999999999989
 20
-65.208727662485543
 30
0.0
 40
4.0
 50
180.0
 51
270.0
  0
ARC
  5
2BF
  8
1
 62
     7
 10
-214.0
 20
-102.0
 30
0.0
 40
3.0
 50
270.0
 51
0.0
  0
ARC
  5
2C0
  8
1
 62
     7
 10
-284.5
 20
-81.998342252128694
 30
0.0
 40
2.999999999999984
 50
300.56639860572079
 51
0.0
  0
ARC
  5
2C1
  8
1
 62
     7
 10
-284.5
 20
-102.0
 30
0.0
 40
3.0
 50
270.0
 51
0.0
  0
ARC
  5
2C2
  8
1
 62
     7
 10
-213.0
 20
-47.774713953717011
 30
0.0
 40
2.0
 50
0.0
 51
90.0
  0
ARC
  5
2C3
  8
1
 62
     7
 10
-194.99999999999989
 20
-47.774713953717011
 30
0.0
 40
2.0
 50
90.0
 51
180.0
  0
ARC
  5
2C4
  8
1
 62
     7
 10
-274.5
 20
-81.623228390852503
 30
0.0
 40
4.0
 50
180.0
 51
270.0
  0
ARC
  5
2C5
  8
1
 62
     7
 10
-277.49999999999989
 20
-15.96954043169699
 30
0.0
 40
4.0
 50
180.0
 51
270.0
  0
ARC
  5
2C6
  8
1
 62
     7
 10
-189.44999999999999
 20
-30.156546709565699
 30
0.0
 40
1.7425000000000059
 50
180.0
 51
270.0
  0
ARC
  5
2C7
  8
1
 62
     7
 10
-193.5500000000003
 20
-30.156546709565699
 30
0.0
 40
1.7425000000000701
 50
270.0
 51
0.0
  0
ARC
  5
2C8
  8
1
 62
     7
 10
-193.5500000000003
 20
-34.256546709565733
 30
0.0
 40
1.7425000000002051
 50
0.0
 51
90.0
  0
ARC
  5
2C9
  8
1
 62
     7
 10
-189.44999999999999
 20
-34.256546709565733
 30
0.0
 40
1.7424999999999491
 50
90.0
 51
180.0
  0
ARC
  5
2CA
  8
1
 62
     7
 10
-200.19999999999979
 20
-29.506546709565729
 30
0.0
 40
2.700000000000041
 50
270.0
 51
0.0
  0
ARC
  5
2CB
  8
1
 62
     7
 10
-191.5
 20
-29.506546709565729
 30
0.0
 40
6.0
 50
0.0
 51
180.0
  0
ARC
  5
2CC
  8
1
 62
     7
 10
-182.80000000000001
 20
-29.506546709565729
 30
0.0
 40
2.7000000000000171
 50
180.0
 51
270.0
  0
ARC
  5
2CD
  8
1
 62
     7
 10
-290.19880032446463
 20
78.060678118654721
 30
0.0
 40
3.801199675535341
 50
139.86930256112541
 51
220.13069743887439
  0
ARC
  5
2CE
  8
1
 62
     7
 10
-280.13754067372412
 20
70.710678118654741
 30
0.0
 40
13.86245932627577
 50
159.30013540055711
 51
200.6998645994428
  0
ARC
  5
2CF
  8
1
 62
     7
 10
-290.19880032446463
 20
63.360678118654718
 30
0.0
 40
3.801199675535333
 50
139.86930256112561
 51
220.13069743887451
  0
ARC
  5
2D0
  8
1
 62
     7
 10
-96.301199675535486
 20
395.52056350174581
 30
0.0
 40
3.8011996755356661
 50
319.86930256112771
 51
40.130697438869738
  0
ARC
  5
2D1
  8
1
 62
     7
 10
-106.36245932627649
 20
402.87056350174561
 30
0.0
 40
13.86245932627661
 50
339.3001354005583
 51
20.699864599441891
  0
ARC
  5
2D2
  8
1
 62
     7
 10
-96.301199675535486
 20
410.22056350174557
 30
0.0
 40
3.8011996755355208
 50
319.8693025611301
 51
40.130697438871039
  0
ARC
  5
2D3
  8
1
 62
     7
 10
-96.301199675535486
 20
254.0992072644361
 30
0.0
 40
3.8011996755355928
 50
319.86930256112902
 51
40.130697438871039
  0
ARC
  5
2D4
  8
1
 62
     7
 10
-106.36245932627649
 20
261.44920726443632
 30
0.0
 40
13.86245932627666
 50
339.30013540055802
 51
20.69986459944101
  0
ARC
  5
2D5
  8
1
 62
     7
 10
-96.301199675535486
 20
268.79920726443618
 30
0.0
 40
3.8011996755355928
 50
319.86930256112902
 51
40.130697438871707
  0
ARC
  5
2D6
  8
1
 62
     7
 10
-50.499999999999773
 20
332.15988538309102
 30
0.0
 40
3.5
 50
90.0
 51
270.0
  0
ARC
  5
2D7
  8
1
 62
     7
 10
-332.5
 20
332.15988538309102
 30
0.0
 40
3.5
 50
270.0
 51
90.0
  0
ARC
  5
2D8
  8
1
 62
     7
 10
-290.19880032446451
 20
268.79920726443618
 30
0.0
 40
3.8011996755353761
 50
139.86930256112609
 51
220.13069743887249
  0
ARC
  5
2D9
  8
1
 62
     7
 10
-280.13754067372412
 20
261.44920726443632
 30
0.0
 40
13.8624593262758
 50
159.3001354005568
 51
200.699864599443
  0
ARC
  5
2DA
  8
1
 62
     7
 10
-290.19880032446451
 20
254.0992072644363
 30
0.0
 40
3.8011996755353761
 50
139.86930256112609
 51
220.1306974388738
  0
ARC
  5
2DB
  8
1
 62
     7
 10
-290.19880032446451
 20
410.22056350174557
 30
0.0
 40
3.8011996755353761
 50
139.86930256112609
 51
220.13069743887249
  0
ARC
  5
2DC
  8
1
 62
     7
 10
-280.13754067372412
 20
402.87056350174561
 30
0.0
 40
13.8624593262758
 50
159.3001354005568
 51
200.699864599443
  0
ARC
  5
2DD
  8
1
 62
     7
 10
-290.19880032446451
 20
395.5205635017457
 30
0.0
 40
3.8011996755353761
 50
139.86930256112609
 51
220.1306974388738
  0
CIRCLE
  5
2DE
  8
1
 62
     7
 10
-303.99999999999989
 20
232.15988538309099
 30
0.0
 40
11.25
  0
CIRCLE
  5
2DF
  8
1
 62
     7
 10
-303.99999999999989
 20
432.15988538309091
 30
0.0
 40
11.25
  0
CIRCLE
  5
2E0
  8
1
 62
     7
 10
-78.999999999999901
 20
432.15988538309091
 30
0.0
 40
11.25
  0
CIRCLE
  5
2E1
  8
1
 62
     7
 10
-78.999999999999901
 20
232.15988538309099
 30
0.0
 40
11.25
  0
CIRCLE
  5
2E2
  8
1
 62
     7
 10
266.13232665867378
 20
-67.5
 30
0.0
 40
6.5
  0
CIRCLE
  5
2E3
  8
1
 62
     7
 10
266.13232665867378
 20
-67.5
 30
0.0
 40
7.6999999999999869
  0
CIRCLE
  5
2E4
  8
1
 62
     7
 10
198.6323266586738
 20
0.0000000000000059
 30
0.0
 40
6.5
  0
CIRCLE
  5
2E5
  8
1
 62
     7
 10
198.6323266586738
 20
0.0000000000000059
 30
0.0
 40
7.7000000000000171
  0
CIRCLE
  5
2E6
  8
1
 62
     7
 10
266.13232665867378
 20
67.5
 30
0.0
 40
6.5
  0
CIRCLE
  5
2E7
  8
1
 62
     7
 10
266.13232665867378
 20
67.5
 30
0.0
 40
7.6999999999999869
  0
CIRCLE
  5
2E8
  8
1
 62
     7
 10
333.63232665867378
 20
-0.0000000000000009
 30
0.0
 40
6.5
  0
CIRCLE
  5
2E9
  8
1
 62
     7
 10
333.63232665867378
 20
-0.0000000000000009
 30
0.0
 40
7.7000000000001023
  0
CIRCLE
  5
2EA
  8
1
 62
     7
 10
336.8430047773287
 20
-70.710678118654769
 30
0.0
 40
8.5
  0
CIRCLE
  5
2EB
  8
1
 62
     7
 10
336.8430047773287
 20
-70.710678118654769
 30
0.0
 40
10.0
  0
CIRCLE
  5
2EC
  8
1
 62
     7
 10
195.42164854001911
 20
-70.710678118654741
 30
0.0
 40
8.5
  0
CIRCLE
  5
2ED
  8
1
 62
     7
 10
195.42164854001911
 20
-70.710678118654741
 30
0.0
 40
10.0
  0
CIRCLE
  5
2EE
  8
1
 62
     7
 10
195.42164854001911
 20
70.710678118654769
 30
0.0
 40
8.5
  0
CIRCLE
  5
2EF
  8
1
 62
     7
 10
195.42164854001911
 20
70.710678118654769
 30
0.0
 40
10.0
  0
CIRCLE
  5
2F0
  8
1
 62
     7
 10
336.8430047773287
 20
70.710678118654741
 30
0.0
 40
8.5
  0
CIRCLE
  5
2F1
  8
1
 62
     7
 10
266.13232665867378
 20
-0.0000000000000009
 30
0.0
 40
50.0
  0
CIRCLE
  5
2F2
  8
1
 62
     7
 10
336.8430047773287
 20
70.710678118654741
 30
0.0
 40
10.0
  0
CIRCLE
  5
2F3
  8
1
 62
     3
 10
266.13232665867378
 20
-0.0000000000000009
 30
0.0
 40
4.0
  0
CIRCLE
  5
2F4
  8
1
 62
     7
 10
266.13232665867378
 20
-0.0000000000000009
 30
0.0
 40
3.200000000000101
  0
CIRCLE
  5
2F5
  8
1
 62
     7
 10
260.13232665867378
 20
-19.346428199482251
 30
0.0
 40
1.25
  0
CIRCLE
  5
2F6
  8
1
 62
     7
 10
272.13232665867378
 20
-19.346428199482251
 30
0.0
 40
1.25
  0
CIRCLE
  5
2F7
  8
1
 62
     7
 10
266.13232665867378
 20
-0.0000000000000009
 30
0.0
 40
40.0
  0
CIRCLE
  5
2F8
  8
1
 62
     7
 10
-191.5
 20
-32.206546709565771
 30
0.0
 40
3.5
  0
CIRCLE
  5
2F9
  8
1
 62
     7
 10
-78.999999999999901
 20
432.15988538309091
 30
0.0
 40
5.5
  0
CIRCLE
  5
2FA
  8
1
 62
     7
 10
-78.999999999999901
 20
232.15988538309099
 30
0.0
 40
5.5
  0
CIRCLE
  5
2FB
  8
1
 62
     7
 10
-303.99999999999989
 20
432.15988538309091
 30
0.0
 40
5.5
  0
CIRCLE
  5
2FC
  8
1
 62
     7
 10
-303.99999999999989
 20
232.15988538309099
 30
0.0
 40
5.5
  0
ARC
  5
2FD
  8
1
 62
     7
 10
132.13224878076821
 20
-36.706546709565707
 30
0.0
 40
0.5
 50
270.0
 51
345.00000000000648
  0
ARC
  5
2FE
  8
1
 62
     7
 10
146.42396843135691
 20
33.293453290434279
 30
0.0
 40
0.5
 50
90.0
 51
165.00000000001981
  0
ARC
  5
2FF
  8
1
 62
     7
 10
150.8886922509468
 20
33.293453290434172
 30
0.0
 40
0.4999999999999457
 50
345.00000000000381
 51
90.0
  0
ARC
  5
300
  8
1
 62
     7
 10
127.6675249611784
 20
-36.706546709565828
 30
0.0
 40
0.5000000000001809
 50
164.99999999999761
 51
270.0
  0
ARC
  5
301
  8
1
 62
     7
 10
123.5403049373674
 20
-30.206546709565831
 30
0.0
 40
3.0
 50
180.0
 51
270.0
  0
ARC
  5
302
  8
1
 62
     7
 10
127.4360963580617
 20
-33.706546709565707
 30
0.0
 40
0.4999999999999769
 50
344.99999999999039
 51
90.0
  0
ARC
  5
303
  8
1
 62
     7
 10
144.3168954812223
 20
29.293453290434279
 30
0.0
 40
0.5
 50
270.0
 51
344.9999999999942
  0
ARC
  5
304
  8
1
 62
     7
 10
125.0403049373673
 20
24.293453290434289
 30
0.0
 40
4.4999999999998792
 50
90.0
 51
180.0
  0
TEXT
  5
305
  8
1
 62
     7
 10
245.3847552301024
 20
-88.847018143580783
 30
0.0
 40
6.0
  1
I N P U T
 41
0.8910000000000001
  7
SIMPLEX
 72
     1
 11
266.13232665867378
 21
-88.847018143580783
 31
0.0
  0
TEXT
  5
307
  8
1
 62
     7
 10
239.1323266586738
 20
334.65988538309102
 30
0.0
 40
10.0
  1
MSU 10
 41
0.9
  7
SIMPLEX
  0
ENDSEC
  0
EOF
