  0
SECTION
  2
HEADER
  9
$ACADVER
  1
AC1009
  9
$INSBASE
 10
0.0
 20
0.0
 30
0.0
  9
$EXTMIN
 10
-735.0
 20
-231.4483045442843
 30
0.0
  9
$EXTMAX
 10
761.22039576572513
 20
1161.7517654552159
 30
0.0
  9
$LIMMIN
 10
-735.0
 20
-231.4483045442843
  9
$LIMMAX
 10
760.18486185979225
 20
1158.6451637374171
  9
$ORTHOMODE
 70
     0
  9
$REGENMODE
 70
     1
  9
$FILLMODE
 70
     1
  9
$QTEXTMODE
 70
     0
  9
$MIRRTEXT
 70
     1
  9
$DRAGMODE
 70
     2
  9
$LTSCALE
 40
1.0
  9
$OSMODE
 70
    37
  9
$ATTMODE
 70
     1
  9
$TEXTSIZE
 40
3.5
  9
$TRACEWID
 40
0.5
  9
$TEXTSTYLE
  7
STANDARD
  9
$CLAYER
  8
0
  9
$CELTYPE
  6
BYLAYER
  9
$CECOLOR
 62
   256
  9
$DIMSCALE
 40
1.0
  9
$DIMASZ
 40
0.18
  9
$DIMEXO
 40
0.0625
  9
$DIMDLI
 40
0.38
  9
$DIMRND
 40
0.0
  9
$DIMDLE
 40
0.0
  9
$DIMEXE
 40
0.18
  9
$DIMTP
 40
0.0
  9
$DIMTM
 40
0.0
  9
$DIMTXT
 40
0.18
  9
$DIMCEN
 40
0.09
  9
$DIMTSZ
 40
0.0
  9
$DIMTOL
 70
     0
  9
$DIMLIM
 70
     0
  9
$DIMTIH
 70
     1
  9
$DIMTOH
 70
     1
  9
$DIMSE1
 70
     0
  9
$DIMSE2
 70
     0
  9
$DIMTAD
 70
     0
  9
$DIMZIN
 70
     0
  9
$DIMBLK
  1

  9
$DIMASO
 70
     1
  9
$DIMSHO
 70
     1
  9
$DIMPOST
  1

  9
$DIMAPOST
  1

  9
$DIMALT
 70
     0
  9
$DIMALTD
 70
     2
  9
$DIMALTF
 40
25.399999999999999
  9
$DIMLFAC
 40
1.0
  9
$DIMTOFL
 70
     0
  9
$DIMTVP
 40
0.0
  9
$DIMTIX
 70
     0
  9
$DIMSOXD
 70
     0
  9
$DIMSAH
 70
     0
  9
$DIMBLK1
  1

  9
$DIMBLK2
  1

  9
$DIMSTYLE
  2
STANDARD
  9
$DIMCLRD
 70
     0
  9
$DIMCLRE
 70
     0
  9
$DIMCLRT
 70
     0
  9
$DIMTFAC
 40
1.0
  9
$DIMGAP
 40
0.09
  9
$LUNITS
 70
     2
  9
$LUPREC
 70
     4
  9
$SKETCHINC
 40
0.1
  9
$FILLETRAD
 40
2.0
  9
$AUNITS
 70
     0
  9
$AUPREC
 70
     0
  9
$MENU
  1
ACAD
  9
$ELEVATION
 40
0.0
  9
$PELEVATION
 40
0.0
  9
$THICKNESS
 40
0.0
  9
$LIMCHECK
 70
     0
  9
$BLIPMODE
 70
     0
  9
$CHAMFERA
 40
0.0
  9
$CHAMFERB
 40
0.0
  9
$SKPOLY
 70
     0
  9
$TDCREATE
 40
2452094.8753069439
  9
$TDUPDATE
 40
2452094.8760342589
  9
$TDINDWG
 40
0.000740625
  9
$TDUSRTIMER
 40
0.000740625
  9
$USRTIMER
 70
     1
  9
$ANGBASE
 50
0.0
  9
$ANGDIR
 70
     0
  9
$PDMODE
 70
     0
  9
$PDSIZE
 40
0.0
  9
$PLINEWID
 40
0.0
  9
$COORDS
 70
     1
  9
$SPLFRAME
 70
     0
  9
$SPLINETYPE
 70
     6
  9
$SPLINESEGS
 70
     8
  9
$ATTDIA
 70
     0
  9
$ATTREQ
 70
     1
  9
$HANDLING
 70
 10241
  9
$HANDSEED
  5
388
  9
$SURFTAB1
 70
     6
  9
$SURFTAB2
 70
     6
  9
$SURFTYPE
 70
     6
  9
$SURFU
 70
     6
  9
$SURFV
 70
     6
  9
$UCSNAME
  2

  9
$UCSORG
 10
0.0
 20
0.0
 30
0.0
  9
$UCSXDIR
 10
1.0
 20
0.0
 30
0.0
  9
$UCSYDIR
 10
0.0
 20
1.0
 30
0.0
  9
$PUCSNAME
  2

  9
$PUCSORG
 10
0.0
 20
0.0
 30
0.0
  9
$PUCSXDIR
 10
1.0
 20
0.0
 30
0.0
  9
$PUCSYDIR
 10
0.0
 20
1.0
 30
0.0
  9
$USERI1
 70
     0
  9
$USERI2
 70
     0
  9
$USERI3
 70
     0
  9
$USERI4
 70
     0
  9
$USERI5
 70
     0
  9
$USERR1
 40
0.0
  9
$USERR2
 40
0.0
  9
$USERR3
 40
0.0
  9
$USERR4
 40
0.0
  9
$USERR5
 40
0.0
  9
$WORLDVIEW
 70
     1
  9
$SHADEDGE
 70
     3
  9
$SHADEDIF
 70
    70
  9
$TILEMODE
 70
     1
  9
$MAXACTVP
 70
    64
  9
$PLIMCHECK
 70
     0
  9
$PEXTMIN
 10
1.0000000000000000E+020
 20
1.0000000000000000E+020
 30
1.0000000000000000E+020
  9
$PEXTMAX
 10
-1.0000000000000000E+020
 20
-1.0000000000000000E+020
 30
-1.0000000000000000E+020
  9
$PLIMMIN
 10
0.0
 20
0.0
  9
$PLIMMAX
 10
12.0
 20
9.0
  9
$UNITMODE
 70
     0
  9
$VISRETAIN
 70
     1
  9
$PLINEGEN
 70
     0
  9
$PSLTSCALE
 70
     1
  0
ENDSEC
  0
SECTION
  2
TABLES
  0
TABLE
  2
VPORT
 70
     2
  0
VPORT
  2
*ACTIVE
 70
     0
 10
0.0
 20
0.0
 11
1.0
 21
1.0
 12
531.64984839872943
 22
920.12790231950385
 13
0.0
 23
0.0
 14
1.0
 24
1.0
 15
0.0
 25
0.0
 16
0.0
 26
0.0
 36
1.0
 17
0.0
 27
0.0
 37
0.0
 40
9.0000029501225072
 41
2.4144144144144142
 42
50.0
 43
0.0
 44
0.0
 50
0.0
 51
0.0
 71
     0
 72
   100
 73
     1
 74
     1
 75
     0
 76
     0
 77
     0
 78
     0
  0
ENDTAB
  0
TABLE
  2
LTYPE
 70
     9
  0
LTYPE
  2
CONTINUOUS
 70
     0
  3
Solid line
 72
    65
 73
     0
 40
0.0
  0
LTYPE
  2
BORDER
 70
     0
  3
__ __ . __ __ .
 72
    65
 73
     6
 40
68.85719758564835
 49
19.673485024470938
 49
-9.8367425122354764
 49
19.673485024470938
 49
-9.8367425122354764
 49
0.0
 49
-9.8367425122354764
  0
LTYPE
  2
CENTER
 70
     0
  3
____ _ ____ _
 72
    65
 73
     4
 40
78.693940097883811
 49
49.183712561177387
 49
-9.8367425122354764
 49
9.8367425122354764
 49
-9.8367425122354764
  0
LTYPE
  2
DASHDOT
 70
     0
  3
__ . __ . __ .
 72
    65
 73
     4
 40
39.346970048941898
 49
19.673485024470938
 49
-9.8367425122354764
 49
0.0
 49
-9.8367425122354764
  0
LTYPE
  2
DASHED
 70
     0
  3
__ __ __ __ __
 72
    65
 73
     2
 40
29.51022753670642
 49
19.673485024470938
 49
-9.8367425122354764
  0
LTYPE
  2
DIVIDE
 70
     0
  3
__ . . __ . . 
 72
    65
 73
     6
 40
49.183712561177387
 49
19.673485024470938
 49
-9.8367425122354764
 49
0.0
 49
-9.8367425122354764
 49
0.0
 49
-9.8367425122354764
  0
LTYPE
  2
DOT
 70
     0
  3
..............
 72
    65
 73
     4
 40
19.673485024470938
 49
0.0
 49
-9.8367425122354764
 49
0.0
 49
-9.8367425122354764
  0
LTYPE
  2
HIDDEN
 70
     0
  3
_ _ _ _ _ _ _
 72
    65
 73
     2
 40
14.755113768353221
 49
9.8367425122354764
 49
-4.9183712561177382
  0
LTYPE
  2
PHANTOM
 70
     0
  3
_____ _ _ _____ _ _ 
 72
    65
 73
     6
 40
98.367425122354774
 49
49.183712561177387
 49
-9.8367425122354764
 49
9.8367425122354764
 49
-9.8367425122354764
 49
9.8367425122354764
 49
-9.8367425122354764
  0
ENDTAB
  0
TABLE
  2
LAYER
 70
     2
  0
LAYER
  2
0
 70
     0
 62
     7
  6
CONTINUOUS
  0
LAYER
  2
1
 70
     0
 62
     7
  6
CONTINUOUS
  0
ENDTAB
  0
TABLE
  2
STYLE
 70
     4
  0
STYLE
  2
STANDARD
 70
     0
 40
0.0
 41
1.0
 50
0.0
 71
     0
 42
3.5
  3
txt
  4

  0
STYLE
  2
SIMPLEX
 70
     0
 40
0.0
 41
1.0
 50
0.0
 71
     0
 42
3.5
  3
simplex
  4

  0
STYLE
  2
COMPLEX
 70
     0
 40
0.0
 41
1.0
 50
0.0
 71
     0
 42
3.5
  3
complex
  4

  0
STYLE
  2
ITALIC
 70
     0
 40
0.0
 41
1.0
 50
0.0
 71
     0
 42
3.5
  3
italic
  4

  0
ENDTAB
  0
TABLE
  2
VIEW
 70
     0
  0
ENDTAB
  0
TABLE
  2
UCS
 70
     0
  0
ENDTAB
  0
TABLE
  2
APPID
 70
     1
  0
APPID
  2
ACAD
 70
     0
  0
ENDTAB
  0
TABLE
  2
DIMSTYLE
 70
     1
  0
DIMSTYLE
  2
STANDARD
 70
     0
  3

  4

  5

  6

  7

 40
1.0
 41
0.18
 42
0.0625
 43
0.38
 44
0.18
 45
0.0
 46
0.0
 47
0.0
 48
0.0
140
0.18
141
0.09
142
0.0
143
25.399999999999999
144
1.0
145
0.0
146
1.0
147
0.09
 71
     0
 72
     0
 73
     1
 74
     1
 75
     0
 76
     0
 77
     0
 78
     0
170
     0
171
     2
172
     0
173
     0
174
     0
175
     0
176
     0
177
     0
178
     0
  0
ENDTAB
  0
ENDSEC
  0
SECTION
  2
BLOCKS
  0
BLOCK
  8
0
  2
$MODEL_SPACE
 70
     0
 10
0.0
 20
0.0
 30
0.0
  3
$MODEL_SPACE
  1

  0
ENDBLK
  5
20
  8
0
  0
BLOCK
 67
     1
  8
0
  2
$PAPER_SPACE
 70
     0
 10
0.0
 20
0.0
 30
0.0
  3
$PAPER_SPACE
  1

  0
ENDBLK
  5
1C
 67
     1
  8
0
  0
BLOCK
  8
0
  2
TOP__1
 70
     0
 10
-367.5
 20
706.73406887224553
 30
0.0
  3
TOP__1
  1

  0
LINE
  5
35
  8
1
 62
     7
 10
-330.5
 20
706.73406887224553
 30
0.0
 11
-404.49999999999989
 21
706.7340688722453
 31
0.0
  0
LINE
  5
36
  8
1
 62
     7
 10
-328.5
 20
704.73406887224553
 30
0.0
 11
-328.5
 21
700.671191099108
 31
0.0
  0
LINE
  5
37
  8
1
 62
     7
 10
-406.5
 20
704.7340688722453
 30
0.0
 11
-406.5
 21
700.67119109910777
 31
0.0
  0
LINE
  5
38
  8
1
 62
     7
 10
-325.49999999999989
 20
695.6945277296735
 30
0.0
 11
-409.49999999999989
 21
695.69452772967315
 31
0.0
  0
LINE
  5
39
  8
1
 62
     7
 10
-323.49999999999989
 20
700.671191099108
 30
0.0
 11
-411.5
 21
700.67119109910777
 31
0.0
  0
LINE
  5
3A
  8
1
 62
     7
 10
-323.49999999999989
 20
700.671191099108
 30
0.0
 11
-323.49999999999989
 21
697.6945277296735
 31
0.0
  0
LINE
  5
3B
  8
1
 62
     7
 10
-411.5
 20
700.67119109910777
 30
0.0
 11
-411.5
 21
697.69452772967315
 31
0.0
  0
LINE
  5
3C
  8
1
 62
     7
 10
-327.0
 20
695.6945277296735
 30
0.0
 11
-327.0
 21
672.15704281040701
 31
0.0
  0
LINE
  5
3D
  8
1
 62
     7
 10
-408.0
 20
695.69452772967315
 30
0.0
 11
-408.0
 21
672.15704281040689
 31
0.0
  0
LINE
  5
3E
  8
1
 62
     7
 10
-325.49999999999989
 20
670.15704281040689
 30
0.0
 11
-409.49999999999989
 21
670.15704281040689
 31
0.0
  0
LINE
  5
3F
  8
1
 62
     7
 10
-411.5
 20
697.69452772967315
 30
0.0
 11
-411.5
 21
672.15704281040701
 31
0.0
  0
LINE
  5
40
  8
1
 62
     7
 10
-323.49999999999989
 20
697.6945277296735
 30
0.0
 11
-323.49999999999989
 21
672.15704281040701
 31
0.0
  0
ARC
  5
41
  8
1
 62
     7
 10
-330.5
 20
704.73406887224553
 30
0.0
 40
2.0
 50
0.0
 51
90.0
  0
ARC
  5
42
  8
1
 62
     7
 10
-404.49999999999989
 20
704.7340688722453
 30
0.0
 40
2.0
 50
90.0
 51
180.0
  0
ARC
  5
43
  8
1
 62
     7
 10
-406.0
 20
672.15704281040689
 30
0.0
 40
2.0
 50
180.0
 51
270.0
  0
ARC
  5
44
  8
1
 62
     7
 10
-329.0
 20
672.15704281040701
 30
0.0
 40
2.0
 50
270.0
 51
0.0
  0
ARC
  5
45
  8
1
 62
     7
 10
-409.49999999999989
 20
697.69452772967315
 30
0.0
 40
2.0
 50
180.0
 51
270.0
  0
ARC
  5
46
  8
1
 62
     7
 10
-325.49999999999989
 20
697.6945277296735
 30
0.0
 40
2.0
 50
270.0
 51
0.0
  0
ARC
  5
47
  8
1
 62
     7
 10
-409.49999999999989
 20
672.15704281040701
 30
0.0
 40
2.0
 50
180.0
 51
270.0
  0
ARC
  5
48
  8
1
 62
     7
 10
-325.49999999999989
 20
672.15704281040701
 30
0.0
 40
2.0
 50
270.0
 51
0.0
  0
ENDBLK
  5
49
  8
0
  0
BLOCK
  8
0
  2
TOP__2
 70
     0
 10
-367.5
 20
-0.0000000000000213
 30
0.0
  3
TOP__2
  1

  0
LINE
  5
4C
  8
1
 62
     7
 10
-403.0
 20
29.293453290434211
 30
0.0
 11
-332.0
 21
29.293453290434211
 31
0.0
  0
LINE
  5
4D
  8
1
 62
     7
 10
-327.0
 20
24.293453290434211
 30
0.0
 11
-327.0
 21
-27.206546709565782
 31
0.0
  0
LINE
  5
4E
  8
1
 62
     7
 10
-332.0
 20
-32.206546709565778
 30
0.0
 11
-358.80000000000013
 21
-32.206546709565778
 31
0.0
  0
LINE
  5
4F
  8
1
 62
     7
 10
-408.0
 20
-27.206546709565782
 30
0.0
 11
-408.0
 21
24.293453290434211
 31
0.0
  0
LINE
  5
50
  8
1
 62
     7
 10
-406.5
 20
33.793453290434208
 30
0.0
 11
-328.5
 21
33.793453290434208
 31
0.0
  0
LINE
  5
51
  8
1
 62
     7
 10
-323.49999999999989
 20
28.793453290434218
 30
0.0
 11
-323.49999999999989
 21
-32.206546709565778
 31
0.0
  0
LINE
  5
52
  8
1
 62
     7
 10
-328.5
 20
-37.206546709565778
 30
0.0
 11
-406.5
 21
-37.206546709565778
 31
0.0
  0
LINE
  5
53
  8
1
 62
     7
 10
-411.5
 20
-32.206546709565778
 30
0.0
 11
-411.5
 21
28.793453290434218
 31
0.0
  0
LINE
  5
54
  8
1
 62
     7
 10
-376.19999999999982
 20
-32.206546709565778
 30
0.0
 11
-403.0
 21
-32.206546709565778
 31
0.0
  0
LINE
  5
55
  8
1
 62
     7
 10
-365.4500000000001
 20
-32.514046709565783
 30
0.0
 11
-365.4500000000001
 21
-31.89904670956577
 31
0.0
  0
LINE
  5
56
  8
1
 62
     7
 10
-367.8075
 20
-34.256546709565733
 30
0.0
 11
-367.19249999999988
 21
-34.256546709565733
 31
0.0
  0
LINE
  5
57
  8
1
 62
     7
 10
-369.55000000000001
 20
-31.89904670956577
 30
0.0
 11
-369.55000000000001
 21
-32.514046709565783
 31
0.0
  0
LINE
  5
58
  8
1
 62
     7
 10
-367.19249999999988
 20
-30.156546709565699
 30
0.0
 11
-367.8075
 21
-30.156546709565699
 31
0.0
  0
ARC
  5
59
  8
1
 62
     7
 10
-358.80000000000013
 20
-29.506546709565718
 30
0.0
 40
2.6999999999998181
 50
180.0
 51
270.0
  0
ARC
  5
5A
  8
1
 62
     7
 10
-367.5
 20
-29.506546709565718
 30
0.0
 40
6.0
 50
0.0
 51
180.0
  0
ARC
  5
5B
  8
1
 62
     7
 10
-376.19999999999982
 20
-29.506546709565718
 30
0.0
 40
2.7000000000000739
 50
270.0
 51
0.0
  0
ARC
  5
5C
  8
1
 62
     7
 10
-365.4500000000001
 20
-34.256546709565733
 30
0.0
 40
1.7424999999999491
 50
90.0
 51
180.0
  0
ARC
  5
5D
  8
1
 62
     7
 10
-369.55000000000001
 20
-34.256546709565733
 30
0.0
 40
1.7425000000000059
 50
0.0
 51
90.0
  0
ARC
  5
5E
  8
1
 62
     7
 10
-369.55000000000001
 20
-30.156546709565699
 30
0.0
 40
1.7425000000000701
 50
270.0
 51
0.0
  0
ARC
  5
5F
  8
1
 62
     7
 10
-365.4500000000001
 20
-30.156546709565699
 30
0.0
 40
1.742499999999892
 50
180.0
 51
270.0
  0
ARC
  5
60
  8
1
 62
     7
 10
-406.5
 20
28.793453290434218
 30
0.0
 40
5.0000000000000044
 50
90.0
 51
180.0
  0
ARC
  5
61
  8
1
 62
     7
 10
-403.0
 20
24.293453290434211
 30
0.0
 40
5.0
 50
90.0
 51
180.0
  0
ARC
  5
62
  8
1
 62
     7
 10
-328.5
 20
28.793453290434218
 30
0.0
 40
5.0
 50
0.0
 51
90.0
  0
ARC
  5
63
  8
1
 62
     7
 10
-332.0
 20
24.293453290434211
 30
0.0
 40
5.0
 50
0.0
 51
90.0
  0
ARC
  5
64
  8
1
 62
     7
 10
-332.0
 20
-27.206546709565782
 30
0.0
 40
5.0000000000000107
 50
270.0
 51
0.0
  0
ARC
  5
65
  8
1
 62
     7
 10
-328.5
 20
-32.206546709565778
 30
0.0
 40
5.0
 50
270.0
 51
0.0
  0
ARC
  5
66
  8
1
 62
     7
 10
-403.0
 20
-27.206546709565782
 30
0.0
 40
5.0
 50
180.0
 51
270.0
  0
ARC
  5
67
  8
1
 62
     7
 10
-406.5
 20
-32.206546709565778
 30
0.0
 40
5.0
 50
180.0
 51
270.0
  0
CIRCLE
  5
68
  8
1
 62
     7
 10
-367.5
 20
-32.206546709565778
 30
0.0
 40
3.5
  0
ENDBLK
  5
69
  8
0
  0
ENDSEC
  0
SECTION
  2
ENTITIES
  0
LINE
  5
6A
  8
1
 62
     7
 10
296.47654670243111
 20
33.126407777922019
 30
0.0
 11
272.11254790614919
 21
-35.873592222077967
 31
0.0
  0
LINE
  5
6B
  8
1
 62
     7
 10
272.55922030542712
 20
-32.206546709565757
 30
0.0
 11
272.24187976805263
 21
-32.206546709565757
 31
0.0
  0
LINE
  5
6C
  8
1
 62
     7
 10
279.9443535088767
 20
-37.20654670956575
 30
0.0
 11
273.05549080434702
 21
-37.20654670956575
 31
0.0
  0
LINE
  5
6D
  8
1
 62
     7
 10
302.17121162995647
 20
32.46049880294661
 30
0.0
 11
277.8072128336745
 21
-36.53950119705339
 31
0.0
  0
LINE
  5
6E
  8
1
 62
     7
 10
271.64187976805277
 20
-31.60654670956561
 30
0.0
 11
271.64187976805277
 21
28.29345329043425
 31
0.0
  0
LINE
  5
6F
  8
1
 62
     7
 10
272.64187976805277
 20
29.29345329043425
 30
0.0
 11
294.41571681212542
 21
29.29345329043425
 31
0.0
  0
LINE
  5
70
  8
1
 62
     7
 10
297.41948960062888
 20
33.793453290434229
 30
0.0
 11
301.22826873175848
 21
33.793453290434229
 31
0.0
  0
LINE
  5
71
  8
1
 62
     7
 10
301.83034831854911
 20
31.495157740350429
 30
0.0
 11
305.09140112163323
 21
30.621361275288329
 31
0.0
  0
LINE
  5
72
  8
1
 62
     7
 10
280.94435350887659
 20
-36.20654670956575
 30
0.0
 11
280.94435350887659
 21
-31.70654670956575
 31
0.0
  0
LINE
  5
73
  8
1
 62
     7
 10
281.9443535088767
 20
-30.706546709565739
 30
0.0
 11
304.4443535088767
 21
-30.706546709565739
 31
0.0
  0
LINE
  5
74
  8
1
  6
DASHDOT
 62
     3
 10
-735.0
 20
0.0
 30
0.0
 11
-679.72871870788981
 21
0.0
 31
0.0
  0
LINE
  5
75
  8
1
  6
DASHED
 62
     3
 10
-697.5
 20
-6.0
 30
0.0
 11
-695.42153903091719
 21
-4.8000000000000043
 31
0.0
  0
LINE
  5
76
  8
1
  6
DASHED
 62
     3
 10
-697.5
 20
6.0
 30
0.0
 11
-695.42153903091719
 21
4.8000000000000123
 31
0.0
  0
LINE
  5
77
  8
1
  6
DASHED
 62
     3
 10
-697.5
 20
-6.0
 30
0.0
 11
-722.5
 21
-6.0
 31
0.0
  0
LINE
  5
78
  8
1
  6
DASHED
 62
     3
 10
-697.5
 20
6.0
 30
0.0
 11
-697.5
 21
-6.0
 31
0.0
  0
LINE
  5
79
  8
1
  6
DASHED
 62
     3
 10
-722.5
 20
6.0
 30
0.0
 11
-697.5
 21
6.0
 31
0.0
  0
LINE
  5
7A
  8
1
  6
DASHED
 62
     3
 10
-684.43589838486207
 20
0.0
 30
0.0
 11
-687.89999999999986
 21
-4.8000000000000043
 31
0.0
  0
LINE
  5
7B
  8
1
  6
DASHED
 62
     3
 10
-687.89999999999986
 20
4.8000000000000123
 30
0.0
 11
-684.43589838486207
 21
0.0
 31
0.0
  0
LINE
  5
7C
  8
1
  6
DASHED
 62
     3
 10
-687.89999999999986
 20
-4.8000000000000043
 30
0.0
 11
-722.5
 21
-4.8000000000000043
 31
0.0
  0
LINE
  5
7D
  8
1
  6
DASHED
 62
     3
 10
-687.89999999999986
 20
4.8000000000000123
 30
0.0
 11
-687.89999999999986
 21
-4.8000000000000043
 31
0.0
  0
LINE
  5
7E
  8
1
  6
DASHED
 62
     3
 10
-722.5
 20
4.8000000000000123
 30
0.0
 11
-687.89999999999986
 21
4.8000000000000123
 31
0.0
  0
LINE
  5
7F
  8
1
  6
DASHDOT
 62
     3
 10
0.0
 20
0.0
 30
0.0
 11
-55.271281292110203
 21
0.0000000000000071
 31
0.0
  0
LINE
  5
80
  8
1
  6
DASHED
 62
     3
 10
-37.5
 20
6.0
 30
0.0
 11
-39.578460969082649
 21
4.8000000000000123
 31
0.0
  0
LINE
  5
81
  8
1
  6
DASHED
 62
     3
 10
-37.5
 20
-6.0
 30
0.0
 11
-39.578460969082649
 21
-4.8000000000000043
 31
0.0
  0
LINE
  5
82
  8
1
  6
DASHED
 62
     3
 10
-37.5
 20
6.0
 30
0.0
 11
-12.5
 21
6.0
 31
0.0
  0
LINE
  5
83
  8
1
  6
DASHED
 62
     3
 10
-37.5
 20
-6.0
 30
0.0
 11
-37.5
 21
6.0
 31
0.0
  0
LINE
  5
84
  8
1
  6
DASHED
 62
     3
 10
-12.5
 20
-6.0
 30
0.0
 11
-37.5
 21
-6.0
 31
0.0
  0
LINE
  5
85
  8
1
  6
DASHED
 62
     3
 10
-50.564101615137758
 20
0.0000000000000071
 30
0.0
 11
-47.099999999999987
 21
4.8000000000000123
 31
0.0
  0
LINE
  5
86
  8
1
  6
DASHED
 62
     3
 10
-47.099999999999987
 20
-4.8000000000000043
 30
0.0
 11
-50.564101615137758
 21
0.0000000000000071
 31
0.0
  0
LINE
  5
87
  8
1
  6
DASHED
 62
     3
 10
-47.099999999999987
 20
4.8000000000000123
 30
0.0
 11
-12.5
 21
4.8000000000000123
 31
0.0
  0
LINE
  5
88
  8
1
  6
DASHED
 62
     3
 10
-47.099999999999987
 20
-4.8000000000000043
 30
0.0
 11
-47.099999999999987
 21
4.8000000000000123
 31
0.0
  0
LINE
  5
89
  8
1
  6
DASHED
 62
     3
 10
-12.5
 20
-4.8000000000000043
 30
0.0
 11
-47.099999999999987
 21
-4.8000000000000043
 31
0.0
  0
LINE
  5
8A
  8
1
  6
DASHDOT
 62
     3
 10
-12.5
 20
928.64516373741856
 30
0.0
 11
0.0
 21
928.64516373741856
 31
0.0
  0
LINE
  5
8B
  8
1
 62
     7
 10
-406.5
 20
703.64516373741856
 30
0.0
 11
-504.49999999999989
 21
703.64516373741856
 31
0.0
  0
LINE
  5
8C
  8
1
 62
     7
 10
-411.5
 20
698.64516373741856
 30
0.0
 11
-586.50000000000011
 21
698.64516373741856
 31
0.0
  0
LINE
  5
8D
  8
1
 62
     7
 10
-475.49999999999989
 20
923.64516373741856
 30
0.0
 11
-515.5
 21
923.64516373741856
 31
0.0
  0
LINE
  5
8E
  8
1
 62
     7
 10
-515.5
 20
933.64516373741867
 30
0.0
 11
-475.49999999999989
 21
933.64516373741867
 31
0.0
  0
LINE
  5
8F
  8
1
 62
     7
 10
-219.49999999999989
 20
923.64516373741856
 30
0.0
 11
-259.5
 21
923.64516373741856
 31
0.0
  0
LINE
  5
90
  8
1
 62
     7
 10
-259.5
 20
933.64516373741867
 30
0.0
 11
-219.49999999999989
 21
933.64516373741867
 31
0.0
  0
LINE
  5
91
  8
1
  6
DASHDOT
 62
     3
 10
-567.50000000000011
 20
710.524350512762
 30
0.0
 11
-567.50000000000011
 21
756.76597696207523
 31
0.0
  0
LINE
  5
92
  8
1
  6
DASHDOT
 62
     3
 10
-590.62081322465656
 20
733.64516373741856
 30
0.0
 11
-544.37918677534367
 21
733.64516373741856
 31
0.0
  0
LINE
  5
93
  8
1
 62
     7
 10
-601.50000000000011
 20
713.64516373741856
 30
0.0
 11
-601.50000000000011
 21
808.64516373741867
 31
0.0
  0
LINE
  5
94
  8
1
  6
DASHDOT
 62
     3
 10
-167.5
 20
756.76597696207523
 30
0.0
 11
-167.5
 21
710.524350512762
 31
0.0
  0
LINE
  5
95
  8
1
  6
DASHDOT
 62
     3
 10
-190.62081322465639
 20
733.64516373741856
 30
0.0
 11
-144.37918677534341
 21
733.64516373741856
 31
0.0
  0
LINE
  5
96
  8
1
 62
     7
 10
-133.49999999999989
 20
808.64516373741867
 30
0.0
 11
-133.49999999999989
 21
713.64516373741856
 31
0.0
  0
LINE
  5
97
  8
1
 62
     7
 10
-148.5
 20
698.64516373741856
 30
0.0
 11
-323.49999999999989
 21
698.64516373741856
 31
0.0
  0
LINE
  5
98
  8
1
  6
DASHDOT
 62
     3
 10
-567.50000000000011
 20
1100.524350512763
 30
0.0
 11
-567.50000000000011
 21
1146.765976962075
 31
0.0
  0
LINE
  5
99
  8
1
  6
DASHDOT
 62
     3
 10
-544.37918677534367
 20
1123.645163737418
 30
0.0
 11
-590.62081322465656
 21
1123.645163737418
 31
0.0
  0
LINE
  5
9A
  8
1
 62
     7
 10
-601.50000000000011
 20
1048.645163737418
 30
0.0
 11
-601.50000000000011
 21
1143.645163737418
 31
0.0
  0
LINE
  5
9B
  8
1
 62
     7
 10
-372.50000000000011
 20
1158.6451637374171
 30
0.0
 11
-372.50000000000011
 21
1153.645163737418
 31
0.0
  0
LINE
  5
9C
  8
1
 62
     7
 10
-586.50000000000011
 20
1158.6451637374171
 30
0.0
 11
-372.50000000000011
 21
1158.6451637374171
 31
0.0
  0
LINE
  5
9D
  8
1
 62
     7
 10
-189.69734528346609
 20
1033.6451637374171
 30
0.0
 11
-130.49999999999989
 21
1033.6451637374171
 31
0.0
  0
LINE
  5
9E
  8
1
 62
     7
 10
-362.5
 20
1153.645163737418
 30
0.0
 11
-362.5
 21
1158.6451637374171
 31
0.0
  0
LINE
  5
9F
  8
1
 62
     7
 10
-133.49999999999989
 20
1143.645163737418
 30
0.0
 11
-133.49999999999989
 21
1048.645163737418
 31
0.0
  0
LINE
  5
A0
  8
1
 62
     7
 10
-362.5
 20
1158.6451637374171
 30
0.0
 11
-148.5
 21
1158.6451637374171
 31
0.0
  0
LINE
  5
A1
  8
1
  6
DASHDOT
 62
     3
 10
-167.5
 20
1146.765976962075
 30
0.0
 11
-167.5
 21
1100.524350512763
 31
0.0
  0
LINE
  5
A2
  8
1
  6
DASHDOT
 62
     3
 10
-144.37918677534341
 20
1123.645163737418
 30
0.0
 11
-190.62081322465639
 21
1123.645163737418
 31
0.0
  0
LINE
  5
A3
  8
1
 62
     7
 10
-509.49999999999989
 20
816.14516373741833
 30
0.0
 11
-509.49999999999989
 21
708.64516373741856
 31
0.0
  0
LINE
  5
A4
  8
1
 62
     7
 10
-230.5
 20
703.64516373741856
 30
0.0
 11
-328.5
 21
703.64516373741856
 31
0.0
  0
LINE
  5
A5
  8
1
 62
     7
 10
-504.49999999999989
 20
1153.645163737418
 30
0.0
 11
-230.5
 21
1153.645163737418
 31
0.0
  0
LINE
  5
A6
  8
1
 62
     7
 10
-509.49999999999989
 20
816.14516373741833
 30
0.0
 11
-520.5
 21
816.14516373741833
 31
0.0
  0
LINE
  5
A7
  8
1
 62
     7
 10
-525.49999999999989
 20
821.14516373741833
 30
0.0
 11
-525.49999999999989
 21
1036.145163737418
 31
0.0
  0
LINE
  5
A8
  8
1
 62
     7
 10
-520.5
 20
1041.145163737418
 30
0.0
 11
-509.49999999999989
 21
1041.145163737418
 31
0.0
  0
LINE
  5
A9
  8
1
 62
     7
 10
-214.5
 20
816.14516373741833
 30
0.0
 11
-225.49999999999989
 21
816.14516373741833
 31
0.0
  0
LINE
  5
AA
  8
1
 62
     7
 10
-209.5
 20
1036.145163737418
 30
0.0
 11
-209.5
 21
821.14516373741833
 31
0.0
  0
LINE
  5
AB
  8
1
 62
     7
 10
-225.49999999999989
 20
1041.145163737418
 30
0.0
 11
-214.5
 21
1041.145163737418
 31
0.0
  0
LINE
  5
AC
  8
1
 62
     7
 10
-722.49999999999977
 20
919.64516373741856
 30
0.0
 11
-641.49999999999989
 21
919.64516373741856
 31
0.0
  0
LINE
  5
AD
  8
1
 62
     7
 10
-641.49999999999989
 20
937.64516373741856
 30
0.0
 11
-722.49999999999977
 21
937.64516373741856
 31
0.0
  0
LINE
  5
AE
  8
1
 62
     7
 10
-93.499999999999986
 20
919.64516373741856
 30
0.0
 11
-12.5
 21
919.64516373741856
 31
0.0
  0
LINE
  5
AF
  8
1
 62
     7
 10
-12.5
 20
937.64516373741856
 30
0.0
 11
-93.499999999999986
 21
937.64516373741856
 31
0.0
  0
LINE
  5
B0
  8
1
 62
     7
 10
-209.5
 20
994.34867104048783
 30
0.0
 11
-128.49999999999989
 21
994.34867104048783
 31
0.0
  0
LINE
  5
B1
  8
1
 62
     7
 10
-221.49999999999989
 20
1054.066519974727
 30
0.0
 11
-128.49999999999989
 21
994.34867104048783
 31
0.0
  0
LINE
  5
B2
  8
1
 62
     7
 10
-221.49999999999989
 20
1056.2165199747269
 30
0.0
 11
-212.85677313259561
 21
1056.2165199747269
 31
0.0
  0
LINE
  5
B3
  8
1
 62
     7
 10
-221.49999999999989
 20
1063.141519974728
 30
0.0
 11
-212.85677313259561
 21
1063.141519974728
 31
0.0
  0
LINE
  5
B4
  8
1
 62
     7
 10
-221.49999999999989
 20
1054.066519974727
 30
0.0
 11
-223.49999999999989
 21
1054.066519974727
 31
0.0
  0
LINE
  5
B5
  8
1
 62
     7
 10
-211.50009641207271
 20
1080.485368494551
 30
0.0
 11
-211.50009641207271
 21
1059.679019974729
 31
0.0
  0
LINE
  5
B6
  8
1
 62
     7
 10
-212.85677313259561
 20
1076.991519974729
 30
0.0
 11
-221.49999999999989
 21
1076.991519974729
 31
0.0
  0
LINE
  5
B7
  8
1
 62
     7
 10
-212.85677313259561
 20
1083.916519974729
 30
0.0
 11
-221.49999999999989
 21
1083.916519974729
 31
0.0
  0
LINE
  5
B8
  8
1
 62
     7
 10
-212.85677313259561
 20
773.37380750010914
 30
0.0
 11
-221.49999999999989
 21
773.37380750010914
 31
0.0
  0
LINE
  5
B9
  8
1
 62
     7
 10
-212.85677313259561
 20
780.29880750010898
 30
0.0
 11
-221.49999999999989
 21
780.29880750010898
 31
0.0
  0
LINE
  5
BA
  8
1
 62
     7
 10
-212.85677313259561
 20
794.14880750010911
 30
0.0
 11
-221.49999999999989
 21
794.14880750010911
 31
0.0
  0
LINE
  5
BB
  8
1
 62
     7
 10
-212.85677313259561
 20
801.07380750010907
 30
0.0
 11
-221.49999999999989
 21
801.07380750010907
 31
0.0
  0
LINE
  5
BC
  8
1
 62
     7
 10
-211.5
 20
797.61130750010909
 30
0.0
 11
-211.5
 21
776.83630750010911
 31
0.0
  0
LINE
  5
BD
  8
1
 62
     7
 10
-609.0
 20
888.64516373741856
 30
0.0
 11
-612.5
 21
888.64516373741822
 31
0.0
  0
LINE
  5
BE
  8
1
 62
     7
 10
-612.5
 20
968.64516373741833
 30
0.0
 11
-612.5
 21
888.64516373741822
 31
0.0
  0
LINE
  5
BF
  8
1
 62
     7
 10
-126.0
 20
968.64516373741867
 30
0.0
 11
-122.5
 21
968.64516373741867
 31
0.0
  0
LINE
  5
C0
  8
1
 62
     7
 10
-126.0
 20
883.00332785288776
 30
0.0
 11
-126.0
 21
974.29516373741853
 31
0.0
  0
LINE
  5
C1
  8
1
 62
     7
 10
-128.49999999999989
 20
883.00332785288776
 30
0.0
 11
-126.0
 21
883.00332785288776
 31
0.0
  0
LINE
  5
C2
  8
1
 62
     7
 10
-126.0
 20
974.29516373741853
 30
0.0
 11
-128.49999999999989
 21
974.29516373741853
 31
0.0
  0
LINE
  5
C3
  8
1
 62
     7
 10
-13.5
 20
963.64516373741856
 30
0.0
 11
-12.5
 21
962.64516373741856
 31
0.0
  0
LINE
  5
C4
  8
1
 62
     7
 10
-721.49999999999989
 20
963.64516373741856
 30
0.0
 11
-722.5
 21
962.64516373741856
 31
0.0
  0
LINE
  5
C5
  8
1
 62
     7
 10
-128.49999999999989
 20
1031.645163737418
 30
0.0
 11
-130.49999999999989
 21
1033.6451637374171
 31
0.0
  0
LINE
  5
C6
  8
1
 62
     7
 10
-604.49999999999989
 20
1033.6451637374171
 30
0.0
 11
-606.5
 21
1031.645163737418
 31
0.0
  0
LINE
  5
C7
  8
1
 62
     7
 10
-609.0
 20
974.29516373741853
 30
0.0
 11
-609.0
 21
882.99516373741858
 31
0.0
  0
LINE
  5
C8
  8
1
 62
     7
 10
-604.49999999999989
 20
1033.6451637374171
 30
0.0
 11
-546.81918195152059
 21
1033.6451637374171
 31
0.0
  0
LINE
  5
C9
  8
1
 62
     7
 10
-609.0
 20
968.64516373741867
 30
0.0
 11
-612.5
 21
968.64516373741833
 31
0.0
  0
LINE
  5
CA
  8
1
 62
     7
 10
-606.5
 20
974.29516373741853
 30
0.0
 11
-609.0
 21
974.29516373741853
 31
0.0
  0
LINE
  5
CB
  8
1
 62
     7
 10
-612.5
 20
963.64516373741856
 30
0.0
 11
-721.49999999999989
 21
963.64516373741856
 31
0.0
  0
LINE
  5
CC
  8
1
 62
     7
 10
-122.5
 20
963.64516373741856
 30
0.0
 11
-13.5
 21
963.64516373741856
 31
0.0
  0
LINE
  5
CD
  8
1
 62
     7
 10
-122.5
 20
888.64516373741856
 30
0.0
 11
-122.5
 21
968.64516373741867
 31
0.0
  0
LINE
  5
CE
  8
1
 62
     7
 10
-12.5
 20
894.64516373741856
 30
0.0
 11
-12.5
 21
962.64516373741856
 31
0.0
  0
LINE
  5
CF
  8
1
 62
     7
 10
-13.5
 20
893.64516373741867
 30
0.0
 11
-122.5
 21
893.64516373741867
 31
0.0
  0
LINE
  5
D0
  8
1
 62
     7
 10
-122.5
 20
888.64516373741856
 30
0.0
 11
-126.0
 21
888.64516373741856
 31
0.0
  0
LINE
  5
D1
  8
1
 62
     7
 10
-12.5
 20
894.64516373741856
 30
0.0
 11
-13.5
 21
893.64516373741867
 31
0.0
  0
LINE
  5
D2
  8
1
 62
     7
 10
-130.49999999999989
 20
823.64516373741856
 30
0.0
 11
-189.69734528346609
 21
823.64516373741856
 31
0.0
  0
LINE
  5
D3
  8
1
 62
     7
 10
-130.49999999999989
 20
823.64516373741856
 30
0.0
 11
-189.69734528346609
 21
823.64516373741856
 31
0.0
  0
LINE
  5
D4
  8
1
 62
     7
 10
-130.49999999999989
 20
823.64516373741856
 30
0.0
 11
-128.49999999999989
 21
825.64516373741867
 31
0.0
  0
LINE
  5
D5
  8
1
 62
     7
 10
-722.5
 20
894.64516373741856
 30
0.0
 11
-722.5
 21
928.67711354470646
 31
0.0
  0
LINE
  5
D6
  8
1
 62
     7
 10
-721.49999999999989
 20
893.64516373741867
 30
0.0
 11
-612.5
 21
893.64516373741867
 31
0.0
  0
LINE
  5
D7
  8
1
 62
     7
 10
-722.5
 20
894.64516373741856
 30
0.0
 11
-721.49999999999989
 21
893.64516373741867
 31
0.0
  0
LINE
  5
D8
  8
1
 62
     7
 10
-609.0
 20
882.99516373741858
 30
0.0
 11
-606.5
 21
882.99516373741858
 31
0.0
  0
LINE
  5
D9
  8
1
 62
     7
 10
-606.5
 20
825.64516373741867
 30
0.0
 11
-604.49999999999989
 21
823.64516373741856
 31
0.0
  0
LINE
  5
DA
  8
1
 62
     7
 10
-722.5
 20
928.64516373741856
 30
0.0
 11
-722.5
 21
962.64516373741856
 31
0.0
  0
LINE
  5
DB
  8
1
  6
DASHDOT
 62
     3
 10
-735.0
 20
928.64516373741856
 30
0.0
 11
-722.5
 21
928.64516373741856
 31
0.0
  0
LINE
  5
DC
  8
1
 62
     7
 10
-128.49999999999989
 20
862.94165643434951
 30
0.0
 11
-221.49999999999989
 21
803.22380750010905
 31
0.0
  0
LINE
  5
DD
  8
1
 62
     7
 10
-128.49999999999989
 20
862.94165643434951
 30
0.0
 11
-209.5
 21
862.94165643434951
 31
0.0
  0
LINE
  5
DE
  8
1
 62
     7
 10
-221.49999999999989
 20
803.22380750010905
 30
0.0
 11
-223.50648797991099
 21
803.23031656121066
 31
0.0
  0
LINE
  5
DF
  8
1
 62
     7
 10
-221.49999999999989
 20
803.22380750010905
 30
0.0
 11
-221.49999999999989
 21
771.22380750010916
 31
0.0
  0
LINE
  5
E0
  8
1
 62
     7
 10
-221.49999999999989
 20
771.22380750010916
 30
0.0
 11
-223.49999999999989
 21
771.22380750010916
 31
0.0
  0
LINE
  5
E1
  8
1
 62
     7
 10
-223.49999999999989
 20
1086.0665199747291
 30
0.0
 11
-221.49999999999989
 21
1086.0665199747291
 31
0.0
  0
LINE
  5
E2
  8
1
 62
     7
 10
-513.49999999999977
 20
802.25000379770461
 30
0.0
 11
-606.5
 21
861.96785273194519
 31
0.0
  0
LINE
  5
E3
  8
1
 62
     7
 10
-534.18340403313107
 20
778.25000379770461
 30
0.0
 11
-530.49999999999977
 21
778.25000379770461
 31
0.0
  0
LINE
  5
E4
  8
1
 62
     3
 10
-530.49999999999977
 20
792.65000379770458
 30
0.0
 11
-535.78340403313121
 21
792.65000379770458
 31
0.0
  0
LINE
  5
E5
  8
1
 62
     3
 10
-530.49999999999977
 20
779.85000379770463
 30
0.0
 11
-535.78340403313121
 21
779.85000379770463
 31
0.0
  0
LINE
  5
E6
  8
1
 62
     7
 10
-534.18340403313107
 20
794.25000379770461
 30
0.0
 11
-534.18340403313107
 21
778.25000379770461
 31
0.0
  0
LINE
  5
E7
  8
1
 62
     7
 10
-530.49999999999977
 20
794.25000379770461
 30
0.0
 11
-534.18340403313107
 21
794.25000379770461
 31
0.0
  0
LINE
  5
E8
  8
1
 62
     7
 10
-534.18340403313107
 20
794.25000379770461
 30
0.0
 11
-535.78340403313121
 21
792.65000379770458
 31
0.0
  0
LINE
  5
E9
  8
1
 62
     7
 10
-535.78340403313121
 20
792.65000379770458
 30
0.0
 11
-535.78340403313121
 21
779.85000379770463
 31
0.0
  0
LINE
  5
EA
  8
1
 62
     7
 10
-535.78340403313121
 20
779.85000379770463
 30
0.0
 11
-534.18340403313107
 21
778.25000379770461
 31
0.0
  0
LINE
  5
EB
  8
1
 62
     7
 10
-530.49999999999977
 20
796.63750379770465
 30
0.0
 11
-530.49999999999977
 21
775.86250379770456
 31
0.0
  0
LINE
  5
EC
  8
1
 62
     7
 10
-517.49999999999977
 20
772.40000379770447
 30
0.0
 11
-529.14322686740434
 21
772.40000379770447
 31
0.0
  0
LINE
  5
ED
  8
1
 62
     7
 10
-517.49999999999977
 20
779.32500379770465
 30
0.0
 11
-529.14322686740434
 21
779.32500379770465
 31
0.0
  0
LINE
  5
EE
  8
1
 62
     7
 10
-517.49999999999977
 20
793.17500379770479
 30
0.0
 11
-529.14322686740434
 21
793.17500379770479
 31
0.0
  0
LINE
  5
EF
  8
1
 62
     7
 10
-517.49999999999977
 20
800.10000379770463
 30
0.0
 11
-529.14322686740434
 21
800.10000379770463
 31
0.0
  0
LINE
  5
F0
  8
1
 62
     7
 10
-513.49999999999977
 20
772.25000379770461
 30
0.0
 11
-517.49999999999977
 21
772.25000379770461
 31
0.0
  0
LINE
  5
F1
  8
1
 62
     7
 10
-517.49999999999977
 20
772.25000379770461
 30
0.0
 11
-517.49999999999977
 21
800.25000379770461
 31
0.0
  0
LINE
  5
F2
  8
1
 62
     7
 10
-517.49999999999977
 20
800.25000379770461
 30
0.0
 11
-513.49999999999977
 21
800.25000379770461
 31
0.0
  0
LINE
  5
F3
  8
1
 62
     7
 10
-517.49999999999977
 20
786.25000379770461
 30
0.0
 11
-513.49999999999977
 21
782.25000379770461
 31
0.0
  0
LINE
  5
F4
  8
1
 62
     7
 10
-517.49999999999977
 20
790.25000379770461
 30
0.0
 11
-513.49999999999977
 21
786.25000379770461
 31
0.0
  0
LINE
  5
F5
  8
1
 62
     7
 10
-511.49999999999977
 20
770.25000379770461
 30
0.0
 11
-513.49999999999977
 21
770.25000379770461
 31
0.0
  0
LINE
  5
F6
  8
1
 62
     7
 10
-513.49999999999977
 20
770.25000379770461
 30
0.0
 11
-513.49999999999977
 21
802.25000379770461
 31
0.0
  0
LINE
  5
F7
  8
1
 62
     7
 10
-511.49351202008887
 20
802.25651285880633
 30
0.0
 11
-513.49999999999977
 21
802.25000379770461
 31
0.0
  0
LINE
  5
F8
  8
1
 62
     7
 10
-525.49999999999989
 20
861.96785273194519
 30
0.0
 11
-606.5
 21
861.96785273194519
 31
0.0
  0
LINE
  5
F9
  8
1
 62
     7
 10
-546.81918195152082
 20
823.64516373741856
 30
0.0
 11
-604.49999999999989
 21
823.64516373741856
 31
0.0
  0
LINE
  5
FA
  8
1
 62
     7
 10
-513.49999999999977
 20
1087.0403236771331
 30
0.0
 11
-511.49999999999977
 21
1087.0403236771331
 31
0.0
  0
LINE
  5
FB
  8
1
 62
     7
 10
-513.49999999999977
 20
1071.0403236771331
 30
0.0
 11
-517.49999999999977
 21
1067.0403236771331
 31
0.0
  0
LINE
  5
FC
  8
1
 62
     7
 10
-513.49999999999977
 20
1075.0403236771331
 30
0.0
 11
-517.49999999999977
 21
1071.0403236771331
 31
0.0
  0
LINE
  5
FD
  8
1
 62
     7
 10
-517.49999999999977
 20
1085.0403236771331
 30
0.0
 11
-513.49999999999977
 21
1085.0403236771331
 31
0.0
  0
LINE
  5
FE
  8
1
 62
     7
 10
-513.49999999999977
 20
1087.0403236771331
 30
0.0
 11
-513.49999999999977
 21
1055.0403236771331
 31
0.0
  0
LINE
  5
FF
  8
1
 62
     7
 10
-529.14322686740434
 20
1057.190323677132
 30
0.0
 11
-517.49999999999977
 21
1057.190323677132
 31
0.0
  0
LINE
  5
100
  8
1
 62
     7
 10
-529.14322686740434
 20
1064.115323677132
 30
0.0
 11
-517.49999999999977
 21
1064.115323677132
 31
0.0
  0
LINE
  5
101
  8
1
 62
     7
 10
-529.14322686740434
 20
1077.965323677133
 30
0.0
 11
-517.49999999999977
 21
1077.965323677133
 31
0.0
  0
LINE
  5
102
  8
1
 62
     7
 10
-529.14322686740434
 20
1084.8903236771321
 30
0.0
 11
-517.49999999999977
 21
1084.8903236771321
 31
0.0
  0
LINE
  5
103
  8
1
 62
     7
 10
-530.49999999999977
 20
1081.427823677132
 30
0.0
 11
-530.49999999999977
 21
1060.652823677133
 31
0.0
  0
LINE
  5
104
  8
1
 62
     7
 10
-534.18340403313107
 20
1079.0403236771331
 30
0.0
 11
-535.78340403313121
 21
1077.440323677132
 31
0.0
  0
LINE
  5
105
  8
1
 62
     7
 10
-535.78340403313121
 20
1077.440323677132
 30
0.0
 11
-535.78340403313121
 21
1064.640323677133
 31
0.0
  0
LINE
  5
106
  8
1
 62
     7
 10
-535.78340403313121
 20
1064.640323677133
 30
0.0
 11
-534.18340403313107
 21
1063.0403236771331
 31
0.0
  0
LINE
  5
107
  8
1
 62
     7
 10
-534.18340403313107
 20
1063.0403236771331
 30
0.0
 11
-530.49999999999977
 21
1063.0403236771331
 31
0.0
  0
LINE
  5
108
  8
1
 62
     7
 10
-534.18340403313107
 20
1079.0403236771331
 30
0.0
 11
-534.18340403313107
 21
1063.0403236771331
 31
0.0
  0
LINE
  5
109
  8
1
 62
     3
 10
-535.78340403313121
 20
1077.440323677132
 30
0.0
 11
-530.49999999999977
 21
1077.440323677132
 31
0.0
  0
LINE
  5
10A
  8
1
 62
     3
 10
-535.78340403313121
 20
1064.640323677133
 30
0.0
 11
-530.49999999999977
 21
1064.640323677133
 31
0.0
  0
LINE
  5
10B
  8
1
 62
     7
 10
-530.49999999999977
 20
1079.0403236771331
 30
0.0
 11
-534.18340403313107
 21
1079.0403236771331
 31
0.0
  0
LINE
  5
10C
  8
1
 62
     7
 10
-517.49999999999977
 20
1057.0403236771331
 30
0.0
 11
-517.49999999999977
 21
1085.0403236771331
 31
0.0
  0
LINE
  5
10D
  8
1
 62
     7
 10
-606.5
 20
995.3224747428917
 30
0.0
 11
-525.49999999999989
 21
995.3224747428917
 31
0.0
  0
LINE
  5
10E
  8
1
 62
     7
 10
-606.5
 20
995.3224747428917
 30
0.0
 11
-513.49999999999977
 21
1055.0403236771331
 31
0.0
  0
LINE
  5
10F
  8
1
 62
     7
 10
-513.49999999999977
 20
1057.0403236771331
 30
0.0
 11
-517.49999999999977
 21
1057.0403236771331
 31
0.0
  0
LINE
  5
110
  8
1
 62
     7
 10
-511.49999999999977
 20
1055.0403236771331
 30
0.0
 11
-513.49999999999977
 21
1055.0403236771331
 31
0.0
  0
LINE
  5
111
  8
1
 62
     7
 10
-189.69734528346609
 20
105.0
 30
0.0
 11
-130.49999999999989
 21
105.0
 31
0.0
  0
LINE
  5
112
  8
1
 62
     7
 10
-222.49999999999989
 20
59.999999999999922
 30
0.0
 11
-225.49999999999989
 21
62.999999999999922
 31
0.0
  0
LINE
  5
113
  8
1
 62
     7
 10
-222.49999999999989
 20
62.999999999999922
 30
0.0
 11
-225.49999999999989
 21
65.999999999999929
 31
0.0
  0
LINE
  5
114
  8
1
 62
     7
 10
-222.49999999999989
 20
52.249999999999922
 30
0.0
 11
-225.49999999999989
 21
52.249999999999922
 31
0.0
  0
LINE
  5
115
  8
1
 62
     7
 10
-222.49999999999989
 20
73.749999999999915
 30
0.0
 11
-222.49999999999989
 21
52.249999999999922
 31
0.0
  0
LINE
  5
116
  8
1
 62
     7
 10
-225.49999999999989
 20
73.749999999999915
 30
0.0
 11
-222.49999999999989
 21
73.749999999999915
 31
0.0
  0
LINE
  5
117
  8
1
 62
     7
 10
-211.1999999999999
 20
53.999999999999922
 30
0.0
 11
-222.49999999999989
 21
53.999999999999922
 31
0.0
  0
LINE
  5
118
  8
1
 62
     7
 10
-210.49999999999989
 20
55.212435565298108
 30
0.0
 11
-211.1999999999999
 21
53.999999999999922
 31
0.0
  0
LINE
  5
119
  8
1
 62
     7
 10
-210.49999999999989
 20
70.787564434701721
 30
0.0
 11
-210.49999999999989
 21
55.212435565298108
 31
0.0
  0
LINE
  5
11A
  8
1
 62
     7
 10
-211.1999999999999
 20
71.999999999999929
 30
0.0
 11
-210.49999999999989
 21
70.787564434701721
 31
0.0
  0
LINE
  5
11B
  8
1
 62
     7
 10
-222.49999999999989
 20
71.999999999999929
 30
0.0
 11
-211.1999999999999
 21
71.999999999999929
 31
0.0
  0
LINE
  5
11C
  8
1
 62
     7
 10
-211.1999999999999
 20
71.999999999999929
 30
0.0
 11
-211.1999999999999
 21
53.999999999999922
 31
0.0
  0
LINE
  5
11D
  8
1
 62
     7
 10
-210.49999999999989
 20
65.703507303069017
 30
0.0
 11
-128.49999999999989
 21
65.703507303069017
 31
0.0
  0
LINE
  5
11E
  8
1
 62
     7
 10
-221.49999999999989
 20
125.4213562373093
 30
0.0
 11
-128.49999999999989
 21
65.703507303069017
 31
0.0
  0
LINE
  5
11F
  8
1
 62
     7
 10
-211.50009641207271
 20
147.84271247461899
 30
0.0
 11
-211.50009641207271
 21
131.0025077174856
 31
0.0
  0
LINE
  5
120
  8
1
 62
     7
 10
-221.49999999999989
 20
127.5713562373093
 30
0.0
 11
-212.85677313259561
 21
127.5713562373093
 31
0.0
  0
LINE
  5
121
  8
1
 62
     7
 10
-221.49999999999989
 20
134.4963562373093
 30
0.0
 11
-212.85677313259561
 21
134.4963562373093
 31
0.0
  0
LINE
  5
122
  8
1
 62
     7
 10
-221.49999999999989
 20
125.4213562373093
 30
0.0
 11
-223.49999999999989
 21
125.4213562373093
 31
0.0
  0
LINE
  5
123
  8
1
 62
     7
 10
-211.50009641207271
 20
151.84020475713331
 30
0.0
 11
-211.50009641207271
 21
135.0
 31
0.0
  0
LINE
  5
124
  8
1
 62
     7
 10
-212.85677313259561
 20
148.34635623730949
 30
0.0
 11
-221.49999999999989
 21
148.34635623730949
 31
0.0
  0
LINE
  5
125
  8
1
 62
     7
 10
-212.85677313259561
 20
155.27135623730939
 30
0.0
 11
-221.49999999999989
 21
155.27135623730939
 31
0.0
  0
LINE
  5
126
  8
1
 62
     7
 10
-212.85677313259561
 20
-155.27135623730939
 30
0.0
 11
-221.49999999999989
 21
-155.27135623730939
 31
0.0
  0
LINE
  5
127
  8
1
 62
     7
 10
-212.85677313259561
 20
-148.34635623730949
 30
0.0
 11
-221.49999999999989
 21
-148.34635623730949
 31
0.0
  0
LINE
  5
128
  8
1
 62
     7
 10
-212.85677313259561
 20
-134.4963562373095
 30
0.0
 11
-221.49999999999989
 21
-134.4963562373095
 31
0.0
  0
LINE
  5
129
  8
1
 62
     7
 10
-212.85677313259561
 20
-127.5713562373094
 30
0.0
 11
-221.49999999999989
 21
-127.5713562373094
 31
0.0
  0
LINE
  5
12A
  8
1
 62
     7
 10
-211.5
 20
-131.03385623730941
 30
0.0
 11
-211.5
 21
-151.8088562373095
 31
0.0
  0
LINE
  5
12B
  8
1
 62
     7
 10
-596.49999999999989
 20
-197.0
 30
0.0
 11
-509.49999999999972
 21
-160.39515993971401
 31
0.0
  0
LINE
  5
12C
  8
1
 62
     7
 10
-225.49999999999989
 20
-160.5940481808521
 30
0.0
 11
-137.4100215850977
 21
-197.12025133279931
 31
0.0
  0
LINE
  5
12D
  8
1
 62
     7
 10
-392.5
 20
-44.070839975059322
 30
0.0
 11
-392.5
 21
-44.228298319845557
 31
0.0
  0
LINE
  5
12E
  8
1
 62
     7
 10
-499.5
 20
-39.070839975059322
 30
0.0
 11
-397.5
 21
-39.070839975059322
 31
0.0
  0
LINE
  5
12F
  8
1
 62
     7
 10
-392.5
 20
-44.135061246017337
 30
0.0
 11
-392.5
 21
-77.289859515784485
 31
0.0
  0
LINE
  5
130
  8
1
 62
     7
 10
-484.49999999999989
 20
-71.513197767723881
 30
0.0
 11
-397.5
 21
-71.513197767723881
 31
0.0
  0
LINE
  5
131
  8
1
 62
     7
 10
-499.5
 20
-82.289859515784485
 30
0.0
 11
-397.5
 21
-82.289859515784485
 31
0.0
  0
LINE
  5
132
  8
1
 62
     7
 10
-235.49999999999989
 20
-82.289859515784485
 30
0.0
 11
-337.5
 21
-82.289859515784485
 31
0.0
  0
LINE
  5
133
  8
1
 62
     7
 10
-395.5
 20
-91.515744692055037
 30
0.0
 11
-395.5
 21
-194.0
 31
0.0
  0
LINE
  5
134
  8
1
 62
     7
 10
-499.5
 20
-100.5607686686365
 30
0.0
 11
-395.5
 21
-100.5607686686365
 31
0.0
  0
LINE
  5
135
  8
1
 62
     7
 10
-499.5
 20
-135.40838020921089
 30
0.0
 11
-400.49999999999989
 21
-135.40838020921089
 31
0.0
  0
LINE
  5
136
  8
1
 62
     7
 10
-484.49999999999989
 20
-121.59445240895229
 30
0.0
 11
-400.50000000000011
 21
-121.59445240895229
 31
0.0
  0
LINE
  5
137
  8
1
 62
     7
 10
-235.49999999999989
 20
-135.40838020921089
 30
0.0
 11
-334.5
 21
-135.40838020921089
 31
0.0
  0
LINE
  5
138
  8
1
 62
     7
 10
-250.49999999999989
 20
-121.59445240895229
 30
0.0
 11
-334.5
 21
-121.59445240895229
 31
0.0
  0
LINE
  5
139
  8
1
 62
     7
 10
-235.49999999999989
 20
-100.5607686686365
 30
0.0
 11
-339.5
 21
-100.5607686686365
 31
0.0
  0
LINE
  5
13A
  8
1
 62
     7
 10
-372.5
 20
-91.515744692055037
 30
0.0
 11
-372.5
 21
-227.0
 31
0.0
  0
LINE
  5
13B
  8
1
 62
     7
 10
-377.63621767612602
 20
-227.0
 30
0.0
 11
-372.5
 21
-227.0
 31
0.0
  0
LINE
  5
13C
  8
1
 62
     7
 10
-596.49999999999989
 20
-197.0
 30
0.0
 11
-372.5
 21
-197.0
 31
0.0
  0
LINE
  5
13D
  8
1
 62
     7
 10
-395.5
 20
-91.515744692055037
 30
0.0
 11
-372.5
 21
-91.515744692055037
 31
0.0
  0
LINE
  5
13E
  8
1
 62
     7
 10
-601.5
 20
-227.0
 30
0.0
 11
-377.49999999999989
 21
-227.0
 31
0.0
  0
LINE
  5
13F
  8
1
 62
     7
 10
-612.5
 20
-40.0
 30
0.0
 11
-612.5
 21
40.0
 31
0.0
  0
LINE
  5
140
  8
1
 62
     7
 10
-609.0
 20
-39.999999999999993
 30
0.0
 11
-612.5
 21
-40.0
 31
0.0
  0
LINE
  5
141
  8
1
 62
     7
 10
-126.0
 20
40.0
 30
0.0
 11
-122.5
 21
40.0
 31
0.0
  0
LINE
  5
142
  8
1
 62
     7
 10
-126.0
 20
-45.641835884530849
 30
0.0
 11
-126.0
 21
45.650000000000013
 31
0.0
  0
LINE
  5
143
  8
1
 62
     7
 10
-128.49999999999989
 20
-45.641835884530849
 30
0.0
 11
-126.0
 21
-45.641835884530849
 31
0.0
  0
LINE
  5
144
  8
1
 62
     7
 10
-126.0
 20
45.650000000000013
 30
0.0
 11
-128.49999999999989
 21
45.650000000000013
 31
0.0
  0
LINE
  5
145
  8
1
 62
     7
 10
-13.5
 20
35.0
 30
0.0
 11
-12.5
 21
34.0
 31
0.0
  0
LINE
  5
146
  8
1
 62
     7
 10
-721.49999999999989
 20
35.0
 30
0.0
 11
-722.5
 21
34.0
 31
0.0
  0
LINE
  5
147
  8
1
 62
     7
 10
-128.49999999999989
 20
103.0
 30
0.0
 11
-130.49999999999989
 21
105.0
 31
0.0
  0
LINE
  5
148
  8
1
 62
     7
 10
-604.49999999999989
 20
105.0
 30
0.0
 11
-606.5
 21
103.0
 31
0.0
  0
LINE
  5
149
  8
1
 62
     7
 10
-525.49999999999989
 20
220.0
 30
0.0
 11
-525.49999999999989
 21
212.0
 31
0.0
  0
LINE
  5
14A
  8
1
 62
     7
 10
-514.5
 20
209.0
 30
0.0
 11
-522.5
 21
209.0
 31
0.0
  0
LINE
  5
14B
  8
1
 62
     7
 10
-220.5
 20
209.0
 30
0.0
 11
-212.5
 21
209.0
 31
0.0
  0
LINE
  5
14C
  8
1
 62
     7
 10
-209.5
 20
220.0
 30
0.0
 11
-209.5
 21
212.0
 31
0.0
  0
LINE
  5
14D
  8
1
 62
     7
 10
-609.0
 20
45.650000000000013
 30
0.0
 11
-609.0
 21
-45.649999999999999
 31
0.0
  0
LINE
  5
14E
  8
1
 62
     7
 10
-604.49999999999989
 20
105.0
 30
0.0
 11
-546.81918195152059
 21
105.0
 31
0.0
  0
LINE
  5
14F
  8
1
 62
     7
 10
-609.0
 20
40.0
 30
0.0
 11
-612.5
 21
40.0
 31
0.0
  0
LINE
  5
150
  8
1
 62
     7
 10
-606.5
 20
45.650000000000013
 30
0.0
 11
-609.0
 21
45.650000000000013
 31
0.0
  0
LINE
  5
151
  8
1
 62
     7
 10
-612.5
 20
35.0
 30
0.0
 11
-721.49999999999989
 21
35.0
 31
0.0
  0
LINE
  5
152
  8
1
 62
     7
 10
-122.5
 20
-40.0
 30
0.0
 11
-122.5
 21
40.0
 31
0.0
  0
LINE
  5
153
  8
1
 62
     7
 10
-122.5
 20
35.0
 30
0.0
 11
-13.5
 21
35.0
 31
0.0
  0
LINE
  5
154
  8
1
 62
     7
 10
300.18486185979219
 20
-227.0
 30
0.0
 11
300.18486185979219
 21
-202.0
 31
0.0
  0
LINE
  5
155
  8
1
 62
     7
 10
300.18486185979219
 20
-227.0
 30
0.0
 11
425.18486185979219
 21
-227.0
 31
0.0
  0
LINE
  5
156
  8
1
 62
     7
 10
305.18486185979208
 20
-197.0
 30
0.0
 11
365.7099094627805
 21
-197.0
 31
0.0
  0
LINE
  5
157
  8
1
 62
     7
 10
365.18486185979208
 20
-192.0
 30
0.0
 11
365.18486185979208
 21
-158.7450786638754
 31
0.0
  0
LINE
  5
158
  8
1
 62
     7
 10
447.91758727117548
 20
-72.367779652005026
 30
0.0
 11
395.99981576113089
 21
-124.2855511620497
 31
0.0
  0
LINE
  5
159
  8
1
 62
     7
 10
457.81708220778711
 20
-82.267274588616644
 30
0.0
 11
405.89931069774241
 21
-134.18504609866139
 31
0.0
  0
LINE
  5
15A
  8
1
 62
     7
 10
399.18486185979208
 20
-192.0
 30
0.0
 11
399.18486185979208
 21
-161.7095029379864
 31
0.0
  0
LINE
  5
15B
  8
1
 62
     7
 10
300.18486185979219
 20
-199.3826959723182
 30
0.0
 11
324.63713389020688
 21
-91.515744692055037
 31
0.0
  0
LINE
  5
15C
  8
1
 62
     7
 10
365.18486185979208
 20
-197.0
 30
0.0
 11
420.18486185979219
 21
-197.0
 31
0.0
  0
LINE
  5
15D
  8
1
 62
     7
 10
430.89539869137462
 20
-155.630954674012
 30
0.0
 11
430.13832264339999
 21
-155.630954674012
 31
0.0
  0
LINE
  5
15E
  8
1
 62
     7
 10
400.86612837258377
 20
-160.630954674012
 30
0.0
 11
423.86415490941391
 21
-160.630954674012
 31
0.0
  0
LINE
  5
15F
  8
1
  6
DASHED
 62
     3
 10
324.68486185979219
 20
-200.0
 30
0.0
 11
324.68486185979219
 21
-227.0
 31
0.0
  0
LINE
  5
160
  8
1
  6
DASHED
 62
     3
 10
345.68486185979219
 20
-200.0
 30
0.0
 11
345.68486185979219
 21
-227.0
 31
0.0
  0
LINE
  5
161
  8
1
  6
DASHED
 62
     3
 10
316.68486185979219
 20
-197.0
 30
0.0
 11
316.68486185979219
 21
-200.0
 31
0.0
  0
LINE
  5
162
  8
1
  6
DASHED
 62
     3
 10
353.68486185979219
 20
-197.0
 30
0.0
 11
353.68486185979219
 21
-200.0
 31
0.0
  0
LINE
  5
163
  8
1
  6
DASHDOT
 62
     3
 10
335.18486185979219
 20
-192.86034737700211
 30
0.0
 11
335.18486185979219
 21
-230.4530873244976
 31
0.0
  0
LINE
  5
164
  8
1
  6
DASHED
 62
     3
 10
316.68486185979219
 20
-200.0
 30
0.0
 11
353.68486185979219
 21
-200.0
 31
0.0
  0
LINE
  5
165
  8
1
 62
     7
 10
400.76350562248268
 20
-134.49315300703401
 30
0.0
 11
388.76350562248263
 21
-127.5649497767584
 31
0.0
  0
LINE
  5
166
  8
1
 62
     7
 10
388.76350562248263
 20
-127.5649497767584
 30
0.0
 11
376.76350562248263
 21
-134.49315300703401
 31
0.0
  0
LINE
  5
167
  8
1
 62
     7
 10
376.76350562248263
 20
-134.49315300703401
 30
0.0
 11
376.76350562248263
 21
-148.3495594675849
 31
0.0
  0
LINE
  5
168
  8
1
 62
     7
 10
376.76350562248263
 20
-148.3495594675849
 30
0.0
 11
388.76350562248263
 21
-155.27776269786051
 31
0.0
  0
LINE
  5
169
  8
1
 62
     7
 10
388.76350562248263
 20
-155.27776269786051
 30
0.0
 11
400.76350562248268
 21
-148.3495594675849
 31
0.0
  0
LINE
  5
16A
  8
1
 62
     7
 10
400.76350562248268
 20
-148.3495594675849
 30
0.0
 11
400.76350562248268
 21
-134.49315300703401
 31
0.0
  0
LINE
  5
16B
  8
1
 62
     7
 10
633.18486185979225
 20
-225.0
 30
0.0
 11
427.18486185979208
 21
-225.0
 31
0.0
  0
LINE
  5
16C
  8
1
 62
     7
 10
308.60311743204551
 20
-39.070839975059322
 30
0.0
 11
325.36615627837512
 21
-36.115063947787291
 31
0.0
  0
LINE
  5
16D
  8
1
 62
     7
 10
320.77287791218612
 20
-82.289859515784485
 30
0.0
 11
336.47153122067692
 21
-75.300368742130573
 31
0.0
  0
LINE
  5
16E
  8
1
 62
     7
 10
328.90761077370212
 20
-100.5607686686365
 30
0.0
 11
344.60626408219309
 21
-93.571277894982586
 31
0.0
  0
LINE
  5
16F
  8
1
 62
     7
 10
350.49187209915141
 20
-135.40838020921089
 30
0.0
 11
364.08595484071469
 21
-125.16450410187321
 31
0.0
  0
LINE
  5
170
  8
1
 62
     7
 10
709.87785162043315
 20
-135.40838020921089
 30
0.0
 11
696.28376887886975
 21
-125.16450410187321
 31
0.0
  0
LINE
  5
171
  8
1
 62
     7
 10
731.46211294588261
 20
-100.5607686686365
 30
0.0
 11
715.76345963739152
 21
-93.571277894982572
 31
0.0
  0
LINE
  5
172
  8
1
 62
     7
 10
739.59684580739838
 20
-82.289859515784485
 30
0.0
 11
723.89819249890718
 21
-75.300368742130473
 31
0.0
  0
LINE
  5
173
  8
1
 62
     7
 10
751.76660628753916
 20
-39.070839975059322
 30
0.0
 11
735.00356744120961
 21
-36.115063947787313
 31
0.0
  0
LINE
  5
174
  8
1
 62
     7
 10
659.60621809710176
 20
-134.49315300703401
 30
0.0
 11
659.60621809710176
 21
-148.3495594675849
 31
0.0
  0
LINE
  5
175
  8
1
 62
     7
 10
659.60621809710176
 20
-148.3495594675849
 30
0.0
 11
671.60621809710176
 21
-155.27776269786051
 31
0.0
  0
LINE
  5
176
  8
1
 62
     7
 10
671.60621809710176
 20
-155.27776269786051
 30
0.0
 11
683.60621809710176
 21
-148.3495594675849
 31
0.0
  0
LINE
  5
177
  8
1
 62
     7
 10
683.60621809710176
 20
-148.3495594675849
 30
0.0
 11
683.60621809710176
 21
-134.49315300703401
 31
0.0
  0
LINE
  5
178
  8
1
 62
     7
 10
683.60621809710176
 20
-134.49315300703401
 30
0.0
 11
671.60621809710176
 21
-127.5649497767584
 31
0.0
  0
LINE
  5
179
  8
1
 62
     7
 10
671.60621809710176
 20
-127.5649497767584
 30
0.0
 11
659.60621809710176
 21
-134.49315300703401
 31
0.0
  0
LINE
  5
17A
  8
1
  6
DASHED
 62
     3
 10
706.68486185979225
 20
-200.0
 30
0.0
 11
743.68486185979225
 21
-200.0
 31
0.0
  0
LINE
  5
17B
  8
1
  6
DASHDOT
 62
     3
 10
725.18486185979225
 20
-230.4530873244976
 30
0.0
 11
725.18486185979225
 21
-192.86034737700211
 31
0.0
  0
LINE
  5
17C
  8
1
  6
DASHED
 62
     3
 10
706.68486185979225
 20
-200.0
 30
0.0
 11
706.68486185979225
 21
-197.0
 31
0.0
  0
LINE
  5
17D
  8
1
  6
DASHED
 62
     3
 10
743.68486185979225
 20
-200.0
 30
0.0
 11
743.68486185979225
 21
-197.0
 31
0.0
  0
LINE
  5
17E
  8
1
  6
DASHED
 62
     3
 10
714.68486185979225
 20
-227.0
 30
0.0
 11
714.68486185979225
 21
-200.0
 31
0.0
  0
LINE
  5
17F
  8
1
  6
DASHED
 62
     3
 10
735.68486185979225
 20
-227.0
 30
0.0
 11
735.68486185979225
 21
-200.0
 31
0.0
  0
LINE
  5
180
  8
1
 62
     7
 10
636.50556881017064
 20
-160.630954674012
 30
0.0
 11
659.50359534700067
 21
-160.630954674012
 31
0.0
  0
LINE
  5
181
  8
1
 62
     7
 10
630.23140107618451
 20
-155.630954674012
 30
0.0
 11
629.47432502821016
 21
-155.630954674012
 31
0.0
  0
LINE
  5
182
  8
1
 62
     7
 10
694.65981425680422
 20
-197.0
 30
0.0
 11
755.18486185979225
 21
-197.0
 31
0.0
  0
LINE
  5
183
  8
1
 62
     7
 10
640.18486185979236
 20
-197.0
 30
0.0
 11
665.69070774567081
 21
-197.0
 31
0.0
  0
LINE
  5
184
  8
1
 62
     7
 10
666.18486185979225
 20
-197.0
 30
0.0
 11
695.18486185979236
 21
-197.0
 31
0.0
  0
LINE
  5
185
  8
1
 62
     7
 10
661.18486185979236
 20
-161.7095029379864
 30
0.0
 11
661.18486185979236
 21
-192.0
 31
0.0
  0
LINE
  5
186
  8
1
 62
     7
 10
654.47041302184232
 20
-134.18504609866139
 30
0.0
 11
602.55264151179745
 21
-82.267274588616644
 31
0.0
  0
LINE
  5
187
  8
1
 62
     7
 10
664.36990795845361
 20
-124.2855511620497
 30
0.0
 11
612.45213644840885
 21
-72.367779652005026
 31
0.0
  0
LINE
  5
188
  8
1
 62
     7
 10
695.18486185979236
 20
-158.7450786638754
 30
0.0
 11
695.18486185979236
 21
-192.0
 31
0.0
  0
LINE
  5
189
  8
1
 62
     7
 10
635.18486185979225
 20
-227.0
 30
0.0
 11
760.18486185979225
 21
-227.0
 31
0.0
  0
LINE
  5
18A
  8
1
 62
     7
 10
760.18486185979225
 20
-202.0
 30
0.0
 11
760.18486185979225
 21
-227.0
 31
0.0
  0
LINE
  5
18B
  8
1
 62
     7
 10
654.47041302184198
 20
134.18504609866139
 30
0.0
 11
602.55264151179722
 21
82.267274588616715
 31
0.0
  0
LINE
  5
18C
  8
1
 62
     7
 10
664.36990795845361
 20
124.2855511620499
 30
0.0
 11
612.45213644840885
 21
72.367779652005225
 31
0.0
  0
LINE
  5
18D
  8
1
 62
     7
 10
657.74981163655059
 20
141.42135623730951
 30
0.0
 11
664.67801486682629
 21
129.42135623730951
 31
0.0
  0
LINE
  5
18E
  8
1
 62
     7
 10
664.67801486682629
 20
153.42135623730951
 30
0.0
 11
657.74981163655059
 21
141.42135623730951
 31
0.0
  0
LINE
  5
18F
  8
1
 62
     7
 10
678.53442132737723
 20
153.42135623730951
 30
0.0
 11
664.67801486682629
 21
153.42135623730951
 31
0.0
  0
LINE
  5
190
  8
1
 62
     7
 10
685.46262455765259
 20
141.42135623730951
 30
0.0
 11
678.53442132737723
 21
153.42135623730951
 31
0.0
  0
LINE
  5
191
  8
1
 62
     7
 10
678.53442132737723
 20
129.42135623730951
 30
0.0
 11
685.46262455765259
 21
141.42135623730951
 31
0.0
  0
LINE
  5
192
  8
1
 62
     7
 10
664.67801486682629
 20
129.42135623730951
 30
0.0
 11
678.53442132737723
 21
129.42135623730951
 31
0.0
  0
LINE
  5
193
  8
1
 62
     7
 10
395.99981576113078
 20
124.2855511620497
 30
0.0
 11
447.91758727117548
 21
72.367779652005026
 31
0.0
  0
LINE
  5
194
  8
1
 62
     7
 10
405.89931069774229
 20
134.18504609866139
 30
0.0
 11
457.81708220778711
 21
82.267274588616587
 31
0.0
  0
LINE
  5
195
  8
1
 62
     7
 10
388.76350562248263
 20
127.5649497767584
 30
0.0
 11
400.76350562248263
 21
134.49315300703401
 31
0.0
  0
LINE
  5
196
  8
1
 62
     7
 10
376.76350562248263
 20
134.49315300703401
 30
0.0
 11
388.76350562248263
 21
127.5649497767584
 31
0.0
  0
LINE
  5
197
  8
1
 62
     7
 10
376.76350562248263
 20
148.3495594675849
 30
0.0
 11
376.76350562248263
 21
134.49315300703401
 31
0.0
  0
LINE
  5
198
  8
1
 62
     7
 10
388.76350562248263
 20
155.27776269786051
 30
0.0
 11
376.76350562248263
 21
148.3495594675849
 31
0.0
  0
LINE
  5
199
  8
1
 62
     7
 10
400.76350562248263
 20
148.3495594675849
 30
0.0
 11
388.76350562248263
 21
155.27776269786051
 31
0.0
  0
LINE
  5
19A
  8
1
 62
     7
 10
400.76350562248263
 20
134.49315300703401
 30
0.0
 11
400.76350562248263
 21
148.3495594675849
 31
0.0
  0
LINE
  5
19B
  8
1
 62
     7
 10
644.30406273663152
 20
65.886751345948099
 30
0.0
 11
639.30406273663152
 21
68.773502691896226
 31
0.0
  0
LINE
  5
19C
  8
1
 62
     7
 10
639.30406273663152
 20
68.773502691896226
 30
0.0
 11
634.30406273663152
 21
65.886751345948099
 31
0.0
  0
LINE
  5
19D
  8
1
 62
     7
 10
634.30406273663152
 20
65.886751345948099
 30
0.0
 11
634.30406273663152
 21
60.113248654051823
 31
0.0
  0
LINE
  5
19E
  8
1
 62
     7
 10
634.30406273663152
 20
60.113248654051823
 30
0.0
 11
639.30406273663152
 21
57.22649730810371
 31
0.0
  0
LINE
  5
19F
  8
1
 62
     7
 10
639.30406273663152
 20
57.22649730810371
 30
0.0
 11
644.30406273663152
 21
60.113248654051823
 31
0.0
  0
LINE
  5
1A0
  8
1
 62
     7
 10
644.30406273663152
 20
60.113248654051823
 30
0.0
 11
644.30406273663152
 21
65.886751345948099
 31
0.0
  0
LINE
  5
1A1
  8
1
 62
     7
 10
535.18486185979225
 20
128.886751345948
 30
0.0
 11
530.18486185979225
 21
131.77350269189631
 31
0.0
  0
LINE
  5
1A2
  8
1
 62
     7
 10
535.18486185979225
 20
123.1132486540519
 30
0.0
 11
535.18486185979225
 21
128.886751345948
 31
0.0
  0
LINE
  5
1A3
  8
1
 62
     7
 10
530.18486185979225
 20
120.2264973081036
 30
0.0
 11
535.18486185979225
 21
123.1132486540519
 31
0.0
  0
LINE
  5
1A4
  8
1
 62
     7
 10
525.18486185979225
 20
123.1132486540519
 30
0.0
 11
530.18486185979225
 21
120.2264973081036
 31
0.0
  0
LINE
  5
1A5
  8
1
 62
     7
 10
525.18486185979225
 20
128.886751345948
 30
0.0
 11
525.18486185979225
 21
123.1132486540519
 31
0.0
  0
LINE
  5
1A6
  8
1
 62
     7
 10
530.18486185979225
 20
131.77350269189631
 30
0.0
 11
525.18486185979225
 21
128.886751345948
 31
0.0
  0
LINE
  5
1A7
  8
1
 62
     7
 10
421.06566098295298
 20
68.773502691896311
 30
0.0
 11
416.06566098295298
 21
65.886751345948227
 31
0.0
  0
LINE
  5
1A8
  8
1
 62
     7
 10
426.06566098295292
 20
65.886751345948227
 30
0.0
 11
421.06566098295298
 21
68.773502691896311
 31
0.0
  0
LINE
  5
1A9
  8
1
 62
     7
 10
426.06566098295292
 20
60.113248654051922
 30
0.0
 11
426.06566098295292
 21
65.886751345948227
 31
0.0
  0
LINE
  5
1AA
  8
1
 62
     7
 10
421.06566098295298
 20
57.226497308103809
 30
0.0
 11
426.06566098295292
 21
60.113248654051922
 31
0.0
  0
LINE
  5
1AB
  8
1
 62
     7
 10
416.06566098295298
 20
60.113248654051922
 30
0.0
 11
421.06566098295298
 21
57.226497308103809
 31
0.0
  0
LINE
  5
1AC
  8
1
 62
     7
 10
416.06566098295298
 20
65.886751345948227
 30
0.0
 11
416.06566098295298
 21
60.113248654051922
 31
0.0
  0
LINE
  5
1AD
  8
1
 62
     7
 10
416.06566098295258
 20
-60.113248654051773
 30
0.0
 11
416.06566098295258
 21
-65.886751345948028
 31
0.0
  0
LINE
  5
1AE
  8
1
 62
     7
 10
421.06566098295258
 20
-57.226497308103632
 30
0.0
 11
416.06566098295258
 21
-60.113248654051773
 31
0.0
  0
LINE
  5
1AF
  8
1
 62
     7
 10
426.06566098295258
 20
-60.113248654051773
 30
0.0
 11
421.06566098295258
 21
-57.226497308103632
 31
0.0
  0
LINE
  5
1B0
  8
1
 62
     7
 10
426.06566098295258
 20
-65.886751345948028
 30
0.0
 11
426.06566098295258
 21
-60.113248654051773
 31
0.0
  0
LINE
  5
1B1
  8
1
 62
     7
 10
421.06566098295258
 20
-68.773502691896155
 30
0.0
 11
426.06566098295258
 21
-65.886751345948028
 31
0.0
  0
LINE
  5
1B2
  8
1
 62
     7
 10
416.06566098295258
 20
-65.886751345948028
 30
0.0
 11
421.06566098295258
 21
-68.773502691896155
 31
0.0
  0
LINE
  5
1B3
  8
1
 62
     7
 10
525.18486185979214
 20
-128.886751345948
 30
0.0
 11
530.18486185979214
 21
-131.7735026918962
 31
0.0
  0
LINE
  5
1B4
  8
1
 62
     7
 10
525.18486185979214
 20
-123.1132486540517
 30
0.0
 11
525.18486185979214
 21
-128.886751345948
 31
0.0
  0
LINE
  5
1B5
  8
1
 62
     7
 10
530.18486185979214
 20
-120.2264973081036
 30
0.0
 11
525.18486185979214
 21
-123.1132486540517
 31
0.0
  0
LINE
  5
1B6
  8
1
 62
     7
 10
535.18486185979214
 20
-123.1132486540517
 30
0.0
 11
530.18486185979214
 21
-120.2264973081036
 31
0.0
  0
LINE
  5
1B7
  8
1
 62
     7
 10
535.18486185979214
 20
-128.886751345948
 30
0.0
 11
535.18486185979214
 21
-123.1132486540517
 31
0.0
  0
LINE
  5
1B8
  8
1
 62
     7
 10
530.18486185979214
 20
-131.7735026918962
 30
0.0
 11
535.18486185979214
 21
-128.886751345948
 31
0.0
  0
LINE
  5
1B9
  8
1
 62
     7
 10
639.30406273663141
 20
-68.773502691896283
 30
0.0
 11
644.30406273663141
 21
-65.886751345948156
 31
0.0
  0
LINE
  5
1BA
  8
1
 62
     7
 10
634.30406273663129
 20
-65.886751345948142
 30
0.0
 11
639.30406273663141
 21
-68.773502691896283
 31
0.0
  0
LINE
  5
1BB
  8
1
 62
     7
 10
634.30406273663129
 20
-60.113248654051887
 30
0.0
 11
634.30406273663129
 21
-65.886751345948142
 31
0.0
  0
LINE
  5
1BC
  8
1
 62
     7
 10
639.30406273663141
 20
-57.22649730810376
 30
0.0
 11
634.30406273663129
 21
-60.113248654051887
 31
0.0
  0
LINE
  5
1BD
  8
1
 62
     7
 10
644.30406273663141
 20
-60.113248654051887
 30
0.0
 11
639.30406273663141
 21
-57.22649730810376
 31
0.0
  0
LINE
  5
1BE
  8
1
 62
     7
 10
644.30406273663141
 20
-65.886751345948156
 30
0.0
 11
644.30406273663141
 21
-60.113248654051887
 31
0.0
  0
LINE
  5
1BF
  8
1
 62
     7
 10
452.71114886961738
 20
-225.0
 30
0.0
 11
462.47372964085321
 21
-196.64740672998809
 31
0.0
  0
LINE
  5
1C0
  8
1
 62
     7
 10
510.49991256645927
 20
-225.0
 30
0.0
 11
512.0583530473242
 21
-207.18694379297051
 31
0.0
  0
LINE
  5
1C1
  8
1
 62
     7
 10
607.65857484996695
 20
-225.0
 30
0.0
 11
597.89599407873106
 21
-196.64740672998809
 31
0.0
  0
LINE
  5
1C2
  8
1
 62
     7
 10
549.86981115312517
 20
-225.0
 30
0.0
 11
548.31137067225995
 21
-207.18694379297051
 31
0.0
  0
LINE
  5
1C3
  8
1
 62
     7
 10
642.68486185979225
 20
194.85571585149859
 30
0.0
 11
636.17424812087017
 21
183.57900206722971
 31
0.0
  0
LINE
  5
1C4
  8
1
 62
     7
 10
631.67377751071433
 20
175.78395831246939
 30
0.0
 11
624.67295634793402
 21
163.6581803638303
 31
0.0
  0
LINE
  5
1C5
  8
1
 62
     7
 10
545.18486185979236
 20
188.14090464330181
 30
0.0
 11
545.18486185979236
 21
202.20039564748629
 31
0.0
  0
LINE
  5
1C6
  8
1
 62
     7
 10
515.18486185979225
 20
202.20039564748629
 30
0.0
 11
515.18486185979225
 21
188.14090464330181
 31
0.0
  0
LINE
  5
1C7
  8
1
 62
     7
 10
435.69676737165048
 20
163.6581803638303
 30
0.0
 11
428.69594620887011
 21
175.78395831246939
 31
0.0
  0
LINE
  5
1C8
  8
1
 62
     7
 10
424.19547559871421
 20
183.57900206722971
 30
0.0
 11
417.68486185979242
 21
194.85571585149859
 31
0.0
  0
LINE
  5
1C9
  8
1
 62
     7
 10
735.73258982937728
 20
-91.515744692055037
 30
0.0
 11
760.18486185979225
 21
-202.0
 31
0.0
  0
LINE
  5
1CA
  8
1
 62
     7
 10
543.18486185979225
 20
-39.597538056188696
 30
0.0
 11
543.18486185979225
 21
-43.141835884530849
 31
0.0
  0
LINE
  5
1CB
  8
1
 62
     7
 10
517.18486185979225
 20
-39.597538056188696
 30
0.0
 11
517.18486185979225
 21
-43.141835884530849
 31
0.0
  0
LINE
  5
1CC
  8
1
 62
     7
 10
538.18486185979225
 20
-39.191835884530839
 30
0.0
 11
538.18486185979225
 21
-45.641835884530849
 31
0.0
  0
LINE
  5
1CD
  8
1
 62
     7
 10
538.18486185979225
 20
-45.641835884530849
 30
0.0
 11
540.68486185979236
 21
-45.641835884530849
 31
0.0
  0
LINE
  5
1CE
  8
1
 62
     7
 10
522.18486185979225
 20
-39.191835884530839
 30
0.0
 11
522.18486185979225
 21
-45.641835884530849
 31
0.0
  0
LINE
  5
1CF
  8
1
 62
     7
 10
522.18486185979225
 20
-45.641835884530849
 30
0.0
 11
519.68486185979236
 21
-45.641835884530849
 31
0.0
  0
LINE
  5
1D0
  8
1
 62
     7
 10
521.18486185979214
 20
40.999999999999993
 30
0.0
 11
521.18486185979214
 21
28.999999999999979
 31
0.0
  0
LINE
  5
1D1
  8
1
 62
     7
 10
521.18486185979214
 20
28.999999999999979
 30
0.0
 11
539.18486185979214
 21
28.999999999999979
 31
0.0
  0
LINE
  5
1D2
  8
1
 62
     7
 10
539.18486185979214
 20
28.999999999999979
 30
0.0
 11
539.18486185979214
 21
40.999999999999993
 31
0.0
  0
LINE
  5
1D3
  8
1
 62
     7
 10
539.18486185979214
 20
40.999999999999993
 30
0.0
 11
521.18486185979214
 21
40.999999999999993
 31
0.0
  0
LINE
  5
1D4
  8
1
  6
CENTER
 62
     3
 10
520.584861859792
 20
-0.0000000000000142
 30
0.0
 11
539.78486185979204
 21
-0.0000000000000142
 31
0.0
  0
LINE
  5
1D5
  8
1
  6
CENTER
 62
     3
 10
530.18486185979214
 20
-9.6000000000000085
 30
0.0
 11
530.18486185979214
 21
9.5999999999999996
 31
0.0
  0
LINE
  5
1D6
  8
1
 62
     7
 10
485.18486185979202
 20
-149.0
 30
0.0
 11
575.18486185979214
 21
-149.0
 31
0.0
  0
LINE
  5
1D7
  8
1
 62
     7
 10
575.18486185979214
 20
-149.0
 30
0.0
 11
575.18486185979214
 21
-165.0
 31
0.0
  0
LINE
  5
1D8
  8
1
 62
     7
 10
575.18486185979214
 20
-165.0
 30
0.0
 11
485.18486185979202
 21
-165.0
 31
0.0
  0
LINE
  5
1D9
  8
1
 62
     7
 10
485.18486185979202
 20
-165.0
 30
0.0
 11
485.18486185979202
 21
-149.0
 31
0.0
  0
LINE
  5
1DA
  8
1
 62
     7
 10
-12.5
 20
-34.0
 30
0.0
 11
-12.5
 21
40.999999999999993
 31
0.0
  0
LINE
  5
1DB
  8
1
 62
     7
 10
-13.5
 20
-35.0
 30
0.0
 11
-122.5
 21
-35.0
 31
0.0
  0
LINE
  5
1DC
  8
1
 62
     7
 10
-122.5
 20
-40.0
 30
0.0
 11
-126.0
 21
-40.0
 31
0.0
  0
LINE
  5
1DD
  8
1
 62
     7
 10
-12.5
 20
-34.0
 30
0.0
 11
-13.5
 21
-35.0
 31
0.0
  0
LINE
  5
1DE
  8
1
 62
     7
 10
-130.49999999999989
 20
-105.0
 30
0.0
 11
-189.69734528346609
 21
-105.0
 31
0.0
  0
LINE
  5
1DF
  8
1
 62
     7
 10
-130.49999999999989
 20
-105.0
 30
0.0
 11
-128.49999999999989
 21
-103.0
 31
0.0
  0
LINE
  5
1E0
  8
1
 62
     7
 10
-102.4999999999999
 20
35.0
 30
0.0
 11
-102.4999999999999
 21
40.999999999999993
 31
0.0
  0
LINE
  5
1E1
  8
1
 62
     7
 10
-102.4999999999999
 20
40.999999999999993
 30
0.0
 11
-12.5
 21
40.999999999999993
 31
0.0
  0
LINE
  5
1E2
  8
1
 62
     7
 10
-722.5
 20
-33.999999999999993
 30
0.0
 11
-722.5
 21
0.0319498072878801
 31
0.0
  0
LINE
  5
1E3
  8
1
 62
     7
 10
-721.49999999999989
 20
-34.999999999999993
 30
0.0
 11
-612.5
 21
-34.999999999999993
 31
0.0
  0
LINE
  5
1E4
  8
1
 62
     7
 10
-722.5
 20
-33.999999999999993
 30
0.0
 11
-721.49999999999989
 21
-34.999999999999993
 31
0.0
  0
LINE
  5
1E5
  8
1
 62
     7
 10
-609.0
 20
-45.649999999999999
 30
0.0
 11
-606.5
 21
-45.649999999999999
 31
0.0
  0
LINE
  5
1E6
  8
1
 62
     7
 10
-606.5
 20
-103.0
 30
0.0
 11
-604.49999999999989
 21
-105.0
 31
0.0
  0
LINE
  5
1E7
  8
1
 62
     7
 10
-722.5
 20
0.0
 30
0.0
 11
-722.50000000000011
 21
40.999999999999993
 31
0.0
  0
LINE
  5
1E8
  8
1
 62
     7
 10
-722.50000000000011
 20
40.999999999999993
 30
0.0
 11
-632.50000000000011
 21
40.999999999999993
 31
0.0
  0
LINE
  5
1E9
  8
1
 62
     7
 10
-632.50000000000011
 20
40.999999999999993
 30
0.0
 11
-632.5
 21
35.0
 31
0.0
  0
LINE
  5
1EA
  8
1
 62
     7
 10
-362.5
 20
-197.0
 30
0.0
 11
-138.5
 21
-197.0
 31
0.0
  0
LINE
  5
1EB
  8
1
 62
     7
 10
-362.5
 20
-227.0
 30
0.0
 11
-133.49999999999989
 21
-227.0
 31
0.0
  0
LINE
  5
1EC
  8
1
 62
     7
 10
-133.49999999999989
 20
-227.0
 30
0.0
 11
-133.49999999999989
 21
-202.0
 31
0.0
  0
LINE
  5
1ED
  8
1
 62
     7
 10
-362.5
 20
-91.515744692055037
 30
0.0
 11
-362.5
 21
-227.0
 31
0.0
  0
LINE
  5
1EE
  8
1
 62
     7
 10
-601.5
 20
-227.0
 30
0.0
 11
-601.5
 21
-202.0
 31
0.0
  0
LINE
  5
1EF
  8
1
 62
     7
 10
-372.5
 20
-225.0
 30
0.0
 11
-362.5
 21
-225.0
 31
0.0
  0
LINE
  5
1F0
  8
1
 62
     7
 10
-362.5
 20
-91.515744692055037
 30
0.0
 11
-339.5
 21
-91.515744692055037
 31
0.0
  0
LINE
  5
1F1
  8
1
 62
     7
 10
-337.5
 20
-71.513197767723881
 30
0.0
 11
-250.49999999999989
 21
-71.513197767723881
 31
0.0
  0
LINE
  5
1F2
  8
1
 62
     7
 10
-235.49999999999989
 20
-39.070839975059322
 30
0.0
 11
-337.5
 21
-39.070839975059322
 31
0.0
  0
LINE
  5
1F3
  8
1
 62
     7
 10
-245.5
 20
-39.070839975059322
 30
0.0
 11
-245.5
 21
-66.513197767723867
 31
0.0
  0
LINE
  5
1F4
  8
1
 62
     7
 10
-245.5
 20
-100.5607686686365
 30
0.0
 11
-245.5
 21
-116.59445240895219
 31
0.0
  0
LINE
  5
1F5
  8
1
 62
     7
 10
-245.5
 20
-67.872486299652579
 30
0.0
 11
-225.49999999999989
 21
-67.872486299652579
 31
0.0
  0
LINE
  5
1F6
  8
1
 62
     7
 10
-245.5
 20
-117.5552855387309
 30
0.0
 11
-225.49999999999989
 21
-117.5552855387309
 31
0.0
  0
LINE
  5
1F7
  8
1
 62
     7
 10
-327.41206407511061
 20
-152.79981709138411
 30
0.0
 11
-235.49999999999989
 21
-152.79981709138411
 31
0.0
  0
LINE
  5
1F8
  8
1
 62
     7
 10
-406.98769345874109
 20
-152.79981709138411
 30
0.0
 11
-499.5
 21
-152.79981709138411
 31
0.0
  0
LINE
  5
1F9
  8
1
 62
     7
 10
-489.5
 20
-39.070839975059322
 30
0.0
 11
-489.5
 21
-66.513197767723867
 31
0.0
  0
LINE
  5
1FA
  8
1
 62
     7
 10
-489.5
 20
-100.5607686686365
 30
0.0
 11
-489.5
 21
-116.59445240895219
 31
0.0
  0
LINE
  5
1FB
  8
1
 62
     7
 10
-509.49999999999989
 20
-67.872486299652593
 30
0.0
 11
-489.31168730145311
 21
-67.872486299652593
 31
0.0
  0
LINE
  5
1FC
  8
1
 62
     7
 10
-509.49999999999989
 20
-117.5552855387309
 30
0.0
 11
-489.40681156115852
 21
-117.5552855387309
 31
0.0
  0
LINE
  5
1FD
  8
1
 62
     7
 10
-489.51047538610402
 20
-117.5552855387309
 30
0.0
 11
-489.5
 21
-117.5552855387309
 31
0.0
  0
LINE
  5
1FE
  8
1
 62
     7
 10
-128.49999999999989
 20
-65.703507303069017
 30
0.0
 11
-210.49999999999989
 21
-65.703507303069017
 31
0.0
  0
LINE
  5
1FF
  8
1
 62
     7
 10
-221.49999999999989
 20
-125.4213562373095
 30
0.0
 11
-223.50648797991099
 21
-125.4148471762077
 31
0.0
  0
LINE
  5
200
  8
1
 62
     7
 10
-221.49999999999989
 20
-125.4213562373095
 30
0.0
 11
-221.49999999999989
 21
-157.4213562373094
 31
0.0
  0
LINE
  5
201
  8
1
 62
     7
 10
-221.49999999999989
 20
-157.4213562373094
 30
0.0
 11
-223.49999999999989
 21
-157.4213562373094
 31
0.0
  0
LINE
  5
202
  8
1
 62
     7
 10
-223.49999999999989
 20
157.4213562373094
 30
0.0
 11
-221.49999999999989
 21
157.4213562373094
 31
0.0
  0
LINE
  5
203
  8
1
 62
     7
 10
-225.49999999999989
 20
-62.999999999999901
 30
0.0
 11
-222.49999999999989
 21
-59.999999999999893
 31
0.0
  0
LINE
  5
204
  8
1
 62
     7
 10
-225.49999999999989
 20
-65.999999999999901
 30
0.0
 11
-222.49999999999989
 21
-62.999999999999901
 31
0.0
  0
LINE
  5
205
  8
1
 62
     7
 10
-225.49999999999989
 20
-52.249999999999893
 30
0.0
 11
-222.49999999999989
 21
-52.249999999999893
 31
0.0
  0
LINE
  5
206
  8
1
 62
     7
 10
-222.49999999999989
 20
-52.249999999999893
 30
0.0
 11
-222.49999999999989
 21
-73.749999999999901
 31
0.0
  0
LINE
  5
207
  8
1
 62
     7
 10
-222.49999999999989
 20
-73.749999999999901
 30
0.0
 11
-225.49999999999989
 21
-73.749999999999901
 31
0.0
  0
LINE
  5
208
  8
1
 62
     7
 10
-222.49999999999989
 20
-53.999999999999893
 30
0.0
 11
-211.1999999999999
 21
-53.999999999999893
 31
0.0
  0
LINE
  5
209
  8
1
 62
     7
 10
-211.1999999999999
 20
-53.999999999999893
 30
0.0
 11
-210.49999999999989
 21
-55.212435565298101
 31
0.0
  0
LINE
  5
20A
  8
1
 62
     7
 10
-210.49999999999989
 20
-55.212435565298101
 30
0.0
 11
-210.49999999999989
 21
-70.787564434701693
 31
0.0
  0
LINE
  5
20B
  8
1
 62
     7
 10
-210.49999999999989
 20
-70.787564434701693
 30
0.0
 11
-211.1999999999999
 21
-71.999999999999901
 31
0.0
  0
LINE
  5
20C
  8
1
 62
     7
 10
-211.1999999999999
 20
-71.999999999999901
 30
0.0
 11
-222.49999999999989
 21
-71.999999999999901
 31
0.0
  0
LINE
  5
20D
  8
1
 62
     7
 10
-211.1999999999999
 20
-53.999999999999893
 30
0.0
 11
-211.1999999999999
 21
-71.999999999999901
 31
0.0
  0
LINE
  5
20E
  8
1
 62
     7
 10
-513.49999999999977
 20
-126.39515993971381
 30
0.0
 11
-606.5
 21
-66.677311005473456
 31
0.0
  0
LINE
  5
20F
  8
1
 62
     7
 10
-534.18340403313107
 20
-150.39515993971381
 30
0.0
 11
-530.49999999999977
 21
-150.39515993971381
 31
0.0
  0
LINE
  5
210
  8
1
 62
     3
 10
-530.49999999999977
 20
-135.9951599397138
 30
0.0
 11
-535.78340403313121
 21
-135.9951599397138
 31
0.0
  0
LINE
  5
211
  8
1
 62
     3
 10
-530.49999999999977
 20
-148.7951599397139
 30
0.0
 11
-535.78340403313121
 21
-148.7951599397139
 31
0.0
  0
LINE
  5
212
  8
1
 62
     7
 10
-534.18340403313107
 20
-134.39515993971381
 30
0.0
 11
-534.18340403313107
 21
-150.39515993971381
 31
0.0
  0
LINE
  5
213
  8
1
 62
     7
 10
-530.49999999999977
 20
-134.39515993971381
 30
0.0
 11
-534.18340403313107
 21
-134.39515993971381
 31
0.0
  0
LINE
  5
214
  8
1
 62
     7
 10
-534.18340403313107
 20
-134.39515993971381
 30
0.0
 11
-535.78340403313121
 21
-135.9951599397138
 31
0.0
  0
LINE
  5
215
  8
1
 62
     7
 10
-535.78340403313121
 20
-135.9951599397138
 30
0.0
 11
-535.78340403313121
 21
-148.7951599397139
 31
0.0
  0
LINE
  5
216
  8
1
 62
     7
 10
-535.78340403313121
 20
-148.7951599397139
 30
0.0
 11
-534.18340403313107
 21
-150.39515993971381
 31
0.0
  0
LINE
  5
217
  8
1
 62
     7
 10
-530.49999999999977
 20
-132.0076599397139
 30
0.0
 11
-530.49999999999977
 21
-152.78265993971399
 31
0.0
  0
LINE
  5
218
  8
1
 62
     7
 10
-517.49999999999977
 20
-156.245159939714
 30
0.0
 11
-529.14322686740434
 21
-156.245159939714
 31
0.0
  0
LINE
  5
219
  8
1
 62
     7
 10
-517.49999999999977
 20
-149.3201599397139
 30
0.0
 11
-529.14322686740434
 21
-149.3201599397139
 31
0.0
  0
LINE
  5
21A
  8
1
 62
     7
 10
-517.49999999999977
 20
-135.47015993971391
 30
0.0
 11
-529.14322686740434
 21
-135.47015993971391
 31
0.0
  0
LINE
  5
21B
  8
1
 62
     7
 10
-517.49999999999977
 20
-128.5451599397139
 30
0.0
 11
-529.14322686740434
 21
-128.5451599397139
 31
0.0
  0
LINE
  5
21C
  8
1
 62
     7
 10
-513.49999999999977
 20
-156.39515993971401
 30
0.0
 11
-517.49999999999977
 21
-156.39515993971401
 31
0.0
  0
LINE
  5
21D
  8
1
 62
     7
 10
-517.49999999999977
 20
-156.39515993971401
 30
0.0
 11
-517.49999999999977
 21
-128.39515993971381
 31
0.0
  0
LINE
  5
21E
  8
1
 62
     7
 10
-517.49999999999977
 20
-128.39515993971381
 30
0.0
 11
-513.49999999999977
 21
-128.39515993971381
 31
0.0
  0
LINE
  5
21F
  8
1
 62
     7
 10
-517.49999999999977
 20
-142.39515993971381
 30
0.0
 11
-513.49999999999977
 21
-146.39515993971381
 31
0.0
  0
LINE
  5
220
  8
1
 62
     7
 10
-517.49999999999977
 20
-138.39515993971381
 30
0.0
 11
-513.49999999999977
 21
-142.39515993971381
 31
0.0
  0
LINE
  5
221
  8
1
 62
     7
 10
-511.49999999999977
 20
-158.39515993971389
 30
0.0
 11
-513.49999999999977
 21
-158.39515993971389
 31
0.0
  0
LINE
  5
222
  8
1
 62
     7
 10
-513.49999999999977
 20
-158.39515993971389
 30
0.0
 11
-513.49999999999977
 21
-126.39515993971381
 31
0.0
  0
LINE
  5
223
  8
1
 62
     7
 10
-511.49351202008887
 20
-126.3886508786121
 30
0.0
 11
-513.49999999999977
 21
-126.39515993971381
 31
0.0
  0
LINE
  5
224
  8
1
 62
     7
 10
-524.5
 20
-66.677311005473456
 30
0.0
 11
-606.5
 21
-66.677311005473456
 31
0.0
  0
LINE
  5
225
  8
1
 62
     7
 10
-546.81918195152082
 20
-105.0
 30
0.0
 11
-604.49999999999989
 21
-105.0
 31
0.0
  0
LINE
  5
226
  8
1
 62
     7
 10
-513.49999999999977
 20
158.39515993971381
 30
0.0
 11
-511.49999999999977
 21
158.39515993971381
 31
0.0
  0
LINE
  5
227
  8
1
 62
     7
 10
-513.49999999999977
 20
142.39515993971381
 30
0.0
 11
-517.49999999999977
 21
138.39515993971381
 31
0.0
  0
LINE
  5
228
  8
1
 62
     7
 10
-513.49999999999977
 20
146.39515993971381
 30
0.0
 11
-517.49999999999977
 21
142.39515993971381
 31
0.0
  0
LINE
  5
229
  8
1
 62
     7
 10
-517.49999999999977
 20
156.39515993971381
 30
0.0
 11
-513.49999999999977
 21
156.39515993971381
 31
0.0
  0
LINE
  5
22A
  8
1
 62
     7
 10
-513.49999999999977
 20
158.39515993971381
 30
0.0
 11
-513.49999999999977
 21
126.39515993971381
 31
0.0
  0
LINE
  5
22B
  8
1
 62
     7
 10
-529.14322686740434
 20
128.54515993971381
 30
0.0
 11
-517.49999999999977
 21
128.54515993971381
 31
0.0
  0
LINE
  5
22C
  8
1
 62
     7
 10
-529.14322686740434
 20
135.47015993971391
 30
0.0
 11
-517.49999999999977
 21
135.47015993971391
 31
0.0
  0
LINE
  5
22D
  8
1
 62
     7
 10
-529.14322686740434
 20
149.3201599397139
 30
0.0
 11
-517.49999999999977
 21
149.3201599397139
 31
0.0
  0
LINE
  5
22E
  8
1
 62
     7
 10
-529.14322686740434
 20
156.2451599397138
 30
0.0
 11
-517.49999999999977
 21
156.2451599397138
 31
0.0
  0
LINE
  5
22F
  8
1
 62
     7
 10
-530.49999999999977
 20
152.78265993971391
 30
0.0
 11
-530.49999999999977
 21
132.0076599397139
 31
0.0
  0
LINE
  5
230
  8
1
 62
     7
 10
-534.18340403313107
 20
150.39515993971381
 30
0.0
 11
-535.78340403313121
 21
148.7951599397139
 31
0.0
  0
LINE
  5
231
  8
1
 62
     7
 10
-535.78340403313121
 20
148.7951599397139
 30
0.0
 11
-535.78340403313121
 21
135.9951599397138
 31
0.0
  0
LINE
  5
232
  8
1
 62
     7
 10
-535.78340403313121
 20
135.9951599397138
 30
0.0
 11
-534.18340403313107
 21
134.39515993971381
 31
0.0
  0
LINE
  5
233
  8
1
 62
     7
 10
-534.18340403313107
 20
134.39515993971381
 30
0.0
 11
-530.49999999999977
 21
134.39515993971381
 31
0.0
  0
LINE
  5
234
  8
1
 62
     7
 10
-534.18340403313107
 20
150.39515993971381
 30
0.0
 11
-534.18340403313107
 21
134.39515993971381
 31
0.0
  0
LINE
  5
235
  8
1
 62
     3
 10
-535.78340403313121
 20
148.7951599397139
 30
0.0
 11
-530.49999999999977
 21
148.7951599397139
 31
0.0
  0
LINE
  5
236
  8
1
 62
     3
 10
-535.78340403313121
 20
135.9951599397138
 30
0.0
 11
-530.49999999999977
 21
135.9951599397138
 31
0.0
  0
LINE
  5
237
  8
1
 62
     7
 10
-530.49999999999977
 20
150.39515993971381
 30
0.0
 11
-534.18340403313107
 21
150.39515993971381
 31
0.0
  0
LINE
  5
238
  8
1
 62
     7
 10
-509.49999999999989
 20
-62.999999999999901
 30
0.0
 11
-512.5
 21
-65.999999999999901
 31
0.0
  0
LINE
  5
239
  8
1
 62
     7
 10
-509.49999999999989
 20
-59.999999999999893
 30
0.0
 11
-512.5
 21
-62.999999999999901
 31
0.0
  0
LINE
  5
23A
  8
1
 62
     7
 10
-509.49999999999989
 20
-73.749999999999901
 30
0.0
 11
-512.5
 21
-73.749999999999901
 31
0.0
  0
LINE
  5
23B
  8
1
 62
     7
 10
-512.5
 20
-73.749999999999901
 30
0.0
 11
-512.5
 21
-52.249999999999893
 31
0.0
  0
LINE
  5
23C
  8
1
 62
     7
 10
-512.5
 20
-52.249999999999893
 30
0.0
 11
-509.49999999999989
 21
-52.249999999999893
 31
0.0
  0
LINE
  5
23D
  8
1
 62
     7
 10
-512.5
 20
-71.999999999999901
 30
0.0
 11
-523.79999999999995
 21
-71.999999999999901
 31
0.0
  0
LINE
  5
23E
  8
1
 62
     7
 10
-523.79999999999995
 20
-71.999999999999901
 30
0.0
 11
-524.5
 21
-70.787564434701693
 31
0.0
  0
LINE
  5
23F
  8
1
 62
     7
 10
-524.5
 20
-70.787564434701693
 30
0.0
 11
-524.5
 21
-55.212435565298101
 31
0.0
  0
LINE
  5
240
  8
1
 62
     7
 10
-524.5
 20
-55.212435565298101
 30
0.0
 11
-523.79999999999995
 21
-53.999999999999893
 31
0.0
  0
LINE
  5
241
  8
1
 62
     7
 10
-523.79999999999995
 20
-53.999999999999893
 30
0.0
 11
-512.5
 21
-53.999999999999893
 31
0.0
  0
LINE
  5
242
  8
1
 62
     7
 10
-523.79999999999995
 20
-71.999999999999901
 30
0.0
 11
-523.79999999999995
 21
-53.999999999999893
 31
0.0
  0
LINE
  5
243
  8
1
  6
DASHDOT
 62
     3
 10
-167.5
 20
-190.0242731335276
 30
0.0
 11
-167.5
 21
-231.4483045442843
 31
0.0
  0
LINE
  5
244
  8
1
  6
DASHED
 62
     3
 10
-178.0
 20
-200.0
 30
0.0
 11
-178.0
 21
-227.0
 31
0.0
  0
LINE
  5
245
  8
1
  6
DASHED
 62
     3
 10
-157.0
 20
-200.0
 30
0.0
 11
-157.0
 21
-227.0
 31
0.0
  0
LINE
  5
246
  8
1
  6
DASHED
 62
     3
 10
-186.0
 20
-197.0
 30
0.0
 11
-186.0
 21
-200.0
 31
0.0
  0
LINE
  5
247
  8
1
  6
DASHED
 62
     3
 10
-149.0
 20
-197.0
 30
0.0
 11
-149.0
 21
-200.0
 31
0.0
  0
LINE
  5
248
  8
1
  6
DASHED
 62
     3
 10
-186.0
 20
-200.0
 30
0.0
 11
-149.0
 21
-200.0
 31
0.0
  0
LINE
  5
249
  8
1
  6
DASHED
 62
     3
 10
-586.0
 20
-200.0
 30
0.0
 11
-549.0
 21
-200.0
 31
0.0
  0
LINE
  5
24A
  8
1
  6
DASHED
 62
     3
 10
-586.0
 20
-197.0
 30
0.0
 11
-586.0
 21
-200.0
 31
0.0
  0
LINE
  5
24B
  8
1
  6
DASHED
 62
     3
 10
-578.0
 20
-200.0
 30
0.0
 11
-578.0
 21
-227.0
 31
0.0
  0
LINE
  5
24C
  8
1
  6
DASHDOT
 62
     3
 10
-567.49999999999989
 20
-192.55435973541009
 30
0.0
 11
-567.49999999999989
 21
-231.09635668483651
 31
0.0
  0
LINE
  5
24D
  8
1
  6
DASHED
 62
     3
 10
-557.0
 20
-200.0
 30
0.0
 11
-557.0
 21
-227.0
 31
0.0
  0
LINE
  5
24E
  8
1
  6
DASHED
 62
     3
 10
-549.0
 20
-197.0
 30
0.0
 11
-549.0
 21
-200.0
 31
0.0
  0
LINE
  5
24F
  8
1
 62
     7
 10
-252.0
 20
225.0
 30
0.0
 11
-252.0
 21
226.1253140723345
 31
0.0
  0
LINE
  5
250
  8
1
 62
     7
 10
-227.0
 20
225.0
 30
0.0
 11
-227.0
 21
226.1253140723345
 31
0.0
  0
LINE
  5
251
  8
1
 62
     7
 10
-229.49999999999989
 20
234.0
 30
0.0
 11
-227.0
 21
225.0
 31
0.0
  0
LINE
  5
252
  8
1
 62
     7
 10
-249.5
 20
234.0
 30
0.0
 11
-252.0
 21
225.0
 31
0.0
  0
LINE
  5
253
  8
1
 62
     7
 10
-249.5
 20
234.0
 30
0.0
 11
-229.49999999999989
 21
234.0
 31
0.0
  0
LINE
  5
254
  8
1
 62
     7
 10
-249.5
 20
234.0
 30
0.0
 11
-239.5
 21
236.0
 31
0.0
  0
LINE
  5
255
  8
1
 62
     7
 10
-239.5
 20
236.0
 30
0.0
 11
-229.49999999999989
 21
234.0
 31
0.0
  0
LINE
  5
256
  8
1
 62
     7
 10
-495.5
 20
236.0
 30
0.0
 11
-485.5
 21
234.0
 31
0.0
  0
LINE
  5
257
  8
1
 62
     7
 10
-505.49999999999989
 20
234.0
 30
0.0
 11
-495.5
 21
236.0
 31
0.0
  0
LINE
  5
258
  8
1
 62
     7
 10
-505.49999999999989
 20
234.0
 30
0.0
 11
-485.5
 21
234.0
 31
0.0
  0
LINE
  5
259
  8
1
 62
     7
 10
-505.49999999999989
 20
234.0
 30
0.0
 11
-508.0
 21
225.0
 31
0.0
  0
LINE
  5
25A
  8
1
 62
     7
 10
-485.5
 20
234.0
 30
0.0
 11
-483.0
 21
225.0
 31
0.0
  0
LINE
  5
25B
  8
1
 62
     7
 10
-508.0
 20
225.0
 30
0.0
 11
-508.0
 21
226.1253140723345
 31
0.0
  0
LINE
  5
25C
  8
1
 62
     7
 10
525.18486185979214
 20
273.21417319161452
 30
0.0
 11
525.18486185979214
 21
229.95815573551479
 31
0.0
  0
LINE
  5
25D
  8
1
 62
     7
 10
535.18486185979214
 20
273.21417319161452
 30
0.0
 11
535.18486185979214
 21
229.95815573551479
 31
0.0
  0
LINE
  5
25E
  8
1
 62
     7
 10
535.18486185979214
 20
235.0
 30
0.0
 11
540.18486185979214
 21
234.0
 31
0.0
  0
LINE
  5
25F
  8
1
 62
     7
 10
540.18486185979214
 20
234.0
 30
0.0
 11
542.89485923443533
 21
224.6407264205148
 31
0.0
  0
LINE
  5
260
  8
1
 62
     7
 10
517.71557223165075
 20
224.6542161103805
 30
0.0
 11
520.57353683557096
 21
234.07773499515579
 31
0.0
  0
LINE
  5
261
  8
1
 62
     7
 10
536.83177029622163
 20
228.3581557355148
 30
0.0
 11
536.78486185979204
 21
228.3581557355148
 31
0.0
  0
LINE
  5
262
  8
1
 62
     7
 10
523.53605619881853
 20
228.3581557355148
 30
0.0
 11
523.58486185979211
 21
228.3581557355148
 31
0.0
  0
LINE
  5
263
  8
1
 62
     7
 10
520.57353683557096
 20
234.07773499515579
 30
0.0
 11
525.18486185979214
 21
235.0
 31
0.0
  0
LINE
  5
264
  8
1
 62
     7
 10
-512.5
 20
65.999999999999829
 30
0.0
 11
-509.49999999999989
 21
62.999999999999822
 31
0.0
  0
LINE
  5
265
  8
1
 62
     7
 10
-512.5
 20
62.999999999999822
 30
0.0
 11
-509.49999999999989
 21
59.999999999999822
 31
0.0
  0
LINE
  5
266
  8
1
 62
     7
 10
-512.5
 20
73.749999999999829
 30
0.0
 11
-509.49999999999989
 21
73.749999999999829
 31
0.0
  0
LINE
  5
267
  8
1
 62
     7
 10
-512.5
 20
52.249999999999808
 30
0.0
 11
-512.5
 21
73.749999999999829
 31
0.0
  0
LINE
  5
268
  8
1
 62
     7
 10
-509.49999999999989
 20
52.249999999999808
 30
0.0
 11
-512.5
 21
52.249999999999808
 31
0.0
  0
LINE
  5
269
  8
1
 62
     7
 10
-523.79999999999995
 20
71.999999999999829
 30
0.0
 11
-512.5
 21
71.999999999999829
 31
0.0
  0
LINE
  5
26A
  8
1
 62
     7
 10
-524.5
 20
70.787564434701608
 30
0.0
 11
-523.79999999999995
 21
71.999999999999829
 31
0.0
  0
LINE
  5
26B
  8
1
 62
     7
 10
-524.5
 20
55.212435565298108
 30
0.0
 11
-524.5
 21
70.787564434701608
 31
0.0
  0
LINE
  5
26C
  8
1
 62
     7
 10
-523.79999999999995
 20
53.999999999999808
 30
0.0
 11
-524.5
 21
55.212435565298108
 31
0.0
  0
LINE
  5
26D
  8
1
 62
     7
 10
-512.5
 20
53.999999999999808
 30
0.0
 11
-523.79999999999995
 21
53.999999999999808
 31
0.0
  0
LINE
  5
26E
  8
1
 62
     7
 10
-523.79999999999995
 20
53.999999999999808
 30
0.0
 11
-523.79999999999995
 21
71.999999999999829
 31
0.0
  0
LINE
  5
26F
  8
1
 62
     7
 10
-606.5
 20
66.677311005473413
 30
0.0
 11
-524.5
 21
66.677311005473413
 31
0.0
  0
LINE
  5
270
  8
1
 62
     7
 10
-513.49999999999977
 20
128.39515993971381
 30
0.0
 11
-517.49999999999977
 21
128.39515993971381
 31
0.0
  0
LINE
  5
271
  8
1
 62
     7
 10
-511.49999999999977
 20
126.39515993971381
 30
0.0
 11
-513.49999999999977
 21
126.39515993971381
 31
0.0
  0
LINE
  5
272
  8
1
 62
     7
 10
635.18486185979225
 20
-227.0
 30
0.0
 11
635.18486185979225
 21
-160.630954674012
 31
0.0
  0
LINE
  5
273
  8
1
 62
     7
 10
425.1383226434001
 20
-160.630954674012
 30
0.0
 11
425.1383226434001
 21
-227.0
 31
0.0
  0
LINE
  5
274
  8
1
 62
     7
 10
-225.49999999999989
 20
-192.0
 30
0.0
 11
-225.49999999999989
 21
204.0
 31
0.0
  0
LINE
  5
275
  8
1
 62
     7
 10
-221.49999999999989
 20
157.4213562373094
 30
0.0
 11
-221.49999999999989
 21
125.4213562373093
 31
0.0
  0
LINE
  5
276
  8
1
 62
     7
 10
-509.49999999999989
 20
-192.0
 30
0.0
 11
-509.49999999999989
 21
204.0
 31
0.0
  0
LINE
  5
277
  8
1
 62
     7
 10
-517.49999999999977
 20
156.39515993971381
 30
0.0
 11
-517.49999999999977
 21
128.39515993971381
 31
0.0
  0
LINE
  5
278
  8
1
 62
     7
 10
-721.49999999999989
 20
35.0
 30
0.0
 11
-721.49999999999989
 21
-34.999999999999993
 31
0.0
  0
LINE
  5
279
  8
1
 62
     7
 10
-128.49999999999989
 20
103.0
 30
0.0
 11
-128.49999999999989
 21
-103.0
 31
0.0
  0
LINE
  5
27A
  8
1
 62
     7
 10
-13.5
 20
-35.0
 30
0.0
 11
-13.5
 21
35.0
 31
0.0
  0
LINE
  5
27B
  8
1
 62
     7
 10
-606.5
 20
-103.0
 30
0.0
 11
-606.5
 21
103.0
 31
0.0
  0
LINE
  5
27C
  8
1
 62
     7
 10
-339.5
 20
-194.0
 30
0.0
 11
-339.5
 21
-91.515744692055037
 31
0.0
  0
LINE
  5
27D
  8
1
 62
     7
 10
-342.5
 20
-44.070839975059329
 30
0.0
 11
-342.5
 21
-77.289859515784485
 31
0.0
  0
LINE
  5
27E
  8
1
 62
     7
 10
-520.5
 20
225.0
 30
0.0
 11
-214.5
 21
225.0
 31
0.0
  0
LINE
  5
27F
  8
1
 62
     7
 10
-606.5
 20
66.677311005473413
 30
0.0
 11
-513.49999999999977
 21
126.39515993971381
 31
0.0
  0
LINE
  5
280
  8
1
 62
     7
 10
-128.49999999999989
 20
-65.703507303069017
 30
0.0
 11
-221.49999999999989
 21
-125.4213562373095
 31
0.0
  0
LINE
  5
281
  8
1
 62
     7
 10
-225.49999999999989
 20
816.14516373741833
 30
0.0
 11
-225.49999999999989
 21
708.64516373741856
 31
0.0
  0
LINE
  5
282
  8
1
 62
     7
 10
-128.49999999999989
 20
1031.645163737418
 30
0.0
 11
-128.49999999999989
 21
825.64516373741867
 31
0.0
  0
LINE
  5
283
  8
1
 62
     7
 10
-225.49999999999989
 20
1041.145163737418
 30
0.0
 11
-225.49999999999989
 21
1148.645163737418
 31
0.0
  0
LINE
  5
284
  8
1
 62
     7
 10
-221.49999999999989
 20
1086.0665199747291
 30
0.0
 11
-221.49999999999989
 21
1054.066519974727
 31
0.0
  0
LINE
  5
285
  8
1
 62
     7
 10
-509.49999999999989
 20
1148.645163737418
 30
0.0
 11
-509.49999999999989
 21
1041.145163737418
 31
0.0
  0
LINE
  5
286
  8
1
 62
     7
 10
-606.5
 20
1031.645163737418
 30
0.0
 11
-606.5
 21
825.64516373741867
 31
0.0
  0
LINE
  5
287
  8
1
 62
     7
 10
-721.49999999999989
 20
963.64516373741856
 30
0.0
 11
-721.49999999999989
 21
937.64516373741856
 31
0.0
  0
LINE
  5
288
  8
1
 62
     7
 10
-721.49999999999989
 20
893.64516373741867
 30
0.0
 11
-721.49999999999989
 21
919.64516373741856
 31
0.0
  0
LINE
  5
289
  8
1
 62
     7
 10
-13.5
 20
893.64516373741867
 30
0.0
 11
-13.5
 21
919.64516373741856
 31
0.0
  0
LINE
  5
28A
  8
1
 62
     7
 10
-13.5
 20
963.64516373741856
 30
0.0
 11
-13.5
 21
937.64516373741856
 31
0.0
  0
ARC
  5
28B
  8
1
 62
     7
 10
304.4443535088767
 20
28.206546709565739
 30
0.0
 40
2.5000000000000449
 50
352.87773686007381
 51
74.999999999993321
  0
ARC
  5
28C
  8
1
 62
     7
 10
-495.5
 20
928.64516373741833
 30
0.0
 40
12.500000000000149
 50
203.5781784782009
 51
336.42182152179862
  0
ARC
  5
28D
  8
1
 62
     7
 10
-495.5
 20
928.64516373741833
 30
0.0
 40
12.50000000000003
 50
23.578178478202329
 51
156.4218215217976
  0
ARC
  5
28E
  8
1
 62
     7
 10
-495.5
 20
928.64516373741833
 30
0.0
 40
9.9999999999999911
 50
30.000000000000782
 51
149.99999999999909
  0
ARC
  5
28F
  8
1
 62
     7
 10
-495.5
 20
928.64516373741833
 30
0.0
 40
9.9999999999999751
 50
209.99999999999929
 51
330.00000000000063
  0
ARC
  5
290
  8
1
 62
     7
 10
-239.5
 20
928.64516373741833
 30
0.0
 40
12.49999999999994
 50
203.57817847820141
 51
336.42182152179868
  0
ARC
  5
291
  8
1
 62
     7
 10
-239.5
 20
928.64516373741833
 30
0.0
 40
12.50000000000003
 50
23.578178478202329
 51
156.4218215217976
  0
ARC
  5
292
  8
1
 62
     7
 10
-239.5
 20
928.64516373741833
 30
0.0
 40
9.9999999999999911
 50
30.000000000000782
 51
149.99999999999909
  0
ARC
  5
293
  8
1
 62
     7
 10
-239.5
 20
928.64516373741833
 30
0.0
 40
9.9999999999999485
 50
209.99999999999929
 51
330.00000000000063
  0
ARC
  5
294
  8
1
 62
     7
 10
-216.5965556625062
 20
1059.679019974729
 30
0.0
 40
5.096555662506991
 50
317.20475610972841
 51
42.79524389025471
  0
ARC
  5
295
  8
1
 62
     7
 10
-229.85106295113181
 20
1070.0665199747291
 30
0.0
 40
18.35106295113232
 50
337.82960486303477
 51
22.170395136961851
  0
ARC
  5
296
  8
1
 62
     7
 10
-216.5965556625062
 20
1080.4540199747289
 30
0.0
 40
5.0965556625062183
 50
317.20475610973779
 51
42.795243890264068
  0
ARC
  5
297
  8
1
 62
     7
 10
-216.5965556625062
 20
776.83630750010911
 30
0.0
 40
5.0965556625062964
 50
317.20475610973682
 51
42.795243890263137
  0
ARC
  5
298
  8
1
 62
     7
 10
-229.85106295113181
 20
787.22380750010905
 30
0.0
 40
18.35106295113189
 50
337.82960486303818
 51
22.170395136962181
  0
ARC
  5
299
  8
1
 62
     7
 10
-216.5965556625062
 20
797.61130750010909
 30
0.0
 40
5.0965556625062964
 50
317.20475610973682
 51
42.795243890263137
  0
ARC
  5
29A
  8
1
 62
     7
 10
-525.40344433749362
 20
775.86250379770456
 30
0.0
 40
5.0965556625063941
 50
137.20475610973611
 51
222.79524389026281
  0
ARC
  5
29B
  8
1
 62
     7
 10
-512.14893704886765
 20
786.25000379770461
 30
0.0
 40
18.351062951132189
 50
157.8296048630381
 51
202.1703951369615
  0
ARC
  5
29C
  8
1
 62
     7
 10
-525.4034443374934
 20
796.63750379770465
 30
0.0
 40
5.0965556625064012
 50
137.2047561097379
 51
222.7952438902621
  0
ARC
  5
29D
  8
1
 62
     7
 10
-525.4034443374934
 20
1060.652823677133
 30
0.0
 40
5.0965556625057067
 50
137.2047561097464
 51
222.7952438902708
  0
ARC
  5
29E
  8
1
 62
     7
 10
-512.14893704886765
 20
1071.0403236771331
 30
0.0
 40
18.35106295113216
 50
157.82960486303841
 51
202.1703951369648
  0
ARC
  5
29F
  8
1
 62
     7
 10
-525.40344433749362
 20
1081.427823677132
 30
0.0
 40
5.0965556625070123
 50
137.20475610972849
 51
222.79524389025599
  0
ARC
  5
2A0
  8
1
 62
     7
 10
-216.5965556625062
 20
131.03385623730941
 30
0.0
 40
5.0965556625063728
 50
317.2047561097358
 51
42.795243890262682
  0
ARC
  5
2A1
  8
1
 62
     7
 10
-216.5965556625062
 20
151.8088562373095
 30
0.0
 40
5.0965556625063151
 50
317.20475610973659
 51
42.795243890263372
  0
ARC
  5
2A2
  8
1
 62
     7
 10
-216.5965556625062
 20
-151.8088562373095
 30
0.0
 40
5.0965556625063151
 50
317.20475610973659
 51
42.795243890263372
  0
ARC
  5
2A3
  8
1
 62
     7
 10
-229.85106295113181
 20
-141.4213562373094
 30
0.0
 40
18.351062951131901
 50
337.82960486303813
 51
22.170395136962011
  0
ARC
  5
2A4
  8
1
 62
     7
 10
-216.5965556625062
 20
-131.03385623730941
 30
0.0
 40
5.0965556625063151
 50
317.20475610973659
 51
42.795243890263258
  0
ARC
  5
2A5
  8
1
 62
     7
 10
530.18486185979225
 20
0.0
 30
0.0
 40
225.0000000000002
 50
318.59037789072909
 51
221.40962210927091
  0
ARC
  5
2A6
  8
1
 62
     7
 10
530.18486185979225
 20
0.0
 30
0.0
 40
204.99999999999989
 50
190.82641008932069
 51
200.41667830152801
  0
ARC
  5
2A7
  8
1
 62
     7
 10
530.18486185979225
 20
0.0
 30
0.0
 40
205.0
 50
207.58332169847191
 51
216.17358991067931
  0
ARC
  5
2A8
  8
1
 62
     7
 10
530.18486185979225
 20
0.0
 30
0.0
 40
204.99999999999989
 50
323.8264100893204
 51
332.41667830152812
  0
ARC
  5
2A9
  8
1
 62
     7
 10
530.18486185979225
 20
0.0
 30
0.0
 40
205.0
 50
339.58332169847199
 51
349.17358991067942
  0
ARC
  5
2AA
  8
1
 62
     7
 10
530.18486185979225
 20
0.0
 30
0.0
 40
205.0
 50
251.8264100893206
 51
264.17358991067942
  0
ARC
  5
2AB
  8
1
 62
     7
 10
530.18486185979225
 20
0.0
 30
0.0
 40
205.0
 50
275.82641008932052
 51
288.17358991067931
  0
ARC
  5
2AC
  8
1
 62
     7
 10
530.18486185979225
 20
0.0
 30
0.0
 40
208.9999999999998
 50
60.810816395156749
 51
119.18918360484329
  0
ARC
  5
2AD
  8
1
 62
     7
 10
530.18486185979225
 20
0.0
 30
0.0
 40
185.99999999999989
 50
60.909495012005173
 51
84.534976200094135
  0
ARC
  5
2AE
  8
1
 62
     7
 10
530.18486185979225
 20
0.0
 30
0.0
 40
206.0
 50
60.846766481880081
 51
84.912905047411144
  0
ARC
  5
2AF
  8
1
 62
     7
 10
530.18486185979225
 20
0.0
 30
0.0
 40
206.0
 50
95.087094952588856
 51
119.1532335181199
  0
ARC
  5
2B0
  8
1
 62
     7
 10
530.18486185979225
 20
0.0
 30
0.0
 40
185.9999999999998
 50
95.465023799905879
 51
119.09050498799481
  0
ARC
  5
2B1
  8
1
 62
     7
 10
530.18486185979225
 20
0.0
 30
0.0
 40
209.0
 50
190.0
 51
201.25752806183559
  0
ARC
  5
2B2
  8
1
 62
     7
 10
530.18486185979225
 20
0.0
 30
0.0
 40
209.0
 50
206.7424719381643
 51
217.0
  0
ARC
  5
2B3
  8
1
 62
     7
 10
530.18486185979225
 20
0.0
 30
0.0
 40
209.0
 50
251.0
 51
265.0
  0
ARC
  5
2B4
  8
1
 62
     7
 10
530.18486185979225
 20
0.0
 30
0.0
 40
209.0
 50
275.0
 51
289.0
  0
ARC
  5
2B5
  8
1
 62
     7
 10
530.18486185979225
 20
0.0
 30
0.0
 40
209.0
 50
323.0
 51
333.25752806183561
  0
ARC
  5
2B6
  8
1
 62
     7
 10
530.18486185979225
 20
0.0
 30
0.0
 40
208.9999999999998
 50
338.74247193816427
 51
349.99999999999977
  0
ARC
  5
2B7
  8
1
 62
     7
 10
530.18486185979225
 20
2.0350000000000108
 30
0.0
 40
43.615000000000009
 50
287.34127507593081
 51
252.65872492406899
  0
ARC
  5
2B8
  8
1
 62
     7
 10
530.18486185979225
 20
0.0
 30
0.0
 40
40.0
 50
103.002878162914
 51
76.99712183708624
  0
ARC
  5
2B9
  8
1
 62
     7
 10
530.18486185979225
 20
0.0
 30
0.0
 40
35.0
 50
104.90059668783
 51
75.099403312170296
  0
ARC
  5
2BA
  8
1
 62
     7
 10
-525.40344433749362
 20
-152.78265993971399
 30
0.0
 40
5.0965556625063941
 50
137.20475610973611
 51
222.79524389026309
  0
ARC
  5
2BB
  8
1
 62
     7
 10
-512.14893704886765
 20
-142.39515993971381
 30
0.0
 40
18.35106295113216
 50
157.82960486303841
 51
202.17039513696159
  0
ARC
  5
2BC
  8
1
 62
     7
 10
-525.4034443374934
 20
-132.0076599397139
 30
0.0
 40
5.0965556625063426
 50
137.20475610973861
 51
222.79524389026221
  0
ARC
  5
2BD
  8
1
 62
     7
 10
-525.4034443374934
 20
132.0076599397139
 30
0.0
 40
5.0965556625064199
 50
137.2047561097377
 51
222.79524389026221
  0
ARC
  5
2BE
  8
1
 62
     7
 10
-512.14893704886765
 20
142.39515993971381
 30
0.0
 40
18.351062951132182
 50
157.8296048630383
 51
202.17039513696159
  0
ARC
  5
2BF
  8
1
 62
     7
 10
-525.40344433749362
 20
152.78265993971391
 30
0.0
 40
5.0965556625063169
 50
137.2047561097371
 51
222.79524389026309
  0
ARC
  5
2C0
  8
1
 62
     7
 10
-239.5
 20
251.0
 30
0.0
 40
25.0
 50
306.63921394429661
 51
233.3607860557035
  0
ARC
  5
2C1
  8
1
 62
     7
 10
-495.5
 20
251.0
 30
0.0
 40
25.000000000000071
 50
306.63921394429661
 51
233.36078605570381
  0
ARC
  5
2C2
  8
1
 62
     7
 10
530.18486185979214
 20
270.61303431695183
 30
0.0
 40
5.6361266349578694
 50
27.48470345054368
 51
152.5152965494562
  0
ARC
  5
2C3
  8
1
 62
     7
 10
294.41571681212542
 20
30.29345329043425
 30
0.0
 40
1.0
 50
270.0
 51
340.55180070494822
  0
ARC
  5
2C4
  8
1
 62
     7
 10
272.64187976805277
 20
28.29345329043425
 30
0.0
 40
1.0
 50
90.0
 51
180.0
  0
ARC
  5
2C5
  8
1
 62
     7
 10
297.41948960062888
 20
32.793453290434229
 30
0.0
 40
1.0
 50
90.0
 51
160.55180070494129
  0
ARC
  5
2C6
  8
1
 62
     7
 10
301.22826873175848
 20
32.793453290434229
 30
0.0
 40
0.9999999999999891
 50
340.55180070494907
 51
90.0
  0
ARC
  5
2C7
  8
1
 62
     7
 10
276.86426993547661
 20
-36.20654670956575
 30
0.0
 40
1.0
 50
270.0
 51
340.55180070494657
  0
ARC
  5
2C8
  8
1
 62
     7
 10
273.05549080434702
 20
-36.20654670956575
 30
0.0
 40
0.9999999999999834
 50
160.55180070494029
 51
270.0
  0
ARC
  5
2C9
  8
1
 62
     7
 10
272.55922030542712
 20
-32.806546709565652
 30
0.0
 40
0.5999999999998017
 50
340.55180070493901
 51
90.0
  0
ARC
  5
2CA
  8
1
 62
     7
 10
272.24187976805263
 20
-31.60654670956561
 30
0.0
 40
0.5999999999997954
 50
180.0
 51
270.0
  0
ARC
  5
2CB
  8
1
 62
     7
 10
279.9443535088767
 20
-36.20654670956575
 30
0.0
 40
1.0
 50
270.0
 51
0.0
  0
ARC
  5
2CC
  8
1
 62
     7
 10
281.9443535088767
 20
-31.70654670956575
 30
0.0
 40
1.0
 50
90.0
 51
180.0
  0
ARC
  5
2CD
  8
1
 62
     7
 10
-475.49999999999989
 20
928.64516373741856
 30
0.0
 40
5.0
 50
270.0
 51
90.0
  0
ARC
  5
2CE
  8
1
 62
     7
 10
-515.5
 20
928.64516373741856
 30
0.0
 40
5.0
 50
90.0
 51
270.0
  0
ARC
  5
2CF
  8
1
 62
     7
 10
-219.49999999999989
 20
928.64516373741856
 30
0.0
 40
5.0
 50
270.0
 51
90.0
  0
ARC
  5
2D0
  8
1
 62
     7
 10
-259.5
 20
928.64516373741856
 30
0.0
 40
5.0
 50
90.0
 51
270.0
  0
ARC
  5
2D1
  8
1
 62
     7
 10
-586.50000000000011
 20
713.64516373741856
 30
0.0
 40
15.0
 50
180.0
 51
270.0
  0
ARC
  5
2D2
  8
1
 62
     7
 10
-586.50000000000011
 20
808.64516373741867
 30
0.0
 40
15.0
 50
90.0
 51
180.0
  0
ARC
  5
2D3
  8
1
 62
     7
 10
-148.5
 20
808.64516373741867
 30
0.0
 40
15.0
 50
0.0
 51
90.0
  0
ARC
  5
2D4
  8
1
 62
     7
 10
-148.5
 20
713.64516373741856
 30
0.0
 40
15.0
 50
270.0
 51
0.0
  0
ARC
  5
2D5
  8
1
 62
     7
 10
-586.50000000000011
 20
1048.645163737418
 30
0.0
 40
15.0
 50
180.0
 51
270.0
  0
ARC
  5
2D6
  8
1
 62
     7
 10
-586.50000000000011
 20
1143.645163737418
 30
0.0
 40
15.0
 50
90.0
 51
180.0
  0
ARC
  5
2D7
  8
1
 62
     7
 10
-148.5
 20
1048.645163737418
 30
0.0
 40
15.0
 50
270.0
 51
0.0
  0
ARC
  5
2D8
  8
1
 62
     7
 10
-148.5
 20
1143.645163737418
 30
0.0
 40
15.0
 50
0.0
 51
90.0
  0
ARC
  5
2D9
  8
1
 62
     7
 10
-504.49999999999989
 20
708.64516373741856
 30
0.0
 40
5.0
 50
180.0
 51
270.0
  0
ARC
  5
2DA
  8
1
 62
     7
 10
-230.5
 20
708.64516373741856
 30
0.0
 40
5.0
 50
270.0
 51
0.0
  0
ARC
  5
2DB
  8
1
 62
     7
 10
-504.49999999999989
 20
1148.645163737418
 30
0.0
 40
5.0
 50
90.0
 51
180.0
  0
ARC
  5
2DC
  8
1
 62
     7
 10
-230.5
 20
1148.645163737418
 30
0.0
 40
5.0
 50
0.0
 51
90.0
  0
ARC
  5
2DD
  8
1
 62
     7
 10
-520.5
 20
821.14516373741833
 30
0.0
 40
5.0
 50
180.0
 51
270.0
  0
ARC
  5
2DE
  8
1
 62
     7
 10
-520.5
 20
1036.145163737418
 30
0.0
 40
5.0
 50
90.0
 51
180.0
  0
ARC
  5
2DF
  8
1
 62
     7
 10
-520.5
 20
1036.145163737418
 30
0.0
 40
5.0
 50
90.0
 51
180.0
  0
ARC
  5
2E0
  8
1
 62
     7
 10
-214.5
 20
821.14516373741833
 30
0.0
 40
5.0
 50
270.0
 51
0.0
  0
ARC
  5
2E1
  8
1
 62
     7
 10
-214.5
 20
1036.145163737418
 30
0.0
 40
5.0
 50
0.0
 51
90.0
  0
ARC
  5
2E2
  8
1
 62
     7
 10
-641.49999999999989
 20
928.64516373741856
 30
0.0
 40
9.0
 50
270.0
 51
90.0
  0
ARC
  5
2E3
  8
1
 62
     7
 10
-93.499999999999986
 20
928.64516373741856
 30
0.0
 40
9.0
 50
90.0
 51
270.0
  0
ARC
  5
2E4
  8
1
 62
     7
 10
-223.49999999999989
 20
1052.0665199747259
 30
0.0
 40
2.0
 50
90.0
 51
180.0
  0
ARC
  5
2E5
  8
1
 62
     7
 10
-223.49999999999989
 20
769.22380750010927
 30
0.0
 40
2.0
 50
90.0
 51
180.0
  0
ARC
  5
2E6
  8
1
 62
     7
 10
-223.49999999999989
 20
805.23030603771235
 30
0.0
 40
2.0
 50
180.0
 51
269.81413274077153
  0
ARC
  5
2E7
  8
1
 62
     7
 10
-223.49999999999989
 20
1088.0665199747291
 30
0.0
 40
2.0
 50
180.0
 51
270.0
  0
ARC
  5
2E8
  8
1
 62
     7
 10
-511.49999999999977
 20
804.25650233530769
 30
0.0
 40
1.9999999999999849
 50
270.18586725922921
 51
0.0
  0
ARC
  5
2E9
  8
1
 62
     7
 10
-511.49999999999977
 20
768.25000379770461
 30
0.0
 40
2.0
 50
0.0
 51
90.0
  0
ARC
  5
2EA
  8
1
 62
     7
 10
-511.49999999999977
 20
1089.0403236771331
 30
0.0
 40
2.0
 50
270.0
 51
0.0
  0
ARC
  5
2EB
  8
1
 62
     7
 10
-511.49999999999977
 20
1053.0403236771331
 30
0.0
 40
2.0
 50
0.0
 51
90.0
  0
ARC
  5
2EC
  8
1
 62
     7
 10
-223.49999999999989
 20
123.4213562373094
 30
0.0
 40
2.0
 50
90.0
 51
180.0
  0
ARC
  5
2ED
  8
1
 62
     7
 10
-337.5
 20
-77.289859515784485
 30
0.0
 40
5.0
 50
180.0
 51
270.0
  0
ARC
  5
2EE
  8
1
 62
     7
 10
-397.5
 20
-77.289859515784485
 30
0.0
 40
5.0
 50
270.0
 51
0.0
  0
ARC
  5
2EF
  8
1
 62
     7
 10
-337.5
 20
-66.513197767723867
 30
0.0
 40
5.0
 50
180.0
 51
270.0
  0
ARC
  5
2F0
  8
1
 62
     7
 10
-397.5
 20
-66.513197767723852
 30
0.0
 40
5.0000000000000133
 50
270.0
 51
0.0
  0
ARC
  5
2F1
  8
1
 62
     7
 10
-397.5
 20
-44.070839975059329
 30
0.0
 40
5.0
 50
0.0
 51
90.0
  0
ARC
  5
2F2
  8
1
 62
     7
 10
-337.5
 20
-44.070839975059329
 30
0.0
 40
5.0000000000000062
 50
90.0
 51
180.0
  0
ARC
  5
2F3
  8
1
 62
     7
 10
-400.50000000000011
 20
-130.40838020921089
 30
0.0
 40
5.0
 50
270.0
 51
0.0
  0
ARC
  5
2F4
  8
1
 62
     7
 10
-334.5
 20
-130.40838020921089
 30
0.0
 40
5.0
 50
180.0
 51
270.0
  0
ARC
  5
2F5
  8
1
 62
     7
 10
-400.50000000000011
 20
-116.59445240895219
 30
0.0
 40
5.0
 50
270.0
 51
0.0
  0
ARC
  5
2F6
  8
1
 62
     7
 10
-334.5
 20
-116.59445240895219
 30
0.0
 40
5.0
 50
180.0
 51
270.0
  0
ARC
  5
2F7
  8
1
 62
     7
 10
-398.49999999999989
 20
-194.0
 30
0.0
 40
3.0
 50
270.0
 51
0.0
  0
ARC
  5
2F8
  8
1
 62
     7
 10
-522.5
 20
212.0
 30
0.0
 40
3.0
 50
180.0
 51
270.0
  0
ARC
  5
2F9
  8
1
 62
     7
 10
-514.5
 20
204.0
 30
0.0
 40
5.0
 50
0.0
 51
90.0
  0
ARC
  5
2FA
  8
1
 62
     7
 10
-520.5
 20
220.0
 30
0.0
 40
5.0
 50
90.0
 51
180.0
  0
ARC
  5
2FB
  8
1
 62
     7
 10
-212.5
 20
212.0
 30
0.0
 40
3.0
 50
270.0
 51
0.0
  0
ARC
  5
2FC
  8
1
 62
     7
 10
-220.5
 20
204.0
 30
0.0
 40
5.0
 50
90.0
 51
180.0
  0
ARC
  5
2FD
  8
1
 62
     7
 10
-214.5
 20
220.0
 30
0.0
 40
5.0
 50
0.0
 51
90.0
  0
ARC
  5
2FE
  8
1
 62
     7
 10
305.18486185979208
 20
-202.0
 30
0.0
 40
5.0
 50
90.0
 51
180.0
  0
ARC
  5
2FF
  8
1
 62
     7
 10
420.18486185979219
 20
-202.0
 30
0.0
 40
5.0
 50
0.0
 51
90.0
  0
ARC
  5
300
  8
1
 62
     7
 10
360.18486185979219
 20
-192.0
 30
0.0
 40
5.0
 50
270.0
 51
0.0
  0
ARC
  5
301
  8
1
 62
     7
 10
394.18486185979208
 20
-192.0
 30
0.0
 40
5.0
 50
270.0
 51
0.0
  0
ARC
  5
302
  8
1
 62
     7
 10
350.18486185979219
 20
-158.7450786638754
 30
0.0
 40
15.0
 50
0.0
 51
41.409622109269648
  0
ARC
  5
303
  8
1
 62
     7
 10
394.18486185979208
 20
-161.7095029379864
 30
0.0
 40
5.0
 50
0.0
 51
104.9609003943509
  0
ARC
  5
304
  8
1
 62
     7
 10
430.13832264339999
 20
-160.630954674012
 30
0.0
 40
5.0
 50
90.0
 51
180.0
  0
ARC
  5
305
  8
1
 62
     7
 10
427.18486185979208
 20
-227.0
 30
0.0
 40
2.0
 50
90.0
 51
180.0
  0
ARC
  5
306
  8
1
 62
     7
 10
461.35261611371982
 20
-85.802808494549382
 30
0.0
 40
5.0000000000000329
 50
51.26291312613904
 51
135.0000000000004
  0
ARC
  5
307
  8
1
 62
     7
 10
444.38205336524283
 20
-68.832245746072289
 30
0.0
 40
4.9999999999998996
 50
314.99999999999869
 51
38.737086873860278
  0
ARC
  5
308
  8
1
 62
     7
 10
392.46428185519812
 20
-120.750017256117
 30
0.0
 40
5.0
 50
259.84990457904593
 51
315.00000000000148
  0
ARC
  5
309
  8
1
 62
     7
 10
409.43484460367512
 20
-137.7205800045941
 30
0.0
 40
5.0
 50
135.0000000000004
 51
190.15009542095399
  0
ARC
  5
30A
  8
1
 62
     7
 10
650.93487911590933
 20
-137.7205800045941
 30
0.0
 40
5.0000000000001128
 50
349.84990457904621
 51
44.9999999999986
  0
ARC
  5
30B
  8
1
 62
     7
 10
667.90544186438638
 20
-120.750017256117
 30
0.0
 40
4.9999999999999094
 50
225.0000000000004
 51
280.15009542095419
  0
ARC
  5
30C
  8
1
 62
     7
 10
615.98767035434173
 20
-68.832245746072289
 30
0.0
 40
5.0000000000000187
 50
141.26291312613981
 51
224.9999999999998
  0
ARC
  5
30D
  8
1
 62
     7
 10
599.01710760586457
 20
-85.802808494549382
 30
0.0
 40
5.0000000000000089
 50
44.999999999999673
 51
128.73708687386051
  0
ARC
  5
30E
  8
1
 62
     7
 10
633.18486185979225
 20
-227.0
 30
0.0
 40
2.0
 50
0.0
 51
90.0
  0
ARC
  5
30F
  8
1
 62
     7
 10
630.23140107618451
 20
-160.630954674012
 30
0.0
 40
5.0
 50
0.0
 51
90.0
  0
ARC
  5
310
  8
1
 62
     7
 10
666.18486185979225
 20
-161.7095029379864
 30
0.0
 40
5.0000000000000364
 50
75.039099605648346
 51
180.0
  0
ARC
  5
311
  8
1
 62
     7
 10
710.18486185979225
 20
-158.7450786638754
 30
0.0
 40
14.999999999999901
 50
138.59037789073079
 51
180.0
  0
ARC
  5
312
  8
1
 62
     7
 10
666.18486185979225
 20
-192.0
 30
0.0
 40
5.0
 50
180.0
 51
270.0
  0
ARC
  5
313
  8
1
 62
     7
 10
700.18486185979225
 20
-192.0
 30
0.0
 40
5.0
 50
180.0
 51
270.0
  0
ARC
  5
314
  8
1
 62
     7
 10
640.18486185979236
 20
-202.0
 30
0.0
 40
5.0
 50
90.0
 51
180.0
  0
ARC
  5
315
  8
1
 62
     7
 10
755.18486185979225
 20
-202.0
 30
0.0
 40
5.0
 50
0.0
 51
90.0
  0
ARC
  5
316
  8
1
 62
     7
 10
615.98767035434162
 20
68.832245746072431
 30
0.0
 40
5.0000000000000586
 50
134.9999999999998
 51
218.7370868738607
  0
ARC
  5
317
  8
1
 62
     7
 10
599.01710760586457
 20
85.802808494549424
 30
0.0
 40
4.999999999999952
 50
231.26291312613901
 51
315.00000000000051
  0
ARC
  5
318
  8
1
 62
     7
 10
650.93487911590933
 20
137.7205800045941
 30
0.0
 40
5.0
 50
315.00000000000051
 51
10.15009542095399
  0
ARC
  5
319
  8
1
 62
     7
 10
667.90544186438638
 20
120.750017256117
 30
0.0
 40
5.0000000000000968
 50
79.849904579046196
 51
134.99999999999901
  0
ARC
  5
31A
  8
1
 62
     7
 10
461.35261611371982
 20
85.802808494549424
 30
0.0
 40
5.0000000000000391
 50
225.00000000000091
 51
308.73708687386011
  0
ARC
  5
31B
  8
1
 62
     7
 10
444.3820533652426
 20
68.832245746072317
 30
0.0
 40
5.0000000000001261
 50
321.26291312614029
 51
44.999999999999538
  0
ARC
  5
31C
  8
1
 62
     7
 10
392.46428185519812
 20
120.750017256117
 30
0.0
 40
4.9999999999999094
 50
45.000000000000362
 51
100.1500954209542
  0
ARC
  5
31D
  8
1
 62
     7
 10
409.43484460367512
 20
137.7205800045941
 30
0.0
 40
5.000000000000056
 50
169.8499045790461
 51
224.99999999999849
  0
ARC
  5
31E
  8
1
 62
     7
 10
548.18486185979225
 20
188.14090464330181
 30
0.0
 40
3.0
 50
180.0
 51
264.53497620009352
  0
ARC
  5
31F
  8
1
 62
     7
 10
548.18486185979225
 20
202.20039564748629
 30
0.0
 40
3.0000000000000351
 50
84.912905047414071
 51
180.0
  0
ARC
  5
320
  8
1
 62
     7
 10
629.07570129936096
 20
177.28395831246931
 30
0.0
 40
3.000000000000048
 50
330.00000000000063
 51
60.846766481880422
  0
ARC
  5
321
  8
1
 62
     7
 10
622.07488013658065
 20
165.1581803638303
 30
0.0
 40
3.000000000000095
 50
240.90949501200589
 51
330.00000000000063
  0
ARC
  5
322
  8
1
 62
     7
 10
633.57617190951703
 20
185.07900206722971
 30
0.0
 40
2.999999999999944
 50
240.81081639515639
 51
329.99999999999932
  0
ARC
  5
323
  8
1
 62
     7
 10
426.79355181006753
 20
185.07900206722971
 30
0.0
 40
2.9999999999999512
 50
210.0000000000004
 51
299.18918360483968
  0
ARC
  5
324
  8
1
 62
     7
 10
438.29484358300402
 20
165.1581803638303
 30
0.0
 40
3.0000000000000981
 50
209.99999999999881
 51
299.09050498799411
  0
ARC
  5
325
  8
1
 62
     7
 10
431.29402242022343
 20
177.28395831246931
 30
0.0
 40
3.0000000000000662
 50
119.15323351811961
 51
209.99999999999949
  0
ARC
  5
326
  8
1
 62
     7
 10
512.18486185979225
 20
202.20039564748629
 30
0.0
 40
3.0
 50
0.0
 51
95.087094952589169
  0
ARC
  5
327
  8
1
 62
     7
 10
512.18486185979225
 20
188.14090464330181
 30
0.0
 40
3.0000000000001199
 50
275.46502379990437
 51
0.0
  0
ARC
  5
328
  8
1
 62
     7
 10
698.08921394832566
 20
-122.76859757173131
 30
0.0
 40
3.0000000000000009
 50
143.8264100893289
 51
233.00000000000031
  0
ARC
  5
329
  8
1
 62
     7
 10
714.54324970816401
 20
-96.311914267910367
 30
0.0
 40
2.9999999999999911
 50
66.000000000000071
 51
152.4166783015236
  0
ARC
  5
32A
  8
1
 62
     7
 10
725.11840242813469
 20
-72.559732369202692
 30
0.0
 40
2.9999999999999409
 50
159.58332169847461
 51
246.0000000000002
  0
ARC
  5
32B
  8
1
 62
     7
 10
734.48262290820867
 20
-39.069487206823929
 30
0.0
 40
2.9999999999999978
 50
79.999999999999261
 51
169.17358991067749
  0
ARC
  5
32C
  8
1
 62
     7
 10
465.31028536765132
 20
-197.6241111933596
 30
0.0
 40
2.9999999999999249
 50
71.826410089322763
 51
160.9999999999996
  0
ARC
  5
32D
  8
1
 62
     7
 10
509.06976895304911
 20
-206.9254765647276
 30
0.0
 40
2.999999999999968
 50
355.00000000000119
 51
84.173589910673726
  0
ARC
  5
32E
  8
1
 62
     7
 10
551.29995476653528
 20
-206.9254765647276
 30
0.0
 40
2.9999999999999258
 50
95.826410089330594
 51
184.99999999999841
  0
ARC
  5
32F
  8
1
 62
     7
 10
595.05943835193307
 20
-197.6241111933596
 30
0.0
 40
3.0000000000000169
 50
18.99999999999828
 51
108.17358991067719
  0
ARC
  5
330
  8
1
 62
     7
 10
345.82647401142049
 20
-96.311914267910367
 30
0.0
 40
3.0000000000000062
 50
27.58332169847132
 51
113.9999999999999
  0
ARC
  5
331
  8
1
 62
     7
 10
362.28050977125861
 20
-122.76859757173141
 30
0.0
 40
2.9999999999999809
 50
306.99999999999881
 51
36.173589910683148
  0
ARC
  5
332
  8
1
 62
     7
 10
335.25132129144959
 20
-72.559732369202791
 30
0.0
 40
2.9999999999999911
 50
293.99999999999989
 51
20.416678301530052
  0
ARC
  5
333
  8
1
 62
     7
 10
325.88710081137577
 20
-39.069487206823922
 30
0.0
 40
3.0000000000001981
 50
10.826410089316671
 51
99.999999999997485
  0
ARC
  5
334
  8
1
 62
     7
 10
540.68486185979236
 20
-43.141835884530849
 30
0.0
 40
2.5
 50
270.0
 51
0.0
  0
ARC
  5
335
  8
1
 62
     7
 10
519.68486185979236
 20
-43.141835884530849
 30
0.0
 40
2.5
 50
180.0
 51
270.0
  0
ARC
  5
336
  8
1
 62
     7
 10
-336.5
 20
-194.0
 30
0.0
 40
3.0
 50
180.0
 51
270.0
  0
ARC
  5
337
  8
1
 62
     7
 10
-235.49999999999989
 20
-29.070839975059322
 30
0.0
 40
10.0
 50
270.0
 51
0.0
  0
ARC
  5
338
  8
1
 62
     7
 10
-235.49999999999989
 20
-72.289859515784485
 30
0.0
 40
10.0
 50
270.0
 51
0.0
  0
ARC
  5
339
  8
1
 62
     7
 10
-235.49999999999989
 20
-90.560768668636513
 30
0.0
 40
9.9999999999999876
 50
270.0
 51
0.0
  0
ARC
  5
33A
  8
1
 62
     7
 10
-235.49999999999989
 20
-125.4083802092109
 30
0.0
 40
9.9999999999999876
 50
270.0
 51
0.0
  0
ARC
  5
33B
  8
1
 62
     7
 10
-250.49999999999989
 20
-116.59445240895219
 30
0.0
 40
5.0
 50
270.0
 51
0.0
  0
ARC
  5
33C
  8
1
 62
     7
 10
-250.49999999999989
 20
-66.513197767723867
 30
0.0
 40
5.0
 50
270.0
 51
0.0
  0
ARC
  5
33D
  8
1
 62
     7
 10
-235.49999999999989
 20
-142.799817091384
 30
0.0
 40
10.00000000000008
 50
270.0
 51
326.9603209091087
  0
ARC
  5
33E
  8
1
 62
     7
 10
-499.5
 20
-29.070839975059322
 30
0.0
 40
10.0
 50
180.0
 51
270.0
  0
ARC
  5
33F
  8
1
 62
     7
 10
-499.5
 20
-72.289859515784485
 30
0.0
 40
10.0
 50
180.0
 51
270.0
  0
ARC
  5
340
  8
1
 62
     7
 10
-499.5
 20
-90.560768668636513
 30
0.0
 40
10.0
 50
180.0
 51
270.0
  0
ARC
  5
341
  8
1
 62
     7
 10
-484.49999999999989
 20
-116.59445240895219
 30
0.0
 40
5.0
 50
180.0
 51
270.0
  0
ARC
  5
342
  8
1
 62
     7
 10
-484.49999999999989
 20
-66.513197767723867
 30
0.0
 40
5.0
 50
180.0
 51
270.0
  0
ARC
  5
343
  8
1
 62
     7
 10
-223.49999999999989
 20
-159.4213562373094
 30
0.0
 40
2.0
 50
90.0
 51
180.0
  0
ARC
  5
344
  8
1
 62
     7
 10
-223.49999999999989
 20
-123.4148576997062
 30
0.0
 40
2.0
 50
180.0
 51
269.81413274077153
  0
ARC
  5
345
  8
1
 62
     7
 10
-220.5
 20
-192.0
 30
0.0
 40
5.0
 50
180.0
 51
270.0
  0
ARC
  5
346
  8
1
 62
     7
 10
-138.5
 20
-202.0
 30
0.0
 40
5.0
 50
0.0
 51
90.0
  0
ARC
  5
347
  8
1
 62
     7
 10
-223.49999999999989
 20
159.4213562373094
 30
0.0
 40
2.0
 50
180.0
 51
270.0
  0
ARC
  5
348
  8
1
 62
     7
 10
-596.49999999999989
 20
-202.0
 30
0.0
 40
5.0
 50
90.0
 51
180.0
  0
ARC
  5
349
  8
1
 62
     7
 10
-514.5
 20
-192.0
 30
0.0
 40
5.0
 50
270.0
 51
0.0
  0
ARC
  5
34A
  8
1
 62
     7
 10
-511.49999999999977
 20
-124.3886614021107
 30
0.0
 40
2.0000000000000151
 50
270.18586725922921
 51
0.0
  0
ARC
  5
34B
  8
1
 62
     7
 10
-511.49999999999977
 20
-160.39515993971401
 30
0.0
 40
2.0
 50
0.0
 51
90.0
  0
ARC
  5
34C
  8
1
 62
     7
 10
-499.5
 20
-142.799817091384
 30
0.0
 40
10.00000000000005
 50
213.03967909089141
 51
270.0
  0
ARC
  5
34D
  8
1
 62
     7
 10
-499.5
 20
-125.4083802092109
 30
0.0
 40
10.0
 50
180.0
 51
270.0
  0
ARC
  5
34E
  8
1
 62
     7
 10
-511.49999999999977
 20
160.39515993971381
 30
0.0
 40
2.0
 50
270.0
 51
0.0
  0
ARC
  5
34F
  8
1
 62
     7
 10
-221.0
 20
226.1253140723345
 30
0.0
 40
5.9999999999999973
 50
126.6392139442963
 51
180.0
  0
ARC
  5
350
  8
1
 62
     7
 10
-258.0
 20
226.1253140723345
 30
0.0
 40
6.0
 50
0.0
 51
53.36078605570367
  0
ARC
  5
351
  8
1
 62
     7
 10
-514.0
 20
226.1253140723345
 30
0.0
 40
6.0
 50
0.0
 51
53.36078605570232
  0
ARC
  5
352
  8
1
 62
     7
 10
-477.0
 20
226.1253140723345
 30
0.0
 40
5.9999999999999281
 50
126.63921394429541
 51
180.0
  0
ARC
  5
353
  8
1
 62
     7
 10
536.78486185979204
 20
229.95815573551479
 30
0.0
 40
1.5999999999999091
 50
180.0
 51
270.0
  0
ARC
  5
354
  8
1
 62
     7
 10
523.58486185979211
 20
229.95815573551479
 30
0.0
 40
1.5999999999999941
 50
270.0
 51
0.0
  0
ARC
  5
355
  8
1
 62
     7
 10
-511.49999999999977
 20
124.39515993971381
 30
0.0
 40
2.0
 50
0.0
 51
90.0
  0
ARC
  5
356
  8
1
 62
     7
 10
304.4443535088767
 20
-28.206546709565739
 30
0.0
 40
2.5
 50
270.0
 51
7.1222631399261322
  0
ARC
  5
357
  8
1
 62
     7
 10
-229.85106295113181
 20
141.4213562373094
 30
0.0
 40
18.35106295113194
 50
337.82960486303762
 51
22.170395136961918
  0
CIRCLE
  5
358
  8
1
 62
     7
 10
-567.50000000000011
 20
733.64516373741856
 30
0.0
 40
18.5
  0
CIRCLE
  5
359
  8
1
 62
     7
 10
-567.50000000000011
 20
1123.645163737418
 30
0.0
 40
18.5
  0
CIRCLE
  5
35A
  8
1
 62
     7
 10
-167.5
 20
1123.645163737418
 30
0.0
 40
18.5
  0
CIRCLE
  5
35B
  8
1
 62
     7
 10
-167.5
 20
733.64516373741856
 30
0.0
 40
18.5
  0
CIRCLE
  5
35C
  8
1
 62
     7
 10
-567.50000000000011
 20
733.64516373741856
 30
0.0
 40
10.5
  0
CIRCLE
  5
35D
  8
1
 62
     7
 10
-167.5
 20
733.64516373741856
 30
0.0
 40
10.5
  0
CIRCLE
  5
35E
  8
1
 62
     7
 10
-567.50000000000011
 20
1123.645163737418
 30
0.0
 40
10.5
  0
CIRCLE
  5
35F
  8
1
 62
     7
 10
-167.5
 20
1123.645163737418
 30
0.0
 40
10.5
  0
CIRCLE
  5
360
  8
1
 62
     7
 10
530.18486185979225
 20
0.0
 30
0.0
 40
85.0
  0
CIRCLE
  5
361
  8
1
 62
     7
 10
388.76350562248263
 20
-141.4213562373094
 30
0.0
 40
12.0
  0
CIRCLE
  5
362
  8
1
 62
     7
 10
388.76350562248263
 20
-141.4213562373094
 30
0.0
 40
16.0
  0
CIRCLE
  5
363
  8
1
 62
     7
 10
530.18486185979225
 20
0.0
 30
0.0
 40
105.0
  0
CIRCLE
  5
364
  8
1
 62
     7
 10
671.60621809710176
 20
-141.4213562373094
 30
0.0
 40
16.0
  0
CIRCLE
  5
365
  8
1
 62
     7
 10
671.60621809710176
 20
-141.4213562373094
 30
0.0
 40
12.0
  0
CIRCLE
  5
366
  8
1
 62
     7
 10
671.60621809710165
 20
141.42135623730951
 30
0.0
 40
12.0
  0
CIRCLE
  5
367
  8
1
 62
     7
 10
671.60621809710165
 20
141.42135623730951
 30
0.0
 40
16.0
  0
CIRCLE
  5
368
  8
1
 62
     7
 10
388.76350562248263
 20
141.4213562373094
 30
0.0
 40
12.0
  0
CIRCLE
  5
369
  8
1
 62
     7
 10
388.76350562248263
 20
141.4213562373094
 30
0.0
 40
16.0
  0
CIRCLE
  5
36A
  8
1
 62
     7
 10
639.30406273663152
 20
63.000000000000021
 30
0.0
 40
9.0
  0
CIRCLE
  5
36B
  8
1
 62
     7
 10
639.30406273663152
 20
63.000000000000021
 30
0.0
 40
10.749999999999989
  0
CIRCLE
  5
36C
  8
1
 62
     7
 10
530.18486185979225
 20
126.0
 30
0.0
 40
10.749999999999989
  0
CIRCLE
  5
36D
  8
1
 62
     7
 10
530.18486185979225
 20
126.0
 30
0.0
 40
9.0
  0
CIRCLE
  5
36E
  8
1
 62
     7
 10
421.06566098295298
 20
63.000000000000107
 30
0.0
 40
10.749999999999989
  0
CIRCLE
  5
36F
  8
1
 62
     7
 10
421.06566098295298
 20
63.000000000000107
 30
0.0
 40
8.9999999999999432
  0
CIRCLE
  5
370
  8
1
 62
     7
 10
421.06566098295258
 20
-62.999999999999901
 30
0.0
 40
10.749999999999989
  0
CIRCLE
  5
371
  8
1
 62
     7
 10
421.06566098295258
 20
-62.999999999999901
 30
0.0
 40
9.0
  0
CIRCLE
  5
372
  8
1
 62
     7
 10
530.18486185979214
 20
-126.0
 30
0.0
 40
10.749999999999989
  0
CIRCLE
  5
373
  8
1
 62
     7
 10
530.18486185979214
 20
-126.0
 30
0.0
 40
9.0
  0
CIRCLE
  5
374
  8
1
 62
     7
 10
639.30406273663141
 20
-63.0
 30
0.0
 40
10.749999999999989
  0
CIRCLE
  5
375
  8
1
 62
     7
 10
639.30406273663141
 20
-63.0
 30
0.0
 40
9.0
  0
CIRCLE
  5
376
  8
1
 62
     7
 10
540.68486185979236
 20
-42.41683588453084
 30
0.0
 40
1.25
  0
CIRCLE
  5
377
  8
1
 62
     7
 10
519.68486185979236
 20
-42.41683588453084
 30
0.0
 40
1.25
  0
CIRCLE
  5
378
  8
1
 62
     7
 10
530.18486185979225
 20
0.0
 30
0.0
 40
4.79999999999984
  0
CIRCLE
  5
379
  8
1
 62
     3
 10
530.18486185979225
 20
0.0
 30
0.0
 40
5.9999999999998863
  0
CIRCLE
  5
37A
  8
1
 62
     7
 10
-239.5
 20
251.0
 30
0.0
 40
15.0
  0
CIRCLE
  5
37B
  8
1
 62
     7
 10
-495.5
 20
251.0
 30
0.0
 40
15.0
  0
TEXT
  5
37C
  8
1
 62
     7
 10
466.5606981062781
 20
932.7423679665884
 30
0.0
 40
20.0
  1
MSU 100
 41
0.9
  7
SIMPLEX
  0
TEXT
  5
37E
  8
1
 62
     7
 10
495.6055761455064
 20
-162.34576847235979
 30
0.0
 40
10.0
  1
I N P U T
 41
0.8909999999999998
  7
SIMPLEX
 72
     1
 11
530.18486185979214
 21
-162.34576847235979
 31
0.0
  0
INSERT
  5
37F
  8
0
  2
TOP__1
 10
-367.5
 20
706.73406887224553
 30
0.0
  0
INSERT
  5
380
  8
0
  2
TOP__2
 10
-367.5
 20
-0.0000000000000213
 30
0.0
  0
ENDSEC
  0
EOF
