  0
SECTION
  2
HEADER
  9
$ACADVER
  1
AC1009
  9
$INSBASE
 10
0.0
 20
0.0
 30
0.0
  9
$EXTMIN
 10
-327.89728948252611
 20
-350.5791420010562
 30
0.0
  9
$EXTMAX
 10
145.19655457150321
 20
12.34455257072379
 30
0.0
  9
$LIMMIN
 10
-327.89728948252611
 20
-350.5791420010562
  9
$LIMMAX
 10
144.78234100912999
 20
11.309018664791051
  9
$ORTHOMODE
 70
     0
  9
$REGENMODE
 70
     1
  9
$FILLMODE
 70
     1
  9
$QTEXTMODE
 70
     0
  9
$MIRRTEXT
 70
     1
  9
$DRAGMODE
 70
     2
  9
$LTSCALE
 40
1.0
  9
$OSMODE
 70
    37
  9
$ATTMODE
 70
     1
  9
$TEXTSIZE
 40
3.5
  9
$TRACEWID
 40
0.5
  9
$TEXTSTYLE
  7
STANDARD
  9
$CLAYER
  8
0
  9
$CELTYPE
  6
BYLAYER
  9
$CECOLOR
 62
   256
  9
$DIMSCALE
 40
1.0
  9
$DIMASZ
 40
0.18
  9
$DIMEXO
 40
0.0625
  9
$DIMDLI
 40
0.38
  9
$DIMRND
 40
0.0
  9
$DIMDLE
 40
0.0
  9
$DIMEXE
 40
0.18
  9
$DIMTP
 40
0.0
  9
$DIMTM
 40
0.0
  9
$DIMTXT
 40
0.18
  9
$DIMCEN
 40
0.09
  9
$DIMTSZ
 40
0.0
  9
$DIMTOL
 70
     0
  9
$DIMLIM
 70
     0
  9
$DIMTIH
 70
     1
  9
$DIMTOH
 70
     1
  9
$DIMSE1
 70
     0
  9
$DIMSE2
 70
     0
  9
$DIMTAD
 70
     0
  9
$DIMZIN
 70
     0
  9
$DIMBLK
  1

  9
$DIMASO
 70
     1
  9
$DIMSHO
 70
     1
  9
$DIMPOST
  1

  9
$DIMAPOST
  1

  9
$DIMALT
 70
     0
  9
$DIMALTD
 70
     2
  9
$DIMALTF
 40
25.399999999999999
  9
$DIMLFAC
 40
1.0
  9
$DIMTOFL
 70
     0
  9
$DIMTVP
 40
0.0
  9
$DIMTIX
 70
     0
  9
$DIMSOXD
 70
     0
  9
$DIMSAH
 70
     0
  9
$DIMBLK1
  1

  9
$DIMBLK2
  1

  9
$DIMSTYLE
  2
STANDARD
  9
$DIMCLRD
 70
     0
  9
$DIMCLRE
 70
     0
  9
$DIMCLRT
 70
     0
  9
$DIMTFAC
 40
1.0
  9
$DIMGAP
 40
0.09
  9
$LUNITS
 70
     2
  9
$LUPREC
 70
     4
  9
$SKETCHINC
 40
0.1
  9
$FILLETRAD
 40
2.0
  9
$AUNITS
 70
     0
  9
$AUPREC
 70
     0
  9
$MENU
  1
ACAD
  9
$ELEVATION
 40
0.0
  9
$PELEVATION
 40
0.0
  9
$THICKNESS
 40
0.0
  9
$LIMCHECK
 70
     0
  9
$BLIPMODE
 70
     0
  9
$CHAMFERA
 40
0.0
  9
$CHAMFERB
 40
0.0
  9
$SKPOLY
 70
     0
  9
$TDCREATE
 40
2452094.8468633099
  9
$TDUPDATE
 40
2452094.8478245372
  9
$TDINDWG
 40
0.000974537
  9
$TDUSRTIMER
 40
0.000974537
  9
$USRTIMER
 70
     1
  9
$ANGBASE
 50
0.0
  9
$ANGDIR
 70
     0
  9
$PDMODE
 70
     0
  9
$PDSIZE
 40
0.0
  9
$PLINEWID
 40
0.0
  9
$COORDS
 70
     1
  9
$SPLFRAME
 70
     0
  9
$SPLINETYPE
 70
     6
  9
$SPLINESEGS
 70
     8
  9
$ATTDIA
 70
     0
  9
$ATTREQ
 70
     1
  9
$HANDLING
 70
 10241
  9
$HANDSEED
  5
338
  9
$SURFTAB1
 70
     6
  9
$SURFTAB2
 70
     6
  9
$SURFTYPE
 70
     6
  9
$SURFU
 70
     6
  9
$SURFV
 70
     6
  9
$UCSNAME
  2

  9
$UCSORG
 10
0.0
 20
0.0
 30
0.0
  9
$UCSXDIR
 10
1.0
 20
0.0
 30
0.0
  9
$UCSYDIR
 10
0.0
 20
1.0
 30
0.0
  9
$PUCSNAME
  2

  9
$PUCSORG
 10
0.0
 20
0.0
 30
0.0
  9
$PUCSXDIR
 10
1.0
 20
0.0
 30
0.0
  9
$PUCSYDIR
 10
0.0
 20
1.0
 30
0.0
  9
$USERI1
 70
     0
  9
$USERI2
 70
     0
  9
$USERI3
 70
     0
  9
$USERI4
 70
     0
  9
$USERI5
 70
     0
  9
$USERR1
 40
0.0
  9
$USERR2
 40
0.0
  9
$USERR3
 40
0.0
  9
$USERR4
 40
0.0
  9
$USERR5
 40
0.0
  9
$WORLDVIEW
 70
     1
  9
$SHADEDGE
 70
     3
  9
$SHADEDIF
 70
    70
  9
$TILEMODE
 70
     1
  9
$MAXACTVP
 70
    64
  9
$PLIMCHECK
 70
     0
  9
$PEXTMIN
 10
1.0000000000000000E+020
 20
1.0000000000000000E+020
 30
1.0000000000000000E+020
  9
$PEXTMAX
 10
-1.0000000000000000E+020
 20
-1.0000000000000000E+020
 30
-1.0000000000000000E+020
  9
$PLIMMIN
 10
0.0
 20
0.0
  9
$PLIMMAX
 10
12.0
 20
9.0
  9
$UNITMODE
 70
     0
  9
$VISRETAIN
 70
     1
  9
$PLINEGEN
 70
     0
  9
$PSLTSCALE
 70
     1
  0
ENDSEC
  0
SECTION
  2
TABLES
  0
TABLE
  2
VPORT
 70
     2
  0
VPORT
  2
*ACTIVE
 70
     0
 10
0.0
 20
0.0
 11
1.0
 21
1.0
 12
85.151911306350144
 22
-58.745382696555282
 13
0.0
 23
0.0
 14
1.0
 24
1.0
 15
0.0
 25
0.0
 16
0.0
 26
0.0
 36
1.0
 17
0.0
 27
0.0
 37
0.0
 40
9.000000440011604
 41
2.4144144144144142
 42
50.0
 43
0.0
 44
0.0
 50
0.0
 51
0.0
 71
     0
 72
   100
 73
     1
 74
     1
 75
     0
 76
     0
 77
     0
 78
     0
  0
ENDTAB
  0
TABLE
  2
LTYPE
 70
     9
  0
LTYPE
  2
CONTINUOUS
 70
     0
  3
Solid line
 72
    65
 73
     0
 40
0.0
  0
LTYPE
  2
BORDER
 70
     0
  3
__ __ . __ __ .
 72
    65
 73
     6
 40
21.768140877905228
 49
6.2194688222586372
 49
-3.1097344111293181
 49
6.2194688222586372
 49
-3.1097344111293181
 49
0.0
 49
-3.1097344111293181
  0
LTYPE
  2
CENTER
 70
     0
  3
____ _ ____ _
 72
    65
 73
     4
 40
24.877875289034549
 49
15.548672055646589
 49
-3.1097344111293181
 49
3.1097344111293181
 49
-3.1097344111293181
  0
LTYPE
  2
DASHDOT
 70
     0
  3
__ . __ . __ .
 72
    65
 73
     4
 40
12.43893764451726
 49
6.2194688222586372
 49
-3.1097344111293181
 49
0.0
 49
-3.1097344111293181
  0
LTYPE
  2
DASHED
 70
     0
  3
__ __ __ __ __
 72
    65
 73
     2
 40
9.3292032333879522
 49
6.2194688222586372
 49
-3.1097344111293181
  0
LTYPE
  2
DIVIDE
 70
     0
  3
__ . . __ . . 
 72
    65
 73
     6
 40
15.548672055646589
 49
6.2194688222586372
 49
-3.1097344111293181
 49
0.0
 49
-3.1097344111293181
 49
0.0
 49
-3.1097344111293181
  0
LTYPE
  2
DOT
 70
     0
  3
..............
 72
    65
 73
     4
 40
6.2194688222586372
 49
0.0
 49
-3.1097344111293181
 49
0.0
 49
-3.1097344111293181
  0
LTYPE
  2
HIDDEN
 70
     0
  3
_ _ _ _ _ _ _
 72
    65
 73
     2
 40
4.6646016166939761
 49
3.1097344111293181
 49
-1.5548672055646591
  0
LTYPE
  2
PHANTOM
 70
     0
  3
_____ _ _ _____ _ _ 
 72
    65
 73
     6
 40
31.097344111293179
 49
15.548672055646589
 49
-3.1097344111293181
 49
3.1097344111293181
 49
-3.1097344111293181
 49
3.1097344111293181
 49
-3.1097344111293181
  0
ENDTAB
  0
TABLE
  2
LAYER
 70
     2
  0
LAYER
  2
0
 70
     0
 62
     7
  6
CONTINUOUS
  0
LAYER
  2
1
 70
     0
 62
     7
  6
CONTINUOUS
  0
ENDTAB
  0
TABLE
  2
STYLE
 70
     4
  0
STYLE
  2
STANDARD
 70
     0
 40
0.0
 41
1.0
 50
0.0
 71
     0
 42
3.5
  3
txt
  4

  0
STYLE
  2
SIMPLEX
 70
     0
 40
0.0
 41
1.0
 50
0.0
 71
     0
 42
3.5
  3
simplex
  4

  0
STYLE
  2
COMPLEX
 70
     0
 40
0.0
 41
1.0
 50
0.0
 71
     0
 42
3.5
  3
complex
  4

  0
STYLE
  2
ITALIC
 70
     0
 40
0.0
 41
1.0
 50
0.0
 71
     0
 42
3.5
  3
italic
  4

  0
ENDTAB
  0
TABLE
  2
VIEW
 70
     0
  0
ENDTAB
  0
TABLE
  2
UCS
 70
     0
  0
ENDTAB
  0
TABLE
  2
APPID
 70
     1
  0
APPID
  2
ACAD
 70
     0
  0
ENDTAB
  0
TABLE
  2
DIMSTYLE
 70
     1
  0
DIMSTYLE
  2
STANDARD
 70
     0
  3

  4

  5

  6

  7

 40
1.0
 41
0.18
 42
0.0625
 43
0.38
 44
0.18
 45
0.0
 46
0.0
 47
0.0
 48
0.0
140
0.18
141
0.09
142
0.0
143
25.399999999999999
144
1.0
145
0.0
146
1.0
147
0.09
 71
     0
 72
     0
 73
     1
 74
     1
 75
     0
 76
     0
 77
     0
 78
     0
170
     0
171
     2
172
     0
173
     0
174
     0
175
     0
176
     0
177
     0
178
     0
  0
ENDTAB
  0
ENDSEC
  0
SECTION
  2
BLOCKS
  0
BLOCK
  8
0
  2
$MODEL_SPACE
 70
     0
 10
0.0
 20
0.0
 30
0.0
  3
$MODEL_SPACE
  1

  0
ENDBLK
  5
20
  8
0
  0
BLOCK
 67
     1
  8
0
  2
$PAPER_SPACE
 70
     0
 10
0.0
 20
0.0
 30
0.0
  3
$PAPER_SPACE
  1

  0
ENDBLK
  5
1C
 67
     1
  8
0
  0
ENDSEC
  0
SECTION
  2
ENTITIES
  0
LINE
  5
33
  8
1
 62
     7
 10
18.36875310282548
 20
-308.20563440093702
 30
0.0
 11
-2.3950839617220079
 21
-305.74840566922461
 31
0.0
  0
LINE
  5
34
  8
1
 62
     7
 10
-7.5115517101269234
 20
-311.21577614318232
 30
0.0
 11
-7.8939963102222066
 21
-312.1778223466373
 31
0.0
  0
LINE
  5
35
  8
1
 62
     7
 10
22.293346200089299
 20
-243.85470130124639
 30
0.0
 11
-4.4777758065842184
 21
-311.19793554310468
 31
0.0
  0
LINE
  5
36
  8
1
 62
     7
 10
-9.4349849098807965
 20
-310.9905248070138
 30
0.0
 11
-5.000565502982198
 21
-311.50983522375361
 31
0.0
  0
LINE
  5
37
  8
1
 62
     7
 10
-13.06893486037481
 20
-306.53762093625141
 30
0.0
 11
-9.1995862110014173
 21
-306.99075648235981
 31
0.0
  0
LINE
  5
38
  8
1
 62
     7
 10
-4.3676407785868028
 20
-245.13291849985629
 30
0.0
 11
14.77810947620938
 21
-247.3750581423418
 31
0.0
  0
LINE
  5
39
  8
1
 62
     7
 10
-15.69962993695302
 20
-303.20904114690182
 30
0.0
 11
-9.3605104626114173
 21
-249.0789611147234
 31
0.0
  0
LINE
  5
3A
  8
1
 62
     7
 10
16.929661519189981
 20
-242.9659777681496
 30
0.0
 11
-9.8414604874835163
 21
-310.30921201000803
 31
0.0
  0
LINE
  5
3B
  8
1
 62
     7
 10
21.886870622486569
 20
-243.17338850424059
 30
0.0
 11
17.452451215587988
 21
-242.65407808750069
 31
0.0
  0
LINE
  5
3C
  8
1
 62
     7
 10
21.299547513371369
 20
-246.35461959873899
 30
0.0
 11
25.420226820589491
 21
-247.99272340717391
 31
0.0
  0
LINE
  5
3D
  8
1
 62
     7
 10
-0.1978700993549012
 20
-306.00842779401501
 30
0.0
 11
-1.020521826356799
 21
-312.95992001770782
 31
0.0
  0
LINE
  5
3E
  8
1
 62
     7
 10
-1.020521826356799
 20
-312.95992001770782
 30
0.0
 11
-7.9720140500495207
 21
-312.13726829070612
 31
0.0
  0
LINE
  5
3F
  8
1
 62
     7
 10
-239.44311289134529
 20
-144.52695332937401
 30
0.0
 11
-162.26755986355201
 21
-144.52695332937401
 31
0.0
  0
LINE
  5
40
  8
1
 62
     7
 10
-163.831213476497
 20
-109.8682643572796
 30
0.0
 11
-237.8972894825263
 21
-109.8682643572798
 31
0.0
  0
LINE
  5
41
  8
1
 62
     7
 10
-161.831213476497
 20
-111.8682643572798
 30
0.0
 11
-161.831213476497
 21
-114.17304112104701
 31
0.0
  0
LINE
  5
42
  8
1
 62
     7
 10
-239.8972894825263
 20
-111.8682643572799
 30
0.0
 11
-239.8972894825263
 21
-114.17304112104721
 31
0.0
  0
LINE
  5
43
  8
1
 62
     7
 10
-158.8972894825263
 20
-119.6909813352089
 30
0.0
 11
-242.8972894825263
 21
-119.690981335209
 31
0.0
  0
LINE
  5
44
  8
1
 62
     7
 10
-156.8972894825263
 20
-114.17304112104701
 30
0.0
 11
-244.8972894825263
 21
-114.17304112104721
 31
0.0
  0
LINE
  5
45
  8
1
 62
     7
 10
-156.8972894825263
 20
-114.17304112104701
 30
0.0
 11
-156.8972894825263
 21
-149.84430246075169
 31
0.0
  0
LINE
  5
46
  8
1
 62
     7
 10
-244.8972894825263
 20
-114.17304112104721
 30
0.0
 11
-244.8972894825263
 21
-149.84430246075169
 31
0.0
  0
LINE
  5
47
  8
1
 62
     7
 10
-160.3972894825263
 20
-119.6909813352089
 30
0.0
 11
-160.3972894825263
 21
-149.84430246075169
 31
0.0
  0
LINE
  5
48
  8
1
 62
     7
 10
-241.3972894825263
 20
-119.690981335209
 30
0.0
 11
-241.3972894825263
 21
-149.84430246075189
 31
0.0
  0
LINE
  5
49
  8
1
 62
     7
 10
-158.8972894825263
 20
-151.84430246075181
 30
0.0
 11
-242.8972894825263
 21
-151.84430246075181
 31
0.0
  0
LINE
  5
4A
  8
1
 62
     7
 10
-236.3972894825263
 20
-244.66641144419651
 30
0.0
 11
-165.3972894825263
 21
-244.66641144419651
 31
0.0
  0
LINE
  5
4B
  8
1
 62
     7
 10
-160.3972894825263
 20
-249.6664114441966
 30
0.0
 11
-160.3972894825263
 21
-300.66363581712312
 31
0.0
  0
LINE
  5
4C
  8
1
 62
     7
 10
-165.3972894825263
 20
-305.66363581712312
 30
0.0
 11
-192.19728948252649
 21
-305.66363581712312
 31
0.0
  0
LINE
  5
4D
  8
1
 62
     7
 10
-241.3972894825263
 20
-300.66363581712312
 30
0.0
 11
-241.3972894825263
 21
-249.6664114441966
 31
0.0
  0
LINE
  5
4E
  8
1
 62
     7
 10
-239.8972894825263
 20
-243.20558958731539
 30
0.0
 11
-161.8972894825263
 21
-243.20558958731539
 31
0.0
  0
LINE
  5
4F
  8
1
 62
     7
 10
-156.8972894825263
 20
-248.20558958731539
 30
0.0
 11
-156.8972894825263
 21
-305.68984746788732
 31
0.0
  0
LINE
  5
50
  8
1
 62
     7
 10
-161.8972894825263
 20
-310.68984746788732
 30
0.0
 11
-239.8972894825263
 21
-310.68984746788732
 31
0.0
  0
LINE
  5
51
  8
1
 62
     7
 10
-244.8972894825263
 20
-305.68984746788732
 30
0.0
 11
-244.8972894825263
 21
-248.20558958731539
 31
0.0
  0
LINE
  5
52
  8
1
 62
     7
 10
-209.59728948252609
 20
-305.66363581712312
 30
0.0
 11
-236.3972894825263
 21
-305.66363581712312
 31
0.0
  0
LINE
  5
53
  8
1
 62
     7
 10
-198.84728948252629
 20
-305.97113581712313
 30
0.0
 11
-198.84728948252629
 21
-305.35613581712312
 31
0.0
  0
LINE
  5
54
  8
1
 62
     7
 10
-201.20478948252631
 20
-307.71363581712308
 30
0.0
 11
-200.5897894825263
 21
-307.71363581712308
 31
0.0
  0
LINE
  5
55
  8
1
 62
     7
 10
-202.94728948252629
 20
-305.35613581712312
 30
0.0
 11
-202.94728948252629
 21
-305.97113581712313
 31
0.0
  0
LINE
  5
56
  8
1
 62
     7
 10
-200.5897894825263
 20
-303.61363581712311
 30
0.0
 11
-201.20478948252631
 21
-303.61363581712311
 31
0.0
  0
LINE
  5
57
  8
1
 62
     7
 10
-254.89728948252611
 20
-88.190981335208917
 30
0.0
 11
-254.89728948252611
 21
-114.690981335209
 31
0.0
  0
LINE
  5
58
  8
1
 62
     7
 10
56.782341009130107
 20
-332.04645764947497
 30
0.0
 11
56.782341009130107
 21
-324.04645764947492
 31
0.0
  0
LINE
  5
59
  8
1
 62
     7
 10
96.782341009130121
 20
-332.04645764947497
 30
0.0
 11
56.782341009130107
 21
-332.04645764947497
 31
0.0
  0
LINE
  5
5A
  8
1
 62
     7
 10
96.782341009130121
 20
-324.04645764947492
 30
0.0
 11
96.782341009130121
 21
-332.04645764947497
 31
0.0
  0
LINE
  5
5B
  8
1
 62
     7
 10
56.782341009130107
 20
-324.04645764947492
 30
0.0
 11
96.782341009130121
 21
-324.04645764947492
 31
0.0
  0
LINE
  5
5C
  8
1
 62
     7
 10
-322.89728948252611
 20
-275.10790680033051
 30
0.0
 11
-322.89728948252611
 21
-291.60790680033051
 31
0.0
  0
LINE
  5
5D
  8
1
 62
     7
 10
-294.09728948252609
 20
-297.80586577146317
 30
0.0
 11
-292.89728948252611
 21
-297.80586577146317
 31
0.0
  0
LINE
  5
5E
  8
1
 62
     7
 10
-295.89728948252611
 20
-294.60790680033051
 30
0.0
 11
-294.09728948252609
 21
-294.60790680033051
 31
0.0
  0
LINE
  5
5F
  8
1
 62
     7
 10
-294.09728948252609
 20
-272.40790680033052
 30
0.0
 11
-292.89728948252611
 21
-272.40790680033052
 31
0.0
  0
LINE
  5
60
  8
1
 62
     7
 10
-295.89728948252611
 20
-274.60790680033051
 30
0.0
 11
-294.09728948252609
 21
-274.60790680033051
 31
0.0
  0
LINE
  5
61
  8
1
 62
     7
 10
-294.09728948252609
 20
-272.40790680033052
 30
0.0
 11
-294.09728948252609
 21
-297.80586577146317
 31
0.0
  0
LINE
  5
62
  8
1
 62
     7
 10
-295.89728948252611
 20
-274.60790680033051
 30
0.0
 11
-295.89728948252611
 21
-294.60790680033051
 31
0.0
  0
LINE
  5
63
  8
1
 62
     7
 10
-292.89728948252611
 20
-258.27126209884671
 30
0.0
 11
-292.89728948252611
 21
-310.94455150181432
 31
0.0
  0
LINE
  5
64
  8
1
 62
     7
 10
-256.39728948252628
 20
-315.63101281262419
 30
0.0
 11
-256.39728948252628
 21
-327.83101281262429
 31
0.0
  0
LINE
  5
65
  8
1
 62
     7
 10
-257.89728948252628
 20
-315.63101281262419
 30
0.0
 11
-257.89728948252628
 21
-327.83101281262429
 31
0.0
  0
LINE
  5
66
  8
1
 62
     7
 10
-256.39728948252628
 20
-253.5848007880368
 30
0.0
 11
-256.39728948252628
 21
-241.38480078803681
 31
0.0
  0
LINE
  5
67
  8
1
 62
     7
 10
-257.89728948252628
 20
-241.38480078803681
 30
0.0
 11
-256.39728948252628
 21
-241.38480078803681
 31
0.0
  0
LINE
  5
68
  8
1
 62
     7
 10
-259.60025231551231
 20
-280.36303857759691
 30
0.0
 11
-290.82658470798719
 21
-280.36303857759691
 31
0.0
  0
LINE
  5
69
  8
1
 62
     7
 10
-142.1943266495399
 20
-288.85277502306411
 30
0.0
 11
-110.9679942570652
 21
-288.85277502306411
 31
0.0
  0
LINE
  5
6A
  8
1
 62
     7
 10
-105.8972894825262
 20
-274.60790680033051
 30
0.0
 11
-105.8972894825262
 21
-294.60790680033051
 31
0.0
  0
LINE
  5
6B
  8
1
 62
     7
 10
-107.6972894825262
 20
-274.60790680033051
 30
0.0
 11
-105.8972894825262
 21
-274.60790680033051
 31
0.0
  0
LINE
  5
6C
  8
1
 62
     7
 10
-107.6972894825262
 20
-294.60790680033051
 30
0.0
 11
-105.8972894825262
 21
-294.60790680033051
 31
0.0
  0
LINE
  5
6D
  8
1
 62
     7
 10
-107.6972894825262
 20
-272.40790680033052
 30
0.0
 11
-107.6972894825262
 21
-297.80586577146317
 31
0.0
  0
LINE
  5
6E
  8
1
 62
     7
 10
-108.8972894825262
 20
-297.80586577146317
 30
0.0
 11
-107.6972894825262
 21
-297.80586577146317
 31
0.0
  0
LINE
  5
6F
  8
1
 62
     7
 10
-108.8972894825262
 20
-310.94455150181432
 30
0.0
 11
-108.8972894825262
 21
-258.27126209884671
 31
0.0
  0
LINE
  5
70
  8
1
 62
     7
 10
-322.89728948252611
 20
-59.190981335208903
 30
0.0
 11
-303.39728948252611
 21
-59.190981335208903
 31
0.0
  0
LINE
  5
71
  8
1
 62
     7
 10
-322.89728948252611
 20
-54.190981335208903
 30
0.0
 11
-303.39728948252611
 21
-54.190981335208903
 31
0.0
  0
LINE
  5
72
  8
1
 62
     7
 10
-322.39728948252611
 20
-54.190981335208903
 30
0.0
 11
-322.39728948252611
 21
-49.190981335208903
 31
0.0
  0
LINE
  5
73
  8
1
 62
     7
 10
-322.89728948252611
 20
-63.690981335208903
 30
0.0
 11
-322.89728948252611
 21
-49.69098133520891
 31
0.0
  0
LINE
  5
74
  8
1
  6
DASHDOT
 62
     3
 10
-78.89728948252619
 20
-56.690981335208903
 30
0.0
 11
-73.89728948252619
 21
-56.690981335208903
 31
0.0
  0
LINE
  5
75
  8
1
 62
     7
 10
-98.39728948252629
 20
-59.190981335208903
 30
0.0
 11
-78.89728948252619
 21
-59.190981335208903
 31
0.0
  0
LINE
  5
76
  8
1
 62
     7
 10
-78.89728948252629
 20
-54.190981335208903
 30
0.0
 11
-98.39728948252629
 21
-54.190981335208903
 31
0.0
  0
LINE
  5
77
  8
1
 62
     7
 10
-79.39728948252619
 20
-59.190981335208903
 30
0.0
 11
-79.39728948252619
 21
-64.190981335208903
 31
0.0
  0
LINE
  5
78
  8
1
 62
     7
 10
-78.89728948252619
 20
-49.69098133520891
 30
0.0
 11
-78.89728948252619
 21
-63.690981335208903
 31
0.0
  0
LINE
  5
79
  8
1
  6
DASHDOT
 62
     3
 10
-125.8972894825262
 20
-105.51979210733499
 30
0.0
 11
-125.8972894825262
 21
-117.8621705630827
 31
0.0
  0
LINE
  5
7A
  8
1
  6
DASHDOT
 62
     3
 10
-132.06847871039989
 20
-111.6909813352089
 30
0.0
 11
-119.72610025465239
 21
-111.6909813352089
 31
0.0
  0
LINE
  5
7B
  8
1
  6
DASHDOT
 62
     3
 10
-275.89728948252628
 20
-105.84098715981909
 30
0.0
 11
-275.89728948252628
 21
-117.5409755105986
 31
0.0
  0
LINE
  5
7C
  8
1
  6
DASHDOT
 62
     3
 10
-281.747283657916
 20
-111.6909813352089
 30
0.0
 11
-270.04729530713661
 21
-111.6909813352089
 31
0.0
  0
LINE
  5
7D
  8
1
  6
DASHDOT
 62
     3
 10
-275.89728948252628
 20
4.1590128401808002
 30
0.0
 11
-275.89728948252628
 21
-7.5409755105986491
 31
0.0
  0
LINE
  5
7E
  8
1
  6
DASHDOT
 62
     3
 10
-270.04729530713661
 20
-1.690981335208924
 30
0.0
 11
-281.747283657916
 21
-1.690981335208924
 31
0.0
  0
LINE
  5
7F
  8
1
  6
DASHDOT
 62
     3
 10
-125.8972894825262
 20
4.4802078926648861
 30
0.0
 11
-125.8972894825262
 21
-7.862170563082735
 31
0.0
  0
LINE
  5
80
  8
1
  6
DASHDOT
 62
     3
 10
-119.72610025465239
 20
-1.690981335208924
 30
0.0
 11
-132.06847871039989
 21
-1.690981335208924
 31
0.0
  0
LINE
  5
81
  8
1
 62
     7
 10
-254.89728948252611
 20
1.3090186647911271
 30
0.0
 11
-254.89728948252611
 21
-25.190981335208921
 31
0.0
  0
LINE
  5
82
  8
1
 62
     7
 10
-249.89728948252611
 20
6.3090186647911271
 30
0.0
 11
-151.89728948252611
 21
6.3090186647911519
 31
0.0
  0
LINE
  5
83
  8
1
 62
     7
 10
-259.89728948252611
 20
-52.446113112475302
 30
0.0
 11
-290.82658470798719
 21
-52.446113112475302
 31
0.0
  0
LINE
  5
84
  8
1
 62
     7
 10
-259.89728948252611
 20
-27.190981335208921
 30
0.0
 11
-259.89728948252611
 21
-86.190981335208903
 31
0.0
  0
LINE
  5
85
  8
1
 62
     7
 10
-254.89728948252611
 20
-88.190981335208917
 30
0.0
 11
-257.89728948252611
 21
-88.190981335208917
 31
0.0
  0
LINE
  5
86
  8
1
 62
     7
 10
-254.89728948252611
 20
-25.190981335208921
 30
0.0
 11
-257.89728948252611
 21
-25.190981335208921
 31
0.0
  0
LINE
  5
87
  8
1
 62
     7
 10
-146.89728948252611
 20
-88.190981335208917
 30
0.0
 11
-146.89728948252611
 21
-114.690981335209
 31
0.0
  0
LINE
  5
88
  8
1
 62
     7
 10
-146.89728948252611
 20
-25.190981335208921
 30
0.0
 11
-143.8972894825263
 21
-25.190981335208889
 31
0.0
  0
LINE
  5
89
  8
1
 62
     7
 10
-146.89728948252611
 20
1.309018664791151
 30
0.0
 11
-146.89728948252611
 21
-25.190981335208921
 31
0.0
  0
LINE
  5
8A
  8
1
 62
     7
 10
-151.89728948252611
 20
-119.690981335209
 30
0.0
 11
-156.88026312186361
 21
-119.690981335209
 31
0.0
  0
LINE
  5
8B
  8
1
 62
     7
 10
-145.39728948252611
 20
-88.190981335208917
 30
0.0
 11
-145.39728948252611
 21
-99.814087347502664
 31
0.0
  0
LINE
  5
8C
  8
1
 62
     7
 10
-141.8972894825263
 20
-60.93584955794249
 30
0.0
 11
-110.9679942570652
 21
-60.93584955794249
 31
0.0
  0
LINE
  5
8D
  8
1
 62
     7
 10
-143.19623751105129
 20
-25.317875322915128
 30
0.0
 11
-141.88803721133729
 21
-25.317875322915128
 31
0.0
  0
LINE
  5
8E
  8
1
 62
     7
 10
-141.8972894825263
 20
-86.190981335208903
 30
0.0
 11
-141.8972894825263
 21
-27.190981335208921
 31
0.0
  0
LINE
  5
8F
  8
1
 62
     7
 10
-146.89728948252611
 20
-88.190981335208917
 30
0.0
 11
-143.8972894825263
 21
-88.190981335208917
 31
0.0
  0
LINE
  5
90
  8
1
 62
     7
 10
-288.89728948252628
 20
6.30901866479104
 30
0.0
 11
-288.89728948252628
 21
-24.190981335208889
 31
0.0
  0
LINE
  5
91
  8
1
 62
     7
 10
-244.8972894825263
 20
8.30901866479104
 30
0.0
 11
-244.8972894825263
 21
6.3090186647910969
 31
0.0
  0
LINE
  5
92
  8
1
 62
     7
 10
-156.89728948252611
 20
8.3090186647910613
 30
0.0
 11
-156.89728948252611
 21
6.3090186647910969
 31
0.0
  0
LINE
  5
93
  8
1
 62
     7
 10
-112.89728948252611
 20
6.3090186647910622
 30
0.0
 11
-112.89728948252611
 21
-24.190981335208889
 31
0.0
  0
LINE
  5
94
  8
1
 62
     7
 10
-153.89728948252611
 20
11.309018664791051
 30
0.0
 11
-117.8972894825262
 21
11.309018664791051
 31
0.0
  0
LINE
  5
95
  8
1
 62
     7
 10
-283.89728948252628
 20
11.309018664791029
 30
0.0
 11
-247.8972894825263
 21
11.309018664791029
 31
0.0
  0
LINE
  5
96
  8
1
 62
     7
 10
-288.89728948252628
 20
-119.6909813352089
 30
0.0
 11
-288.89728948252628
 21
-89.190981335208917
 31
0.0
  0
LINE
  5
97
  8
1
 62
     7
 10
-112.89728948252611
 20
-119.6909813352089
 30
0.0
 11
-112.89728948252611
 21
-89.190981335208917
 31
0.0
  0
LINE
  5
98
  8
1
 62
     7
 10
-283.89728948252628
 20
-124.6909813352089
 30
0.0
 11
-247.8972894825263
 21
-124.6909813352089
 31
0.0
  0
LINE
  5
99
  8
1
 62
     7
 10
-117.8972894825262
 20
-124.6909813352089
 30
0.0
 11
-153.90562325504891
 21
-124.6909813352089
 31
0.0
  0
LINE
  5
9A
  8
1
 62
     7
 10
-244.9633654885555
 20
-119.690981335209
 30
0.0
 11
-249.89728948252611
 21
-119.690981335209
 31
0.0
  0
LINE
  5
9B
  8
1
  6
DASHDOT
 62
     3
 10
-327.89728948252611
 20
-56.690981335208903
 30
0.0
 11
-322.89728948252611
 21
-56.690981335208903
 31
0.0
  0
LINE
  5
9C
  8
1
 62
     7
 10
-290.48475521183252
 20
-27.855867152983549
 30
0.0
 11
-267.49740423660438
 21
-27.05113232097332
 31
0.0
  0
LINE
  5
9D
  8
1
 62
     7
 10
-256.39728948252628
 20
-13.567875322915141
 30
0.0
 11
-255.89728948252611
 21
-13.567875322915141
 31
0.0
  0
LINE
  5
9E
  8
1
 62
     7
 10
-322.39728948252611
 20
-64.190981335208903
 30
0.0
 11
-295.89728948252611
 21
-64.190981335208903
 31
0.0
  0
LINE
  5
9F
  8
1
 62
     7
 10
-294.09728948252609
 20
-66.690981335208903
 30
0.0
 11
-295.89728948252611
 21
-66.690981335208903
 31
0.0
  0
LINE
  5
A0
  8
1
 62
     7
 10
-267.4974042366045
 20
-86.33083034944444
 30
0.0
 11
-290.48475521183252
 21
-85.526095517434214
 31
0.0
  0
LINE
  5
A1
  8
1
 62
     7
 10
-295.89728948252611
 20
-46.690981335208903
 30
0.0
 11
-294.09728948252609
 21
-46.690981335208903
 31
0.0
  0
LINE
  5
A2
  8
1
 62
     7
 10
-322.39728948252611
 20
-49.190981335208903
 30
0.0
 11
-295.89728948252611
 21
-49.190981335208903
 31
0.0
  0
LINE
  5
A3
  8
1
 62
     7
 10
-255.89728948252611
 20
-99.814087347502664
 30
0.0
 11
-256.39728948252628
 21
-99.814087347502664
 31
0.0
  0
LINE
  5
A4
  8
1
 62
     7
 10
-290.82658470798719
 20
-60.93584955794249
 30
0.0
 11
-259.89728948252611
 21
-60.93584955794249
 31
0.0
  0
LINE
  5
A5
  8
1
 62
     7
 10
-292.89728948252611
 20
-44.4909813352089
 30
0.0
 11
-294.09728948252609
 21
-44.4909813352089
 31
0.0
  0
LINE
  5
A6
  8
1
 62
     7
 10
-294.09728948252609
 20
-69.888940306341624
 30
0.0
 11
-292.89728948252611
 21
-69.888940306341624
 31
0.0
  0
LINE
  5
A7
  8
1
 62
     7
 10
-322.39728948252611
 20
-49.190981335208903
 30
0.0
 11
-322.89728948252611
 21
-49.69098133520891
 31
0.0
  0
LINE
  5
A8
  8
1
 62
     7
 10
-322.39728948252611
 20
-64.190981335208903
 30
0.0
 11
-322.89728948252611
 21
-63.690981335208903
 31
0.0
  0
LINE
  5
A9
  8
1
 62
     7
 10
-322.39728948252611
 20
-64.190981335208903
 30
0.0
 11
-322.39728948252611
 21
-59.190981335208903
 31
0.0
  0
LINE
  5
AA
  8
1
 62
     7
 10
-134.29717472844791
 20
-27.05113232097332
 30
0.0
 11
-111.3098237532199
 21
-27.855867152983549
 31
0.0
  0
LINE
  5
AB
  8
1
 62
     7
 10
-145.39728948252611
 20
-13.567875322915141
 30
0.0
 11
-145.39728948252611
 21
-25.190981335208889
 31
0.0
  0
LINE
  5
AC
  8
1
 62
     7
 10
-145.39728948252611
 20
-13.817875322915141
 30
0.0
 11
-141.88803721133729
 21
-13.817875322915141
 31
0.0
  0
LINE
  5
AD
  8
1
 62
     7
 10
-145.88055122683201
 20
-13.567875322915141
 30
0.0
 11
-145.39728948252611
 21
-13.567875322915141
 31
0.0
  0
LINE
  5
AE
  8
1
 62
     7
 10
-145.39728948252611
 20
-16.692875322915061
 30
0.0
 11
-141.88803721133729
 21
-16.692875322915061
 31
0.0
  0
LINE
  5
AF
  8
1
 62
     7
 10
-141.39728948252611
 20
-15.255375322915141
 30
0.0
 11
-141.39728948252611
 21
-23.88037532291505
 31
0.0
  0
LINE
  5
B0
  8
1
 62
     7
 10
-145.39728948252611
 20
-22.442875322915128
 30
0.0
 11
-141.88803721133729
 21
-22.442875322915128
 31
0.0
  0
LINE
  5
B1
  8
1
 62
     7
 10
-110.9679942570652
 20
-52.446113112475302
 30
0.0
 11
-141.8972894825263
 21
-52.446113112475302
 31
0.0
  0
LINE
  5
B2
  8
1
 62
     7
 10
-141.88803721133729
 20
-99.56408734750265
 30
0.0
 11
-145.39728948252611
 21
-99.56408734750265
 31
0.0
  0
LINE
  5
B3
  8
1
 62
     7
 10
-141.88803721133729
 20
-96.689087347502664
 30
0.0
 11
-145.39728948252611
 21
-96.689087347502664
 31
0.0
  0
LINE
  5
B4
  8
1
 62
     7
 10
-141.88803721133729
 20
-90.939087347502635
 30
0.0
 11
-145.39728948252611
 21
-90.939087347502635
 31
0.0
  0
LINE
  5
B5
  8
1
 62
     7
 10
-141.88803721133729
 20
-88.06408734750265
 30
0.0
 11
-143.19623751105129
 21
-88.06408734750265
 31
0.0
  0
LINE
  5
B6
  8
1
 62
     7
 10
-141.39728948252611
 20
-89.501587347502664
 30
0.0
 11
-141.39728948252611
 21
-98.126587347502635
 31
0.0
  0
LINE
  5
B7
  8
1
 62
     7
 10
-105.8972894825262
 20
-64.190981335208903
 30
0.0
 11
-79.39728948252619
 21
-64.190981335208903
 31
0.0
  0
LINE
  5
B8
  8
1
 62
     7
 10
-105.8972894825262
 20
-66.690981335208903
 30
0.0
 11
-107.697289482526
 21
-66.690981335208903
 31
0.0
  0
LINE
  5
B9
  8
1
 62
     7
 10
-111.3098237532199
 20
-85.526095517434214
 30
0.0
 11
-134.29717472844769
 21
-86.33083034944444
 31
0.0
  0
LINE
  5
BA
  8
1
 62
     7
 10
-107.697289482526
 20
-46.690981335208903
 30
0.0
 11
-105.8972894825262
 21
-46.690981335208903
 31
0.0
  0
LINE
  5
BB
  8
1
 62
     7
 10
-105.8972894825262
 20
-49.190981335208903
 30
0.0
 11
-79.39728948252619
 21
-49.190981335208903
 31
0.0
  0
LINE
  5
BC
  8
1
 62
     7
 10
-145.39728948252611
 20
-99.814087347502664
 30
0.0
 11
-145.88055122683201
 21
-99.814087347502664
 31
0.0
  0
LINE
  5
BD
  8
1
 62
     7
 10
-107.697289482526
 20
-44.4909813352089
 30
0.0
 11
-108.8972894825262
 21
-44.4909813352089
 31
0.0
  0
LINE
  5
BE
  8
1
 62
     7
 10
-108.8972894825262
 20
-69.888940306341624
 30
0.0
 11
-107.697289482526
 21
-69.888940306341624
 31
0.0
  0
LINE
  5
BF
  8
1
 62
     7
 10
-78.89728948252619
 20
-49.69098133520891
 30
0.0
 11
-79.39728948252619
 21
-49.190981335208903
 31
0.0
  0
LINE
  5
C0
  8
1
 62
     7
 10
-78.89728948252619
 20
-63.690981335208903
 30
0.0
 11
-79.39728948252619
 21
-64.190981335208903
 31
0.0
  0
LINE
  5
C1
  8
1
 62
     7
 10
-79.39728948252619
 20
-49.190981335208903
 30
0.0
 11
-79.39728948252619
 21
-54.190981335208903
 31
0.0
  0
LINE
  5
C2
  8
1
 62
     7
 10
-134.29717472844791
 20
-254.9680577860949
 30
0.0
 11
-111.3098237532199
 21
-255.7727926181052
 31
0.0
  0
LINE
  5
C3
  8
1
 62
     7
 10
-145.39728948252611
 20
-241.48480078803681
 30
0.0
 11
-145.39728948252611
 21
-253.48480078803681
 31
0.0
  0
LINE
  5
C4
  8
1
 62
     7
 10
-145.39728948252611
 20
-241.73480078803669
 30
0.0
 11
-141.88803721133741
 21
-241.73480078803669
 31
0.0
  0
LINE
  5
C5
  8
1
 62
     7
 10
-145.89728948252611
 20
-241.48480078803681
 30
0.0
 11
-145.39728948252611
 21
-241.48480078803681
 31
0.0
  0
LINE
  5
C6
  8
1
 62
     7
 10
-145.39728948252611
 20
-244.60980078803669
 30
0.0
 11
-141.88803721133741
 21
-244.60980078803669
 31
0.0
  0
LINE
  5
C7
  8
1
 62
     7
 10
-141.39728948252611
 20
-243.17230078803681
 30
0.0
 11
-141.39728948252611
 21
-251.79730078803669
 31
0.0
  0
LINE
  5
C8
  8
1
 62
     7
 10
-145.39728948252611
 20
-250.35980078803681
 30
0.0
 11
-141.88803721133741
 21
-250.35980078803681
 31
0.0
  0
LINE
  5
C9
  8
1
 62
     7
 10
-145.39728948252611
 20
-253.23480078803681
 30
0.0
 11
-141.88803721133741
 21
-253.23480078803681
 31
0.0
  0
LINE
  5
CA
  8
1
 62
     7
 10
-145.89728948252611
 20
-253.48480078803681
 30
0.0
 11
-145.39728948252611
 21
-253.48480078803681
 31
0.0
  0
LINE
  5
CB
  8
1
 62
     7
 10
-146.89728948252611
 20
-334.21419016913308
 30
0.0
 11
-146.89728948252611
 21
-232.5726655625723
 31
0.0
  0
LINE
  5
CC
  8
1
 62
     7
 10
-256.39728948252628
 20
-253.48480078803681
 30
0.0
 11
-255.89728948252611
 21
-253.48480078803681
 31
0.0
  0
LINE
  5
CD
  8
1
 62
     7
 10
-262.40654175371492
 20
-244.60980078803681
 30
0.0
 11
-257.89728948252628
 21
-244.60980078803681
 31
0.0
  0
LINE
  5
CE
  8
1
 62
     7
 10
-257.89728948252628
 20
-241.38480078803681
 30
0.0
 11
-257.89728948252628
 21
-253.5848007880368
 31
0.0
  0
LINE
  5
CF
  8
1
 62
     7
 10
-262.89466559916713
 20
-243.2833379204026
 30
0.0
 11
-262.89466559916713
 21
-251.90833792040269
 31
0.0
  0
LINE
  5
D0
  8
1
 62
     7
 10
-256.39728948252628
 20
-253.5848007880368
 30
0.0
 11
-257.89728948252628
 21
-253.5848007880368
 31
0.0
  0
LINE
  5
D1
  8
1
 62
     7
 10
-256.39728948252628
 20
-247.48480078803681
 30
0.0
 11
-257.89728948252628
 21
-248.98480078803681
 31
0.0
  0
LINE
  5
D2
  8
1
 62
     7
 10
-256.39728948252628
 20
-245.98480078803669
 30
0.0
 11
-257.89728948252628
 21
-247.48480078803681
 31
0.0
  0
LINE
  5
D3
  8
1
 62
     7
 10
-262.40654175371492
 20
-241.73480078803669
 30
0.0
 11
-257.89728948252628
 21
-241.73480078803669
 31
0.0
  0
LINE
  5
D4
  8
1
 62
     7
 10
-262.40654175371492
 20
-253.23480078803681
 30
0.0
 11
-257.89728948252628
 21
-253.23480078803681
 31
0.0
  0
LINE
  5
D5
  8
1
 62
     7
 10
-262.40654175371492
 20
-250.35980078803681
 30
0.0
 11
-257.89728948252628
 21
-250.35980078803681
 31
0.0
  0
LINE
  5
D6
  8
1
 62
     7
 10
-264.7972894825262
 20
-244.48480078803689
 30
0.0
 11
-265.39728948252611
 21
-245.08480078803689
 31
0.0
  0
LINE
  5
D7
  8
1
 62
     7
 10
-265.39728948252611
 20
-245.08480078803689
 30
0.0
 11
-265.39728948252611
 21
-249.88480078803681
 31
0.0
  0
LINE
  5
D8
  8
1
 62
     7
 10
-265.39728948252611
 20
-249.88480078803681
 30
0.0
 11
-264.7972894825262
 21
-250.48480078803689
 31
0.0
  0
LINE
  5
D9
  8
1
 62
     7
 10
-264.7972894825262
 20
-250.48480078803689
 30
0.0
 11
-262.89728948252628
 21
-250.48480078803681
 31
0.0
  0
LINE
  5
DA
  8
1
 62
     7
 10
-264.7972894825262
 20
-244.48480078803689
 30
0.0
 11
-264.7972894825262
 21
-250.48480078803689
 31
0.0
  0
LINE
  5
DB
  8
1
 62
     3
 10
-265.39728948252611
 20
-245.08480078803689
 30
0.0
 11
-262.89728948252628
 21
-245.0848007880368
 31
0.0
  0
LINE
  5
DC
  8
1
 62
     3
 10
-265.39728948252611
 20
-249.88480078803681
 30
0.0
 11
-262.89728948252628
 21
-249.88480078803681
 31
0.0
  0
LINE
  5
DD
  8
1
 62
     7
 10
-262.89728948252628
 20
-244.48480078803689
 30
0.0
 11
-264.7972894825262
 21
-244.48480078803689
 31
0.0
  0
LINE
  5
DE
  8
1
 62
     7
 10
-110.9679942570652
 20
-280.36303857759691
 30
0.0
 11
-142.1943266495399
 21
-280.36303857759691
 31
0.0
  0
LINE
  5
DF
  8
1
 62
     7
 10
-142.1972894825262
 20
-280.35790680033051
 30
0.0
 11
-141.89728948252619
 21
-280.87752204260107
 31
0.0
  0
LINE
  5
E0
  8
1
 62
     7
 10
-146.89728948252611
 20
-280.35790680033051
 30
0.0
 11
-142.1972894825262
 21
-280.35790680033051
 31
0.0
  0
LINE
  5
E1
  8
1
 62
     7
 10
-142.1972894825262
 20
-280.35790680033051
 30
0.0
 11
-142.1972894825262
 21
-288.85790680033051
 31
0.0
  0
LINE
  5
E2
  8
1
 62
     7
 10
-141.89728948252619
 20
-280.87752204260107
 30
0.0
 11
-141.89728948252619
 21
-288.33829155805972
 31
0.0
  0
LINE
  5
E3
  8
1
 62
     7
 10
-259.59728948252632
 20
-280.35790680033051
 30
0.0
 11
-254.89728948252611
 21
-280.35790680033051
 31
0.0
  0
LINE
  5
E4
  8
1
 62
     7
 10
-259.89728948252628
 20
-280.87752204260107
 30
0.0
 11
-259.59728948252632
 21
-280.35790680033051
 31
0.0
  0
LINE
  5
E5
  8
1
 62
     7
 10
-259.59728948252632
 20
-280.35790680033051
 30
0.0
 11
-259.59728948252632
 21
-288.85790680033051
 31
0.0
  0
LINE
  5
E6
  8
1
 62
     7
 10
-141.88803721133741
 20
-327.48101281262427
 30
0.0
 11
-145.39728948252611
 21
-327.48101281262427
 31
0.0
  0
LINE
  5
E7
  8
1
 62
     7
 10
-141.88803721133741
 20
-324.60601281262427
 30
0.0
 11
-145.39728948252611
 21
-324.60601281262427
 31
0.0
  0
LINE
  5
E8
  8
1
 62
     7
 10
-141.88803721133741
 20
-318.85601281262427
 30
0.0
 11
-145.39728948252611
 21
-318.85601281262427
 31
0.0
  0
LINE
  5
E9
  8
1
 62
     7
 10
-141.88803721133741
 20
-315.98101281262427
 30
0.0
 11
-145.39728948252611
 21
-315.98101281262427
 31
0.0
  0
LINE
  5
EA
  8
1
 62
     7
 10
-141.39728948252611
 20
-317.41851281262427
 30
0.0
 11
-141.39728948252611
 21
-326.04351281262427
 31
0.0
  0
LINE
  5
EB
  8
1
 62
     7
 10
45.236010355088418
 20
-245.9905083344232
 30
0.0
 11
41.153527450449793
 21
-241.90802542978449
 31
0.0
  0
LINE
  5
EC
  8
1
 62
     7
 10
43.741717901475013
 20
-251.56728369267529
 30
0.0
 11
45.236010355088418
 21
-245.9905083344232
 31
0.0
  0
LINE
  5
ED
  8
1
 62
     7
 10
38.164942543222949
 20
-253.0615761462887
 30
0.0
 11
43.741717901475013
 21
-251.56728369267529
 31
0.0
  0
LINE
  5
EE
  8
1
 62
     7
 10
34.082459638584318
 20
-248.97909324164999
 30
0.0
 11
38.164942543222949
 21
-253.0615761462887
 31
0.0
  0
LINE
  5
EF
  8
1
 62
     7
 10
35.576752092197736
 20
-243.4023178833981
 30
0.0
 11
34.082459638584318
 21
-248.97909324164999
 31
0.0
  0
LINE
  5
F0
  8
1
 62
     7
 10
41.153527450449793
 20
-241.90802542978449
 30
0.0
 11
35.576752092197736
 21
-243.4023178833981
 31
0.0
  0
LINE
  5
F1
  8
1
 62
     7
 10
-265.39728948252611
 20
-324.13101281262408
 30
0.0
 11
-264.7972894825262
 21
-324.73101281262421
 31
0.0
  0
LINE
  5
F2
  8
1
 62
     7
 10
-265.39728948252611
 20
-319.33101281262418
 30
0.0
 11
-265.39728948252611
 21
-324.13101281262408
 31
0.0
  0
LINE
  5
F3
  8
1
 62
     7
 10
-264.7972894825262
 20
-318.73101281262421
 30
0.0
 11
-265.39728948252611
 21
-319.33101281262418
 31
0.0
  0
LINE
  5
F4
  8
1
 62
     7
 10
-262.89728948252628
 20
-318.73101281262427
 30
0.0
 11
-264.7972894825262
 21
-318.73101281262421
 31
0.0
  0
LINE
  5
F5
  8
1
 62
     7
 10
-264.7972894825262
 20
-318.73101281262421
 30
0.0
 11
-264.7972894825262
 21
-324.73101281262421
 31
0.0
  0
LINE
  5
F6
  8
1
 62
     3
 10
-262.89728948252628
 20
-324.13101281262408
 30
0.0
 11
-265.39728948252611
 21
-324.13101281262408
 31
0.0
  0
LINE
  5
F7
  8
1
 62
     3
 10
-262.89728948252628
 20
-319.33101281262418
 30
0.0
 11
-265.39728948252611
 21
-319.33101281262418
 31
0.0
  0
LINE
  5
F8
  8
1
 62
     7
 10
-264.7972894825262
 20
-324.73101281262421
 30
0.0
 11
-262.89728948252628
 21
-324.73101281262427
 31
0.0
  0
LINE
  5
F9
  8
1
 62
     7
 10
-105.8972894825262
 20
-292.1079068003304
 30
0.0
 11
-79.397289482526205
 21
-292.1079068003304
 31
0.0
  0
LINE
  5
FA
  8
1
 62
     7
 10
-111.3098237532199
 20
-313.44302098255582
 30
0.0
 11
-134.29717472844791
 21
-314.24775581456612
 31
0.0
  0
LINE
  5
FB
  8
1
  6
DASHED
 62
     3
 10
-121.6472894825262
 20
-337.60790680033051
 30
0.0
 11
-121.6472894825262
 21
-347.60790680033051
 31
0.0
  0
LINE
  5
FC
  8
1
  6
DASHED
 62
     3
 10
-130.14728948252619
 20
-337.60790680033051
 30
0.0
 11
-130.14728948252619
 21
-347.60790680033051
 31
0.0
  0
LINE
  5
FD
  8
1
 62
     7
 10
-116.8972894825262
 20
-337.60790680033051
 30
0.0
 11
-141.53354276544181
 21
-337.60790680033051
 31
0.0
  0
LINE
  5
FE
  8
1
 62
     7
 10
-116.8972894825262
 20
-338.46822372236352
 30
0.0
 11
-116.8972894825262
 21
-337.60790680033051
 31
0.0
  0
LINE
  5
FF
  8
1
 62
     7
 10
-156.89728948252611
 20
-343.91584256812581
 30
0.0
 11
-193.96708847593121
 21
-342.62133666237179
 31
0.0
  0
LINE
  5
100
  8
1
 62
     7
 10
-156.89728948252611
 20
-343.91584256812581
 30
0.0
 11
-156.89728948252611
 21
-347.60790680033051
 31
0.0
  0
LINE
  5
101
  8
1
 62
     7
 10
81.313601518524905
 20
-336.40045142014998
 30
0.0
 11
82.129022077465066
 21
-345.72075105758267
 31
0.0
  0
LINE
  5
102
  8
1
  6
DASHDOT
 62
     3
 10
-125.8972894825262
 20
-334.12165229287081
 30
0.0
 11
-125.8972894825262
 21
-350.5791420010562
 31
0.0
  0
LINE
  5
103
  8
1
 62
     7
 10
-112.89728948252611
 20
-347.60790680033051
 30
0.0
 11
-112.89728948252611
 21
-340.53928434994458
 31
0.0
  0
LINE
  5
104
  8
1
 62
     7
 10
-112.89728948252611
 20
-347.60790680033051
 30
0.0
 11
-156.89728948252611
 21
-347.60790680033051
 31
0.0
  0
LINE
  5
105
  8
1
 62
     7
 10
-141.89728948252619
 20
-231.5726655625723
 30
0.0
 11
-141.89728948252619
 21
-223.60790680033051
 31
0.0
  0
LINE
  5
106
  8
1
 62
     7
 10
-146.89728948252611
 20
-232.5726655625723
 30
0.0
 11
-142.89728948252611
 21
-232.5726655625723
 31
0.0
  0
LINE
  5
107
  8
1
 62
     7
 10
74.782341009130107
 20
-297.80586577146317
 30
0.0
 11
72.782341009130107
 21
-297.80586577146317
 31
0.0
  0
LINE
  5
108
  8
1
 62
     7
 10
74.782341009130107
 20
-294.4058657714632
 30
0.0
 11
74.782341009130107
 21
-297.80586577146317
 31
0.0
  0
LINE
  5
109
  8
1
 62
     7
 10
78.782341009130107
 20
-297.80586577146317
 30
0.0
 11
80.782341009130107
 21
-297.80586577146317
 31
0.0
  0
LINE
  5
10A
  8
1
 62
     7
 10
78.782341009130107
 20
-294.4058657714632
 30
0.0
 11
78.782341009130107
 21
-297.80586577146317
 31
0.0
  0
LINE
  5
10B
  8
1
 62
     7
 10
70.782341009130107
 20
-293.62626261578032
 30
0.0
 11
70.782341009130107
 21
-295.80586577146317
 31
0.0
  0
LINE
  5
10C
  8
1
 62
     7
 10
82.782341009130107
 20
-293.62626261578032
 30
0.0
 11
82.782341009130107
 21
-295.80586577146317
 31
0.0
  0
LINE
  5
10D
  8
1
 62
     7
 10
77.937041547509352
 20
-320.60790680033051
 30
0.0
 11
79.091742085888598
 21
-318.60790680033051
 31
0.0
  0
LINE
  5
10E
  8
1
 62
     7
 10
79.091742085888598
 20
-318.60790680033051
 30
0.0
 11
77.937041547509352
 21
-316.60790680033051
 31
0.0
  0
LINE
  5
10F
  8
1
 62
     7
 10
77.937041547509352
 20
-316.60790680033051
 30
0.0
 11
75.627640470750862
 21
-316.60790680033051
 31
0.0
  0
LINE
  5
110
  8
1
 62
     7
 10
75.627640470750862
 20
-316.60790680033051
 30
0.0
 11
74.472939932371631
 21
-318.60790680033051
 31
0.0
  0
LINE
  5
111
  8
1
 62
     7
 10
74.472939932371631
 20
-318.60790680033051
 30
0.0
 11
75.627640470750862
 21
-320.60790680033051
 31
0.0
  0
LINE
  5
112
  8
1
 62
     7
 10
75.627640470750862
 20
-320.60790680033051
 30
0.0
 11
77.937041547509352
 21
-320.60790680033051
 31
0.0
  0
LINE
  5
113
  8
1
 62
     7
 10
40.782341009130072
 20
-285.76260733870981
 30
0.0
 11
42.782341009130079
 21
-286.917307877089
 31
0.0
  0
LINE
  5
114
  8
1
 62
     7
 10
42.782341009130079
 20
-286.917307877089
 30
0.0
 11
44.782341009130079
 21
-285.76260733870981
 31
0.0
  0
LINE
  5
115
  8
1
 62
     7
 10
44.782341009130079
 20
-285.76260733870981
 30
0.0
 11
44.782341009130079
 21
-283.45320626195121
 31
0.0
  0
LINE
  5
116
  8
1
 62
     7
 10
44.782341009130079
 20
-283.45320626195121
 30
0.0
 11
42.782341009130079
 21
-282.29850572357202
 31
0.0
  0
LINE
  5
117
  8
1
 62
     7
 10
42.782341009130079
 20
-282.29850572357202
 30
0.0
 11
40.782341009130072
 21
-283.45320626195121
 31
0.0
  0
LINE
  5
118
  8
1
 62
     7
 10
40.782341009130072
 20
-283.45320626195121
 30
0.0
 11
40.782341009130072
 21
-285.76260733870981
 31
0.0
  0
LINE
  5
119
  8
1
 62
     7
 10
75.627640470750862
 20
-248.60790680033051
 30
0.0
 11
74.472939932371631
 21
-250.60790680033051
 31
0.0
  0
LINE
  5
11A
  8
1
 62
     7
 10
74.472939932371631
 20
-250.60790680033051
 30
0.0
 11
75.627640470750862
 21
-252.6079068003304
 31
0.0
  0
LINE
  5
11B
  8
1
 62
     7
 10
75.627640470750862
 20
-252.6079068003304
 30
0.0
 11
77.937041547509352
 21
-252.6079068003304
 31
0.0
  0
LINE
  5
11C
  8
1
 62
     7
 10
77.937041547509352
 20
-252.6079068003304
 30
0.0
 11
79.091742085888598
 21
-250.60790680033051
 31
0.0
  0
LINE
  5
11D
  8
1
 62
     7
 10
79.091742085888598
 20
-250.60790680033051
 30
0.0
 11
77.937041547509352
 21
-248.60790680033051
 31
0.0
  0
LINE
  5
11E
  8
1
 62
     7
 10
77.937041547509352
 20
-248.60790680033051
 30
0.0
 11
75.627640470750862
 21
-248.60790680033051
 31
0.0
  0
LINE
  5
11F
  8
1
 62
     7
 10
112.78234100912999
 20
-285.76260733870981
 30
0.0
 11
112.78234100912999
 21
-283.45320626195121
 31
0.0
  0
LINE
  5
120
  8
1
 62
     7
 10
110.78234100912999
 20
-286.917307877089
 30
0.0
 11
112.78234100912999
 21
-285.76260733870981
 31
0.0
  0
LINE
  5
121
  8
1
 62
     7
 10
108.78234100912999
 20
-285.76260733870981
 30
0.0
 11
110.78234100912999
 21
-286.917307877089
 31
0.0
  0
LINE
  5
122
  8
1
 62
     7
 10
108.78234100912999
 20
-283.45320626195121
 30
0.0
 11
108.78234100912999
 21
-285.76260733870981
 31
0.0
  0
LINE
  5
123
  8
1
 62
     7
 10
110.78234100912999
 20
-282.29850572357202
 30
0.0
 11
108.78234100912999
 21
-283.45320626195121
 31
0.0
  0
LINE
  5
124
  8
1
 62
     7
 10
112.78234100912999
 20
-283.45320626195121
 30
0.0
 11
110.78234100912999
 21
-282.29850572357202
 31
0.0
  0
LINE
  5
125
  8
1
 62
     7
 10
53.319114020130442
 20
-263.26600015489032
 30
0.0
 11
44.10992674631872
 21
-254.05681288107851
 31
0.0
  0
LINE
  5
126
  8
1
 62
     7
 10
55.440434363690102
 20
-261.14467981133072
 30
0.0
 11
46.231247089878352
 21
-251.935492537519
 31
0.0
  0
LINE
  5
127
  8
1
 62
     7
 10
41.153527450449772
 20
-253.06157614628859
 30
0.0
 11
45.236010355088418
 21
-248.97909324164999
 31
0.0
  0
LINE
  5
128
  8
1
 62
     7
 10
46.29873885977775
 20
-231.80875907993641
 30
0.0
 11
45.282341009130107
 21
-230.04830636191079
 31
0.0
  0
LINE
  5
129
  8
1
 62
     7
 10
108.28234100912999
 20
-230.04830636191079
 30
0.0
 11
107.2659431584825
 21
-231.80875907993641
 31
0.0
  0
LINE
  5
12A
  8
1
 62
     7
 10
72.251080499735281
 20
-336.40045142014998
 30
0.0
 11
71.435659940795119
 21
-345.72075105758267
 31
0.0
  0
LINE
  5
12B
  8
1
 62
     7
 10
63.32623953859521
 20
-334.82676116016881
 30
0.0
 11
60.737647598902498
 21
-344.48751779916552
 31
0.0
  0
LINE
  5
12C
  8
1
 62
     7
 10
90.238442479664954
 20
-334.82676116016881
 30
0.0
 11
93.087940850588893
 21
-345.46123385654181
 31
0.0
  0
LINE
  5
12D
  8
1
 62
     7
 10
117.98792992606251
 20
-251.56728369267529
 30
0.0
 11
119.4822223796758
 21
-245.9905083344232
 31
0.0
  0
LINE
  5
12E
  8
1
 62
     7
 10
112.4111545678105
 20
-253.06157614628859
 30
0.0
 11
117.98792992606251
 21
-251.56728369267529
 31
0.0
  0
LINE
  5
12F
  8
1
 62
     7
 10
108.3286716631718
 20
-248.97909324164999
 30
0.0
 11
112.4111545678105
 21
-253.06157614628859
 31
0.0
  0
LINE
  5
130
  8
1
 62
     7
 10
109.8229641167852
 20
-243.40231788339801
 30
0.0
 11
108.3286716631718
 21
-248.97909324164999
 31
0.0
  0
LINE
  5
131
  8
1
 62
     7
 10
115.39973947503719
 20
-241.90802542978449
 30
0.0
 11
109.8229641167852
 21
-243.40231788339801
 31
0.0
  0
LINE
  5
132
  8
1
 62
     7
 10
119.4822223796758
 20
-245.9905083344232
 30
0.0
 11
115.39973947503719
 21
-241.90802542978449
 31
0.0
  0
LINE
  5
133
  8
1
 62
     7
 10
107.33343492838181
 20
-251.935492537519
 30
0.0
 11
98.124247654570127
 21
-261.14467981133072
 31
0.0
  0
LINE
  5
134
  8
1
 62
     7
 10
109.45475527194149
 20
-254.05681288107851
 30
0.0
 11
100.2455679981297
 21
-263.26600015489032
 31
0.0
  0
LINE
  5
135
  8
1
 62
     7
 10
8.7823410091301071
 20
-340.60790680033051
 30
0.0
 11
8.7823410091301071
 21
-347.60790680033051
 31
0.0
  0
LINE
  5
136
  8
1
 62
     7
 10
49.282341009130107
 20
-347.60790680033051
 30
0.0
 11
8.7823410091301071
 21
-347.60790680033051
 31
0.0
  0
LINE
  5
137
  8
1
 62
     7
 10
9.1942169778111786
 20
-339.41029869320067
 30
0.0
 11
19.228977177646229
 21
-310.23231531410579
 31
0.0
  0
LINE
  5
138
  8
1
 62
     7
 10
12.7823410091301
 20
-337.60790680033051
 30
0.0
 11
30.782341009130111
 21
-337.60790680033051
 31
0.0
  0
LINE
  5
139
  8
1
  6
DASHDOT
 62
     3
 10
21.782341009130111
 20
-349.77986853807113
 30
0.0
 11
21.782341009130111
 21
-335.49347529587442
 31
0.0
  0
LINE
  5
13A
  8
1
  6
DASHED
 62
     3
 10
26.032341009130111
 20
-347.60790680033051
 30
0.0
 11
26.032341009130111
 21
-337.60790680033051
 31
0.0
  0
LINE
  5
13B
  8
1
  6
DASHED
 62
     3
 10
17.5323410091301
 20
-347.60790680033051
 30
0.0
 11
17.5323410091301
 21
-337.60790680033051
 31
0.0
  0
LINE
  5
13C
  8
1
 62
     7
 10
35.576752092197708
 20
-317.64852990798562
 30
0.0
 11
34.082459638584282
 21
-323.22530526623763
 31
0.0
  0
LINE
  5
13D
  8
1
 62
     7
 10
41.153527450449751
 20
-316.15423745437209
 30
0.0
 11
35.576752092197708
 21
-317.64852990798562
 31
0.0
  0
LINE
  5
13E
  8
1
 62
     7
 10
45.236010355088403
 20
-320.2367203590108
 30
0.0
 11
41.153527450449751
 21
-316.15423745437209
 31
0.0
  0
LINE
  5
13F
  8
1
 62
     7
 10
43.741717901474971
 20
-325.81349571726281
 30
0.0
 11
45.236010355088403
 21
-320.2367203590108
 31
0.0
  0
LINE
  5
140
  8
1
 62
     7
 10
38.164942543222928
 20
-327.30778817087628
 30
0.0
 11
43.741717901474971
 21
-325.81349571726281
 31
0.0
  0
LINE
  5
141
  8
1
 62
     7
 10
34.082459638584282
 20
-323.22530526623763
 30
0.0
 11
38.164942543222928
 21
-327.30778817087628
 31
0.0
  0
LINE
  5
142
  8
1
 62
     7
 10
45.2823410091301
 20
-336.60790680033051
 30
0.0
 11
45.2823410091301
 21
-332.10038381275371
 31
0.0
  0
LINE
  5
143
  8
1
 62
     7
 10
33.724619029407897
 20
-332.71669350421359
 30
0.0
 11
33.724619029407897
 21
-336.70790680033048
 31
0.0
  0
LINE
  5
144
  8
1
 62
     7
 10
30.402546081794998
 20
-307.99411261697247
 30
0.0
 11
21.175943099024678
 21
-312.10206093285512
 31
0.0
  0
LINE
  5
145
  8
1
 62
     7
 10
35.260974384382848
 20
-315.89650078621167
 30
0.0
 11
26.4683038761506
 21
-322.52225325890942
 31
0.0
  0
LINE
  5
146
  8
1
 62
     7
 10
46.23124708987833
 20
-317.28032106314203
 30
0.0
 11
55.44043436369008
 21
-308.07113378933008
 31
0.0
  0
LINE
  5
147
  8
1
 62
     7
 10
44.109926746318713
 20
-315.15900071958231
 30
0.0
 11
53.319114020130442
 21
-305.94981344577047
 31
0.0
  0
LINE
  5
148
  8
1
 62
     7
 10
100.2455679981297
 20
-305.94981344577047
 30
0.0
 11
109.45475527194149
 21
-315.15900071958231
 31
0.0
  0
LINE
  5
149
  8
1
 62
     7
 10
98.124247654570127
 20
-308.07113378933008
 30
0.0
 11
107.33343492838181
 21
-317.28032106314203
 31
0.0
  0
LINE
  5
14A
  8
1
 62
     7
 10
127.0963781421095
 20
-322.52225325890942
 30
0.0
 11
118.3037076338772
 21
-315.89650078621167
 31
0.0
  0
LINE
  5
14B
  8
1
 62
     7
 10
133.27353062469041
 20
-312.49599558064682
 30
0.0
 11
123.16213593646521
 21
-307.99411261697247
 31
0.0
  0
LINE
  5
14C
  8
1
 62
     7
 10
135.30721384006941
 20
-307.92826829243381
 30
0.0
 11
125.19581915184411
 21
-303.42638532875952
 31
0.0
  0
LINE
  5
14D
  8
1
 62
     7
 10
138.82522944889919
 20
-295.54774199334707
 30
0.0
 11
127.98287398479501
 21
-293.63594219059371
 31
0.0
  0
LINE
  5
14E
  8
1
 62
     7
 10
119.8400629888523
 20
-336.70790680033048
 30
0.0
 11
119.8400629888523
 21
-332.71669350421359
 31
0.0
  0
LINE
  5
14F
  8
1
 62
     7
 10
121.78234100913011
 20
-338.60790680033051
 30
0.0
 11
121.7400629888522
 21
-338.60790680033051
 31
0.0
  0
LINE
  5
150
  8
1
 62
     7
 10
108.28234100912999
 20
-332.10038381275371
 30
0.0
 11
108.28234100912999
 21
-336.60790680033051
 31
0.0
  0
LINE
  5
151
  8
1
 62
     7
 10
115.39973947503719
 20
-327.30778817087628
 30
0.0
 11
119.4822223796758
 21
-323.22530526623763
 31
0.0
  0
LINE
  5
152
  8
1
 62
     7
 10
109.8229641167852
 20
-325.81349571726281
 30
0.0
 11
115.39973947503719
 21
-327.30778817087628
 31
0.0
  0
LINE
  5
153
  8
1
 62
     7
 10
108.3286716631718
 20
-320.2367203590108
 30
0.0
 11
109.8229641167852
 21
-325.81349571726281
 31
0.0
  0
LINE
  5
154
  8
1
 62
     7
 10
112.4111545678105
 20
-316.15423745437209
 30
0.0
 11
108.3286716631718
 21
-320.2367203590108
 31
0.0
  0
LINE
  5
155
  8
1
 62
     7
 10
117.98792992606251
 20
-317.64852990798562
 30
0.0
 11
112.4111545678105
 21
-316.15423745437209
 31
0.0
  0
LINE
  5
156
  8
1
 62
     7
 10
119.4822223796758
 20
-323.22530526623763
 30
0.0
 11
117.98792992606251
 21
-317.64852990798562
 31
0.0
  0
LINE
  5
157
  8
1
  6
DASHED
 62
     3
 10
136.03234100913011
 20
-337.60790680033051
 30
0.0
 11
136.03234100913011
 21
-347.60790680033051
 31
0.0
  0
LINE
  5
158
  8
1
  6
DASHED
 62
     3
 10
127.53234100912999
 20
-337.60790680033051
 30
0.0
 11
127.53234100912999
 21
-347.60790680033051
 31
0.0
  0
LINE
  5
159
  8
1
  6
DASHDOT
 62
     3
 10
131.78234100913011
 20
-335.49347529587442
 30
0.0
 11
131.78234100913011
 21
-349.77986853807113
 31
0.0
  0
LINE
  5
15A
  8
1
 62
     7
 10
122.78234100913011
 20
-337.60790680033051
 30
0.0
 11
140.78234100913011
 21
-337.60790680033051
 31
0.0
  0
LINE
  5
15B
  8
1
 62
     7
 10
134.335704840614
 20
-310.23231531410579
 30
0.0
 11
144.37046504044901
 21
-339.41029869320067
 31
0.0
  0
LINE
  5
15C
  8
1
 62
     7
 10
144.78234100912999
 20
-347.60790680033051
 30
0.0
 11
104.28234100912999
 21
-347.60790680033051
 31
0.0
  0
LINE
  5
15D
  8
1
 62
     7
 10
144.78234100912999
 20
-347.60790680033051
 30
0.0
 11
144.78234100912999
 21
-340.60790680033051
 31
0.0
  0
LINE
  5
15E
  8
1
 62
     7
 10
-105.8972894825262
 20
-277.10790680033051
 30
0.0
 11
-79.397289482526205
 21
-277.10790680033051
 31
0.0
  0
LINE
  5
15F
  8
1
 62
     7
 10
-145.39728948252611
 20
-315.73101281262427
 30
0.0
 11
-145.89728948252611
 21
-315.73101281262427
 31
0.0
  0
LINE
  5
160
  8
1
 62
     7
 10
-145.39728948252611
 20
-315.73101281262427
 30
0.0
 11
-145.39728948252611
 21
-327.73101281262427
 31
0.0
  0
LINE
  5
161
  8
1
 62
     7
 10
-145.39728948252611
 20
-327.73101281262427
 30
0.0
 11
-145.89728948252611
 21
-327.73101281262427
 31
0.0
  0
LINE
  5
162
  8
1
 62
     7
 10
-118.20485878040471
 20
-337.60790680033051
 30
0.0
 11
-146.1503976238389
 21
-330.29659232696082
 31
0.0
  0
LINE
  5
163
  8
1
 62
     7
 10
-116.8972894825262
 20
-337.9500025597315
 30
0.0
 11
-114.3230813910441
 21
-338.62348554326462
 31
0.0
  0
LINE
  5
164
  8
1
 62
     7
 10
66.774344206572664
 20
-346.8079068003305
 30
0.0
 11
86.79033781168755
 21
-346.8079068003305
 31
0.0
  0
LINE
  5
165
  8
1
 62
     7
 10
19.142259883645711
 20
-307.53433364464212
 30
0.0
 11
28.36886286641602
 21
-303.42638532875952
 31
0.0
  0
LINE
  5
166
  8
1
 62
     7
 10
14.739452569361021
 20
-295.54774199334707
 30
0.0
 11
25.581808033465141
 21
-293.63594219059371
 31
0.0
  0
LINE
  5
167
  8
1
 62
     7
 10
18.257468178190688
 20
-307.9282682924337
 30
0.0
 11
19.549569841856911
 21
-307.35298756743458
 31
0.0
  0
LINE
  5
168
  8
1
 62
     7
 10
20.291151393569749
 20
-312.49599558064682
 30
0.0
 11
21.81243823257309
 21
-311.8186750413401
 31
0.0
  0
LINE
  5
169
  8
1
 62
     7
 10
82.129022077465066
 20
-345.72075105758267
 30
0.0
 11
82.184260180609897
 21
-346.8079068003305
 31
0.0
  0
LINE
  5
16A
  8
1
 62
     7
 10
71.435659940795119
 20
-345.72075105758267
 30
0.0
 11
71.31279715451609
 21
-346.8079068003305
 31
0.0
  0
LINE
  5
16B
  8
1
 62
     7
 10
60.737647598902498
 20
-344.48751779916552
 30
0.0
 11
60.475142678416027
 21
-345.46080552013473
 31
0.0
  0
LINE
  5
16C
  8
1
 62
     7
 10
-184.89728948252611
 20
-322.52225325890942
 30
0.0
 11
-149.89728948252611
 21
-322.52225325890942
 31
0.0
  0
LINE
  5
16D
  8
1
 62
     7
 10
-152.89728948252611
 20
-295.54774199334707
 30
0.0
 11
-152.89728948252611
 21
-300.77326061875613
 31
0.0
  0
LINE
  5
16E
  8
1
 62
     7
 10
-149.89728948252611
 20
-307.9282682924337
 30
0.0
 11
-157.42633072491759
 21
-307.9282682924337
 31
0.0
  0
LINE
  5
16F
  8
1
 62
     7
 10
-152.89728948252611
 20
-312.23231531410579
 30
0.0
 11
-152.89728948252611
 21
-313.10742538206563
 31
0.0
  0
LINE
  5
170
  8
1
 62
     7
 10
-258.89728948252611
 20
-232.5726655625723
 30
0.0
 11
-254.89728948252611
 21
-232.5726655625723
 31
0.0
  0
LINE
  5
171
  8
1
 62
     7
 10
-259.89728948252628
 20
-223.60790680033051
 30
0.0
 11
-259.89728948252611
 21
-231.5726655625723
 31
0.0
  0
LINE
  5
172
  8
1
 62
     7
 10
-257.89728948252628
 20
-221.60790680033051
 30
0.0
 11
-143.89728948252619
 21
-221.60790680033051
 31
0.0
  0
LINE
  5
173
  8
1
 62
     7
 10
-214.89728948252611
 20
-333.12670353352001
 30
0.0
 11
-214.89728948252611
 21
-312.23231531410579
 31
0.0
  0
LINE
  5
174
  8
1
 62
     7
 10
-251.89728948252611
 20
-322.52225325890942
 30
0.0
 11
-216.89728948252611
 21
-322.52225325890942
 31
0.0
  0
LINE
  5
175
  8
1
 62
     7
 10
-248.89728948252611
 20
-313.10742538206563
 30
0.0
 11
-248.89728948252611
 21
-312.23231531410579
 31
0.0
  0
LINE
  5
176
  8
1
 62
     7
 10
-251.89728948252611
 20
-307.9282682924337
 30
0.0
 11
-244.36824824013479
 21
-307.9282682924337
 31
0.0
  0
LINE
  5
177
  8
1
 62
     7
 10
-246.89728948252611
 20
-302.77326061875613
 30
0.0
 11
-244.89728948252611
 21
-302.77326061875613
 31
0.0
  0
LINE
  5
178
  8
1
 62
     7
 10
-248.89728948252611
 20
-300.77326061875613
 30
0.0
 11
-248.89728948252611
 21
-295.54774199334707
 31
0.0
  0
LINE
  5
179
  8
1
 62
     7
 10
-287.47149757400808
 20
-338.62348554326462
 30
0.0
 11
-284.89728948252628
 21
-337.9500025597315
 31
0.0
  0
LINE
  5
17A
  8
1
 62
     7
 10
-255.6441813412134
 20
-330.29659232696082
 30
0.0
 11
-283.5897201846476
 21
-337.60790680033051
 31
0.0
  0
LINE
  5
17B
  8
1
 62
     7
 10
-257.89728948252628
 20
-327.48101281262427
 30
0.0
 11
-262.40654175371492
 21
-327.48101281262427
 31
0.0
  0
LINE
  5
17C
  8
1
 62
     7
 10
-257.89728948252628
 20
-324.60601281262427
 30
0.0
 11
-262.40654175371492
 21
-324.60601281262427
 31
0.0
  0
LINE
  5
17D
  8
1
 62
     7
 10
-257.89728948252628
 20
-318.85601281262427
 30
0.0
 11
-262.40654175371492
 21
-318.85601281262427
 31
0.0
  0
LINE
  5
17E
  8
1
 62
     7
 10
-257.89728948252628
 20
-315.98101281262427
 30
0.0
 11
-262.40654175371492
 21
-315.98101281262427
 31
0.0
  0
LINE
  5
17F
  8
1
 62
     7
 10
-262.89728948252628
 20
-326.04351281262427
 30
0.0
 11
-262.89728948252628
 21
-317.41851281262427
 31
0.0
  0
LINE
  5
180
  8
1
 62
     7
 10
-256.39728948252628
 20
-327.83101281262429
 30
0.0
 11
-257.89728948252628
 21
-327.83101281262429
 31
0.0
  0
LINE
  5
181
  8
1
 62
     7
 10
-257.89728948252628
 20
-315.63101281262419
 30
0.0
 11
-256.39728948252628
 21
-315.63101281262419
 31
0.0
  0
LINE
  5
182
  8
1
 62
     7
 10
-257.89728948252628
 20
-321.73101281262427
 30
0.0
 11
-256.39728948252628
 21
-323.23101281262427
 31
0.0
  0
LINE
  5
183
  8
1
 62
     7
 10
-257.89728948252628
 20
-320.23101281262427
 30
0.0
 11
-256.39728948252628
 21
-321.73101281262427
 31
0.0
  0
LINE
  5
184
  8
1
 62
     7
 10
-255.89728948252611
 20
-327.73101281262427
 30
0.0
 11
-256.39728948252628
 21
-327.73101281262427
 31
0.0
  0
LINE
  5
185
  8
1
 62
     7
 10
-255.89728948252611
 20
-315.73101281262427
 30
0.0
 11
-256.39728948252628
 21
-315.73101281262427
 31
0.0
  0
LINE
  5
186
  8
1
 62
     7
 10
-244.89728948252611
 20
-347.60790680033051
 30
0.0
 11
-288.89728948252628
 21
-347.60790680033051
 31
0.0
  0
LINE
  5
187
  8
1
 62
     7
 10
-288.89728948252628
 20
-340.53928434994458
 30
0.0
 11
-288.89728948252628
 21
-347.60790680033051
 31
0.0
  0
LINE
  5
188
  8
1
  6
DASHDOT
 62
     3
 10
-275.89728948252628
 20
-350.5791420010562
 30
0.0
 11
-275.89728948252628
 21
-334.12165229287081
 31
0.0
  0
LINE
  5
189
  8
1
 62
     7
 10
-244.89728948252611
 20
-346.8079068003305
 30
0.0
 11
-156.89728948252611
 21
-346.8079068003305
 31
0.0
  0
LINE
  5
18A
  8
1
 62
     7
 10
-244.89728948252611
 20
-347.60790680033051
 30
0.0
 11
-244.89728948252611
 21
-343.91584256812581
 31
0.0
  0
LINE
  5
18B
  8
1
 62
     7
 10
-207.82749048912109
 20
-342.62133666237179
 30
0.0
 11
-244.89728948252611
 21
-343.91584256812581
 31
0.0
  0
LINE
  5
18C
  8
1
 62
     7
 10
-284.89728948252628
 20
-337.60790680033051
 30
0.0
 11
-284.89728948252628
 21
-338.46822372236352
 31
0.0
  0
LINE
  5
18D
  8
1
 62
     7
 10
-260.2610361996106
 20
-337.60790680033051
 30
0.0
 11
-284.89728948252628
 21
-337.60790680033051
 31
0.0
  0
LINE
  5
18E
  8
1
  6
DASHED
 62
     3
 10
-271.64728948252628
 20
-347.60790680033051
 30
0.0
 11
-271.64728948252628
 21
-337.60790680033051
 31
0.0
  0
LINE
  5
18F
  8
1
  6
DASHED
 62
     3
 10
-280.14728948252628
 20
-347.60790680033051
 30
0.0
 11
-280.14728948252628
 21
-337.60790680033051
 31
0.0
  0
LINE
  5
190
  8
1
 62
     7
 10
-267.4974042366045
 20
-314.24775581456612
 30
0.0
 11
-290.48475521183252
 21
-313.44302098255582
 31
0.0
  0
LINE
  5
191
  8
1
 62
     7
 10
-295.89728948252611
 20
-292.1079068003304
 30
0.0
 11
-322.39728948252611
 21
-292.1079068003304
 31
0.0
  0
LINE
  5
192
  8
1
 62
     7
 10
-251.89728948252611
 20
-295.54774199334707
 30
0.0
 11
-244.8972894825263
 21
-295.54774199334707
 31
0.0
  0
LINE
  5
193
  8
1
 62
     7
 10
-290.82658470798719
 20
-288.85277502306411
 30
0.0
 11
-259.60025231551231
 21
-288.85277502306411
 31
0.0
  0
LINE
  5
194
  8
1
 62
     7
 10
-295.89728948252611
 20
-277.10790680033051
 30
0.0
 11
-322.39728948252611
 21
-277.10790680033051
 31
0.0
  0
LINE
  5
195
  8
1
 62
     7
 10
-290.48475521183252
 20
-255.7727926181052
 30
0.0
 11
-267.4974042366045
 21
-254.9680577860949
 31
0.0
  0
LINE
  5
196
  8
1
 62
     7
 10
-258.89728948252611
 20
-232.5726655625723
 30
0.0
 11
-254.89728948252611
 21
-232.5726655625723
 31
0.0
  0
LINE
  5
197
  8
1
 62
     7
 10
-259.89728948252628
 20
-223.60790680033051
 30
0.0
 11
-259.89728948252611
 21
-231.5726655625723
 31
0.0
  0
LINE
  5
198
  8
1
 62
     7
 10
-295.89728948252611
 20
-292.1079068003304
 30
0.0
 11
-322.39728948252611
 21
-292.1079068003304
 31
0.0
  0
LINE
  5
199
  8
1
 62
     7
 10
-256.39728948252628
 20
-241.48480078803681
 30
0.0
 11
-255.89728948252611
 21
-241.48480078803681
 31
0.0
  0
LINE
  5
19A
  8
1
 62
     7
 10
-156.8972894825263
 20
-295.54774199334707
 30
0.0
 11
-149.89728948252611
 21
-295.54774199334707
 31
0.0
  0
LINE
  5
19B
  8
1
 62
     7
 10
-156.8972894825263
 20
-302.77326061875613
 30
0.0
 11
-154.89728948252611
 21
-302.77326061875613
 31
0.0
  0
LINE
  5
19C
  8
1
 62
     7
 10
-195.89728948252611
 20
-312.23231531410579
 30
0.0
 11
-195.89728948252611
 21
-340.62255500833362
 31
0.0
  0
LINE
  5
19D
  8
1
 62
     7
 10
-107.6972894825262
 20
-272.40790680033052
 30
0.0
 11
-108.8972894825262
 21
-272.40790680033052
 31
0.0
  0
LINE
  5
19E
  8
1
 62
     7
 10
-78.897289482526219
 20
-277.6079068003304
 30
0.0
 11
-79.397289482526205
 21
-277.10790680033051
 31
0.0
  0
LINE
  5
19F
  8
1
 62
     7
 10
-78.897289482526219
 20
-291.60790680033051
 30
0.0
 11
-79.397289482526205
 21
-292.1079068003304
 31
0.0
  0
LINE
  5
1A0
  8
1
 62
     7
 10
-79.397289482526205
 20
-277.10790680033051
 30
0.0
 11
-79.397289482526205
 21
-292.1079068003304
 31
0.0
  0
LINE
  5
1A1
  8
1
 62
     7
 10
-100.8972894825262
 20
-275.10790680033051
 30
0.0
 11
-78.897289482526219
 21
-275.10790680033051
 31
0.0
  0
LINE
  5
1A2
  8
1
 62
     7
 10
-100.8972894825262
 20
-277.10790680033051
 30
0.0
 11
-100.8972894825262
 21
-275.10790680033051
 31
0.0
  0
LINE
  5
1A3
  8
1
 62
     7
 10
-322.39728948252611
 20
-277.10790680033051
 30
0.0
 11
-322.89728948252611
 21
-277.6079068003304
 31
0.0
  0
LINE
  5
1A4
  8
1
 62
     7
 10
-322.39728948252611
 20
-292.1079068003304
 30
0.0
 11
-322.89728948252611
 21
-291.60790680033051
 31
0.0
  0
LINE
  5
1A5
  8
1
 62
     7
 10
-322.39728948252611
 20
-277.10790680033051
 30
0.0
 11
-322.39728948252611
 21
-292.1079068003304
 31
0.0
  0
LINE
  5
1A6
  8
1
 62
     7
 10
-322.89728948252611
 20
-275.10790680033051
 30
0.0
 11
-300.89728948252611
 21
-275.10790680033051
 31
0.0
  0
LINE
  5
1A7
  8
1
 62
     7
 10
-300.89728948252611
 20
-277.10790680033051
 30
0.0
 11
-300.89728948252611
 21
-275.10790680033051
 31
0.0
  0
LINE
  5
1A8
  8
1
 62
     7
 10
-141.89728948252619
 20
-288.33829155805972
 30
0.0
 11
-142.1972894825262
 21
-288.85790680033051
 31
0.0
  0
LINE
  5
1A9
  8
1
 62
     7
 10
-142.1972894825262
 20
-288.85790680033051
 30
0.0
 11
-146.89728948252611
 21
-288.85790680033051
 31
0.0
  0
LINE
  5
1AA
  8
1
 62
     7
 10
-254.89728948252611
 20
-288.85790680033051
 30
0.0
 11
-259.59728948252632
 21
-288.85790680033051
 31
0.0
  0
LINE
  5
1AB
  8
1
 62
     7
 10
-259.59728948252632
 20
-288.85790680033051
 30
0.0
 11
-259.89728948252628
 21
-288.33829155805972
 31
0.0
  0
LINE
  5
1AC
  8
1
 62
     7
 10
-259.89728948252628
 20
-288.33829155805972
 30
0.0
 11
-259.89728948252628
 21
-280.87752204260107
 31
0.0
  0
LINE
  5
1AD
  8
1
 62
     7
 10
74.282341009130107
 20
-280.10790680033051
 30
0.0
 11
74.282341009130107
 21
-275.10790680033051
 31
0.0
  0
LINE
  5
1AE
  8
1
 62
     7
 10
74.282341009130107
 20
-275.10790680033051
 30
0.0
 11
79.282341009130107
 21
-275.10790680033051
 31
0.0
  0
LINE
  5
1AF
  8
1
 62
     7
 10
79.282341009130107
 20
-275.10790680033051
 30
0.0
 11
79.282341009130107
 21
-280.10790680033051
 31
0.0
  0
LINE
  5
1B0
  8
1
 62
     7
 10
79.282341009130107
 20
-280.10790680033051
 30
0.0
 11
74.282341009130107
 21
-280.10790680033051
 31
0.0
  0
LINE
  5
1B1
  8
1
  6
DASHDOT
 62
     3
 10
72.782341009130107
 20
-284.60790680033051
 30
0.0
 11
80.782341009130107
 21
-284.60790680033051
 31
0.0
  0
LINE
  5
1B2
  8
1
  6
DASHDOT
 62
     3
 10
76.782341009130107
 20
-288.60790680033051
 30
0.0
 11
76.782341009130107
 21
-280.60790680033051
 31
0.0
  0
LINE
  5
1B3
  8
1
 62
     7
 10
-78.897289482526219
 20
-291.60790680033051
 30
0.0
 11
-78.897289482526219
 21
-275.10790680033051
 31
0.0
  0
LINE
  5
1B4
  8
1
 62
     7
 10
-214.89728948252611
 20
-315.10742538206563
 30
0.0
 11
-246.89728948252611
 21
-315.10742538206563
 31
0.0
  0
LINE
  5
1B5
  8
1
 62
     7
 10
-186.89728948252611
 20
-315.10742538206563
 30
0.0
 11
-154.89728948252611
 21
-315.10742538206563
 31
0.0
  0
LINE
  5
1B6
  8
1
 62
     7
 10
-205.89728948252611
 20
-340.62255500833362
 30
0.0
 11
-205.89728948252611
 21
-312.23231531410579
 31
0.0
  0
LINE
  5
1B7
  8
1
 62
     7
 10
-214.89728948252611
 20
-312.23231531410579
 30
0.0
 11
-250.89728948252611
 21
-312.23231531410579
 31
0.0
  0
LINE
  5
1B8
  8
1
 62
     7
 10
-186.89728948252611
 20
-333.12670353352001
 30
0.0
 11
-186.89728948252611
 21
-312.23231531410579
 31
0.0
  0
LINE
  5
1B9
  8
1
 62
     7
 10
-186.89728948252611
 20
-312.23231531410579
 30
0.0
 11
-150.89728948252611
 21
-312.23231531410579
 31
0.0
  0
LINE
  5
1BA
  8
1
 62
     7
 10
-257.89728948252628
 20
-13.46787532291509
 30
0.0
 11
-256.39728948252628
 21
-13.46787532291509
 31
0.0
  0
LINE
  5
1BB
  8
1
 62
     7
 10
-262.40654175371492
 20
-16.692875322915089
 30
0.0
 11
-257.89728948252628
 21
-16.692875322915089
 31
0.0
  0
LINE
  5
1BC
  8
1
 62
     7
 10
-262.89466559916713
 20
-15.366412455280971
 30
0.0
 11
-262.89466559916713
 21
-23.991412455281068
 31
0.0
  0
LINE
  5
1BD
  8
1
 62
     7
 10
-256.39728948252628
 20
-19.567875322915089
 30
0.0
 11
-257.89728948252628
 21
-21.067875322915079
 31
0.0
  0
LINE
  5
1BE
  8
1
 62
     7
 10
-256.39728948252628
 20
-18.067875322915079
 30
0.0
 11
-257.89728948252628
 21
-19.567875322915079
 31
0.0
  0
LINE
  5
1BF
  8
1
 62
     7
 10
-262.40654175371492
 20
-13.81787532291508
 30
0.0
 11
-257.89728948252628
 21
-13.81787532291508
 31
0.0
  0
LINE
  5
1C0
  8
1
 62
     7
 10
-262.40654175371492
 20
-25.317875322915089
 30
0.0
 11
-258.598341454001
 21
-25.317875322915089
 31
0.0
  0
LINE
  5
1C1
  8
1
 62
     7
 10
-262.40654175371492
 20
-22.442875322915089
 30
0.0
 11
-257.89728948252628
 21
-22.442875322915089
 31
0.0
  0
LINE
  5
1C2
  8
1
 62
     7
 10
-264.7972894825262
 20
-16.567875322915171
 30
0.0
 11
-265.39728948252611
 21
-17.167875322915162
 31
0.0
  0
LINE
  5
1C3
  8
1
 62
     7
 10
-265.39728948252611
 20
-17.167875322915162
 30
0.0
 11
-265.39728948252611
 21
-21.967875322915091
 31
0.0
  0
LINE
  5
1C4
  8
1
 62
     7
 10
-265.39728948252611
 20
-21.967875322915091
 30
0.0
 11
-264.7972894825262
 21
-22.567875322915089
 31
0.0
  0
LINE
  5
1C5
  8
1
 62
     7
 10
-264.7972894825262
 20
-22.567875322915089
 30
0.0
 11
-262.89728948252628
 21
-22.567875322915089
 31
0.0
  0
LINE
  5
1C6
  8
1
 62
     7
 10
-264.7972894825262
 20
-16.567875322915171
 30
0.0
 11
-264.7972894825262
 21
-22.567875322915089
 31
0.0
  0
LINE
  5
1C7
  8
1
 62
     3
 10
-265.39728948252611
 20
-17.167875322915162
 30
0.0
 11
-262.89728948252628
 21
-17.16787532291508
 31
0.0
  0
LINE
  5
1C8
  8
1
 62
     3
 10
-265.39728948252611
 20
-21.967875322915091
 30
0.0
 11
-262.89728948252628
 21
-21.967875322915091
 31
0.0
  0
LINE
  5
1C9
  8
1
 62
     7
 10
-262.89728948252628
 20
-16.567875322915171
 30
0.0
 11
-264.7972894825262
 21
-16.567875322915171
 31
0.0
  0
LINE
  5
1CA
  8
1
 62
     7
 10
-256.39728948252628
 20
-25.190981335208921
 30
0.0
 11
-256.39728948252628
 21
-13.46787532291509
 31
0.0
  0
LINE
  5
1CB
  8
1
 62
     7
 10
-257.89728948252611
 20
-25.190981335208921
 30
0.0
 11
-257.89728948252628
 21
-13.46787532291509
 31
0.0
  0
LINE
  5
1CC
  8
1
 62
     7
 10
-256.39728948252628
 20
-99.914087347502644
 30
0.0
 11
-256.39728948252628
 21
-88.190981335208917
 31
0.0
  0
LINE
  5
1CD
  8
1
 62
     7
 10
-262.40654175371492
 20
-90.939087347502635
 30
0.0
 11
-257.89728948252628
 21
-90.939087347502635
 31
0.0
  0
LINE
  5
1CE
  8
1
 62
     7
 10
-262.89466559916713
 20
-89.612624479868543
 30
0.0
 11
-262.89466559916713
 21
-98.237624479868657
 31
0.0
  0
LINE
  5
1CF
  8
1
 62
     7
 10
-256.39728948252628
 20
-99.914087347502644
 30
0.0
 11
-257.89728948252628
 21
-99.914087347502644
 31
0.0
  0
LINE
  5
1D0
  8
1
 62
     7
 10
-256.39728948252628
 20
-93.814087347502635
 30
0.0
 11
-257.89728948252628
 21
-95.314087347502635
 31
0.0
  0
LINE
  5
1D1
  8
1
 62
     7
 10
-256.39728948252628
 20
-92.314087347502664
 30
0.0
 11
-257.89728948252628
 21
-93.814087347502635
 31
0.0
  0
LINE
  5
1D2
  8
1
 62
     7
 10
-257.89728948252628
 20
-99.914087347502644
 30
0.0
 11
-257.89728948252611
 21
-88.190981335208917
 31
0.0
  0
LINE
  5
1D3
  8
1
 62
     7
 10
-262.40654175371492
 20
-88.06408734750265
 30
0.0
 11
-258.59834145400112
 21
-88.06408734750265
 31
0.0
  0
LINE
  5
1D4
  8
1
 62
     7
 10
-262.40654175371492
 20
-99.56408734750265
 30
0.0
 11
-257.89728948252628
 21
-99.56408734750265
 31
0.0
  0
LINE
  5
1D5
  8
1
 62
     7
 10
-262.40654175371492
 20
-96.689087347502664
 30
0.0
 11
-257.89728948252628
 21
-96.689087347502664
 31
0.0
  0
LINE
  5
1D6
  8
1
 62
     7
 10
-264.7972894825262
 20
-90.814087347502721
 30
0.0
 11
-265.39728948252611
 21
-91.414087347502729
 31
0.0
  0
LINE
  5
1D7
  8
1
 62
     7
 10
-265.39728948252611
 20
-91.414087347502729
 30
0.0
 11
-265.39728948252611
 21
-96.214087347502655
 31
0.0
  0
LINE
  5
1D8
  8
1
 62
     7
 10
-265.39728948252611
 20
-96.214087347502655
 30
0.0
 11
-264.7972894825262
 21
-96.814087347502706
 31
0.0
  0
LINE
  5
1D9
  8
1
 62
     7
 10
-264.7972894825262
 20
-96.814087347502706
 30
0.0
 11
-262.89728948252628
 21
-96.81408734750265
 31
0.0
  0
LINE
  5
1DA
  8
1
 62
     7
 10
-264.7972894825262
 20
-90.814087347502721
 30
0.0
 11
-264.7972894825262
 21
-96.814087347502706
 31
0.0
  0
LINE
  5
1DB
  8
1
 62
     3
 10
-265.39728948252611
 20
-91.414087347502729
 30
0.0
 11
-262.89728948252628
 21
-91.414087347502658
 31
0.0
  0
LINE
  5
1DC
  8
1
 62
     3
 10
-265.39728948252611
 20
-96.214087347502655
 30
0.0
 11
-262.89728948252628
 21
-96.214087347502684
 31
0.0
  0
LINE
  5
1DD
  8
1
 62
     7
 10
-262.89728948252628
 20
-90.814087347502763
 30
0.0
 11
-264.7972894825262
 21
-90.814087347502721
 31
0.0
  0
LINE
  5
1DE
  8
1
 62
     7
 10
-108.8972894825262
 20
-264.10181014592052
 30
0.0
 11
-141.50432516135109
 21
-252.49856339078079
 31
0.0
  0
LINE
  5
1DF
  8
1
 62
     7
 10
-146.91402773822031
 20
-264.10181014592052
 30
0.0
 11
-108.8972894825262
 21
-264.10181014592052
 31
0.0
  0
LINE
  5
1E0
  8
1
 62
     7
 10
-108.8972894825262
 20
-305.11400345474021
 30
0.0
 11
-146.91402773822031
 21
-305.11400345474021
 31
0.0
  0
LINE
  5
1E1
  8
1
 62
     7
 10
-141.50432516135109
 20
-316.71725020988009
 30
0.0
 11
-108.8972894825262
 21
-305.11400345474021
 31
0.0
  0
LINE
  5
1E2
  8
1
 62
     7
 10
-292.89728948252611
 20
-264.10181014592052
 30
0.0
 11
-254.88055122683201
 21
-264.10181014592052
 31
0.0
  0
LINE
  5
1E3
  8
1
 62
     7
 10
-254.88055122683201
 20
-305.11400345474021
 30
0.0
 11
-292.89728948252611
 21
-305.11400345474021
 31
0.0
  0
LINE
  5
1E4
  8
1
 62
     7
 10
-292.89728948252611
 20
-305.11400345474021
 30
0.0
 11
-262.35920222710462
 21
-315.98101281262427
 31
0.0
  0
LINE
  5
1E5
  8
1
 62
     7
 10
-141.50432516135109
 20
-88.800324744758683
 30
0.0
 11
-108.8972894825262
 21
-77.19707798961889
 31
0.0
  0
LINE
  5
1E6
  8
1
 62
     7
 10
-108.8972894825262
 20
-77.19707798961889
 30
0.0
 11
-141.8972894825263
 21
-77.19707798961889
 31
0.0
  0
LINE
  5
1E7
  8
1
 62
     7
 10
-108.8972894825262
 20
-36.184884680799144
 30
0.0
 11
-141.50432516135109
 21
-24.581637925659312
 31
0.0
  0
LINE
  5
1E8
  8
1
 62
     7
 10
-292.89728948252611
 20
-36.184884680799144
 30
0.0
 11
-259.89728948252611
 21
-36.184884680799144
 31
0.0
  0
LINE
  5
1E9
  8
1
 62
     7
 10
-292.89728948252611
 20
-77.19707798961889
 30
0.0
 11
-262.35920222710507
 21
-88.06408734750265
 31
0.0
  0
LINE
  5
1EA
  8
1
 62
     7
 10
-262.35920222710507
 20
-253.23480078803681
 30
0.0
 11
-292.89728948252611
 21
-264.10181014592052
 31
0.0
  0
LINE
  5
1EB
  8
1
 62
     7
 10
-262.35920222710439
 20
-25.317875322915089
 30
0.0
 11
-292.89728948252611
 21
-36.184884680799144
 31
0.0
  0
LINE
  5
1EC
  8
1
 62
     7
 10
-259.89728948252611
 20
-77.19707798961889
 30
0.0
 11
-292.89728948252611
 21
-77.19707798961889
 31
0.0
  0
LINE
  5
1ED
  8
1
 62
     7
 10
-141.8972894825263
 20
-36.184884680799144
 30
0.0
 11
-108.8972894825262
 21
-36.184884680799144
 31
0.0
  0
LINE
  5
1EE
  8
1
 62
     7
 10
104.28234100912999
 20
-332.10038381275371
 30
0.0
 11
104.28234100912999
 21
-347.60790680033051
 31
0.0
  0
LINE
  5
1EF
  8
1
 62
     7
 10
106.28234100912999
 20
-338.60790680033051
 30
0.0
 11
142.78234100913011
 21
-338.60790680033051
 31
0.0
  0
LINE
  5
1F0
  8
1
 62
     7
 10
47.2823410091301
 20
-338.60790680033051
 30
0.0
 11
10.7823410091301
 21
-338.60790680033051
 31
0.0
  0
LINE
  5
1F1
  8
1
 62
     7
 10
49.282341009130107
 20
-332.10038381275371
 30
0.0
 11
49.282341009130107
 21
-347.60790680033051
 31
0.0
  0
LINE
  5
1F2
  8
1
  6
DASHED
 62
     3
 10
-78.897289482526219
 20
-286.50790680033037
 30
0.0
 11
-92.69728948252623
 21
-286.50790680033037
 31
0.0
  0
LINE
  5
1F3
  8
1
  6
DASHED
 62
     3
 10
-92.69728948252623
 20
-286.50790680033037
 30
0.0
 11
-92.69728948252623
 21
-282.70790680033048
 31
0.0
  0
LINE
  5
1F4
  8
1
  6
DASHED
 62
     3
 10
-92.69728948252623
 20
-282.70790680033048
 30
0.0
 11
-78.897289482526219
 21
-282.70790680033048
 31
0.0
  0
LINE
  5
1F5
  8
1
  6
DASHED
 62
     3
 10
-92.69728948252623
 20
-286.50790680033037
 30
0.0
 11
-94.140665155500272
 21
-284.60790680033051
 31
0.0
  0
LINE
  5
1F6
  8
1
  6
DASHED
 62
     3
 10
-94.140665155500272
 20
-284.60790680033051
 30
0.0
 11
-92.69728948252623
 21
-282.70790680033048
 31
0.0
  0
LINE
  5
1F7
  8
1
  6
DASHED
 62
     3
 10
-78.897289482526219
 20
-287.10790680033051
 30
0.0
 11
-88.897289482526219
 21
-287.10790680033051
 31
0.0
  0
LINE
  5
1F8
  8
1
  6
DASHED
 62
     3
 10
-88.897289482526219
 20
-287.10790680033051
 30
0.0
 11
-88.897289482526219
 21
-282.10790680033051
 31
0.0
  0
LINE
  5
1F9
  8
1
  6
DASHED
 62
     3
 10
-88.897289482526219
 20
-282.10790680033051
 30
0.0
 11
-78.897289482526219
 21
-282.10790680033051
 31
0.0
  0
LINE
  5
1FA
  8
1
  6
DASHED
 62
     3
 10
-88.897289482526219
 20
-287.10790680033051
 30
0.0
 11
-89.936519967067554
 21
-286.50790680033037
 31
0.0
  0
LINE
  5
1FB
  8
1
  6
DASHED
 62
     3
 10
-88.897289482526219
 20
-282.10790680033051
 30
0.0
 11
-89.936519967067554
 21
-282.70790680033048
 31
0.0
  0
LINE
  5
1FC
  8
1
  6
DASHDOT
 62
     3
 10
-75.897289482526219
 20
-284.60790680033051
 30
0.0
 11
-97.994254993986516
 21
-284.60790680033051
 31
0.0
  0
LINE
  5
1FD
  8
1
 62
     7
 10
-184.00198797263371
 20
-336.12487601457713
 30
0.0
 11
-114.8274904891211
 21
-338.54050269590641
 31
0.0
  0
LINE
  5
1FE
  8
1
 62
     7
 10
-217.79259099241881
 20
-336.12487601457713
 30
0.0
 11
-286.96708847593112
 21
-338.54050269590641
 31
0.0
  0
LINE
  5
1FF
  8
1
  6
DASHED
 62
     3
 10
-322.89728948252611
 20
-282.70790680033048
 30
0.0
 11
-309.09728948252609
 21
-282.70790680033048
 31
0.0
  0
LINE
  5
200
  8
1
  6
DASHED
 62
     3
 10
-309.09728948252609
 20
-282.70790680033048
 30
0.0
 11
-309.09728948252609
 21
-286.50790680033037
 31
0.0
  0
LINE
  5
201
  8
1
  6
DASHED
 62
     3
 10
-309.09728948252609
 20
-286.50790680033037
 30
0.0
 11
-322.89728948252611
 21
-286.50790680033037
 31
0.0
  0
LINE
  5
202
  8
1
  6
DASHED
 62
     3
 10
-309.09728948252609
 20
-282.70790680033048
 30
0.0
 11
-307.65391380955208
 21
-284.60790680033051
 31
0.0
  0
LINE
  5
203
  8
1
  6
DASHED
 62
     3
 10
-307.65391380955208
 20
-284.60790680033051
 30
0.0
 11
-309.09728948252609
 21
-286.50790680033037
 31
0.0
  0
LINE
  5
204
  8
1
  6
DASHED
 62
     3
 10
-322.89728948252611
 20
-282.10790680033051
 30
0.0
 11
-312.89728948252611
 21
-282.10790680033051
 31
0.0
  0
LINE
  5
205
  8
1
  6
DASHED
 62
     3
 10
-312.89728948252611
 20
-282.10790680033051
 30
0.0
 11
-312.89728948252611
 21
-287.10790680033051
 31
0.0
  0
LINE
  5
206
  8
1
  6
DASHED
 62
     3
 10
-312.89728948252611
 20
-287.10790680033051
 30
0.0
 11
-322.89728948252611
 21
-287.10790680033051
 31
0.0
  0
LINE
  5
207
  8
1
  6
DASHED
 62
     3
 10
-312.89728948252611
 20
-282.10790680033051
 30
0.0
 11
-311.85805899798481
 21
-282.70790680033048
 31
0.0
  0
LINE
  5
208
  8
1
  6
DASHED
 62
     3
 10
-312.89728948252611
 20
-287.10790680033051
 30
0.0
 11
-311.85805899798481
 21
-286.50790680033037
 31
0.0
  0
LINE
  5
209
  8
1
  6
DASHDOT
 62
     3
 10
-325.89728948252611
 20
-284.60790680033051
 30
0.0
 11
-303.80032397106589
 21
-284.60790680033051
 31
0.0
  0
LINE
  5
20A
  8
1
 62
     7
 10
-108.8972894825262
 20
-30.354336633725101
 30
0.0
 11
-108.8972894825262
 21
-83.027626036692695
 31
0.0
  0
LINE
  5
20B
  8
1
 62
     7
 10
-107.697289482526
 20
-44.4909813352089
 30
0.0
 11
-107.697289482526
 21
-69.888940306341624
 31
0.0
  0
LINE
  5
20C
  8
1
 62
     7
 10
-105.8972894825262
 20
-66.690981335208903
 30
0.0
 11
-105.8972894825262
 21
-46.690981335208903
 31
0.0
  0
LINE
  5
20D
  8
1
 62
     7
 10
-295.89728948252611
 20
-46.690981335208903
 30
0.0
 11
-295.89728948252611
 21
-66.690981335208903
 31
0.0
  0
LINE
  5
20E
  8
1
 62
     7
 10
-294.09728948252609
 20
-44.4909813352089
 30
0.0
 11
-294.09728948252609
 21
-69.888940306341624
 31
0.0
  0
LINE
  5
20F
  8
1
 62
     7
 10
-292.89728948252611
 20
-30.354336633725101
 30
0.0
 11
-292.89728948252611
 21
-83.027626036692695
 31
0.0
  0
LINE
  5
210
  8
1
 62
     7
 10
-254.89728948252611
 20
-232.5726655625723
 30
0.0
 11
-254.89728948252611
 21
-334.21419016913308
 31
0.0
  0
ARC
  5
211
  8
1
 62
     7
 10
-283.89728948252628
 20
-89.190981335208917
 30
0.0
 40
5.0000000000000044
 50
134.64651813421941
 51
180.0
  0
ARC
  5
212
  8
1
 62
     7
 10
-283.89728948252628
 20
-24.190981335208889
 30
0.0
 40
5.0
 50
180.0
 51
225.35348186578059
  0
ARC
  5
213
  8
1
 62
     7
 10
-117.8972894825262
 20
-24.190981335208889
 30
0.0
 40
4.9999999999999778
 50
314.64651813421898
 51
0.0
  0
ARC
  5
214
  8
1
 62
     7
 10
-117.8972894825262
 20
-89.190981335208917
 30
0.0
 40
5.0
 50
0.0
 51
45.35348186578095
  0
ARC
  5
215
  8
1
 62
     7
 10
-192.19728948252649
 20
-302.96363581712308
 30
0.0
 40
2.6999999999998181
 50
180.0
 51
270.0
  0
ARC
  5
216
  8
1
 62
     7
 10
-200.8972894825263
 20
-302.96363581712308
 30
0.0
 40
6.0
 50
0.0
 51
180.0
  0
ARC
  5
217
  8
1
 62
     7
 10
-209.59728948252609
 20
-302.96363581712308
 30
0.0
 40
2.6999999999999891
 50
270.0
 51
0.0
  0
ARC
  5
218
  8
1
 62
     7
 10
-198.84728948252629
 20
-307.71363581712308
 30
0.0
 40
1.7424999999999491
 50
90.0
 51
180.0
  0
ARC
  5
219
  8
1
 62
     7
 10
-202.94728948252629
 20
-307.71363581712308
 30
0.0
 40
1.7424999999999771
 50
0.0
 51
90.0
  0
ARC
  5
21A
  8
1
 62
     7
 10
-202.94728948252629
 20
-303.61363581712311
 30
0.0
 40
1.7424999999999491
 50
270.0
 51
0.0
  0
ARC
  5
21B
  8
1
 62
     7
 10
-198.84728948252629
 20
-303.61363581712311
 30
0.0
 40
1.7425000000000059
 50
180.0
 51
270.0
  0
ARC
  5
21C
  8
1
 62
     7
 10
-150.0641236153501
 20
-19.56787532291505
 30
0.0
 40
8.6668341328241283
 50
340.6265294576765
 51
19.373470542322998
  0
ARC
  5
21D
  8
1
 62
     7
 10
-143.7480284140363
 20
-15.255375322915141
 30
0.0
 40
2.350738931510147
 50
322.30124515331948
 51
37.698754846681929
  0
ARC
  5
21E
  8
1
 62
     7
 10
-150.0641236153501
 20
-19.56787532291505
 30
0.0
 40
8.6668341328241283
 50
340.6265294576765
 51
19.373470542322998
  0
ARC
  5
21F
  8
1
 62
     7
 10
-143.7480284140363
 20
-23.880375322915139
 30
0.0
 40
2.350738931510195
 50
322.30124515331812
 51
37.698754846681929
  0
ARC
  5
220
  8
1
 62
     7
 10
-143.7480284140363
 20
-98.126587347502635
 30
0.0
 40
2.350738931510195
 50
322.30124515331812
 51
37.698754846681929
  0
ARC
  5
221
  8
1
 62
     7
 10
-150.0641236153501
 20
-93.814087347502635
 30
0.0
 40
8.6668341328241034
 50
340.6265294576769
 51
19.373470542322998
  0
ARC
  5
222
  8
1
 62
     7
 10
-143.7480284140363
 20
-89.501587347502664
 30
0.0
 40
2.350738931510195
 50
322.30124515331812
 51
37.698754846681929
  0
ARC
  5
223
  8
1
 62
     7
 10
-150.0641236153501
 20
-247.48480078803669
 30
0.0
 40
8.6668341328240341
 50
340.62652945767587
 51
19.37347054232325
  0
ARC
  5
224
  8
1
 62
     7
 10
-143.74802841403641
 20
-243.17230078803681
 30
0.0
 40
2.350738931510127
 50
322.30124515332022
 51
37.698754846681929
  0
ARC
  5
225
  8
1
 62
     7
 10
-150.0641236153501
 20
-247.48480078803669
 30
0.0
 40
8.6668341328240341
 50
340.62652945767587
 51
19.37347054232325
  0
ARC
  5
226
  8
1
 62
     7
 10
-143.74802841403641
 20
-251.79730078803669
 30
0.0
 40
2.350738931510195
 50
322.30124515331812
 51
37.698754846681929
  0
ARC
  5
227
  8
1
 62
     7
 10
-260.54655055101603
 20
-251.79730078803669
 30
0.0
 40
2.3507389315101501
 50
142.3012451533171
 51
217.6987548466827
  0
ARC
  5
228
  8
1
 62
     7
 10
-260.54655055101603
 20
-243.17230078803681
 30
0.0
 40
2.3507389315101501
 50
142.3012451533171
 51
217.6987548466827
  0
ARC
  5
229
  8
1
 62
     7
 10
-254.2304553497022
 20
-247.48480078803681
 30
0.0
 40
8.6668341328239684
 50
160.6265294576767
 51
199.37347054232319
  0
ARC
  5
22A
  8
1
 62
     7
 10
-254.2304553497022
 20
-247.48480078803681
 30
0.0
 40
8.6668341328239684
 50
160.6265294576767
 51
199.37347054232319
  0
ARC
  5
22B
  8
1
 62
     7
 10
-143.74802841403641
 20
-326.04351281262427
 30
0.0
 40
2.350738931510195
 50
322.30124515331812
 51
37.698754846681929
  0
ARC
  5
22C
  8
1
 62
     7
 10
-150.0641236153501
 20
-321.73101281262427
 30
0.0
 40
8.6668341328239951
 50
340.62652945767672
 51
19.37347054232325
  0
ARC
  5
22D
  8
1
 62
     7
 10
-143.74802841403641
 20
-317.41851281262427
 30
0.0
 40
2.350738931510195
 50
322.30124515331812
 51
37.698754846681929
  0
ARC
  5
22E
  8
1
 62
     7
 10
-254.2304553497022
 20
-321.73101281262427
 30
0.0
 40
8.6668341328239684
 50
160.6265294576767
 51
199.37347054232319
  0
ARC
  5
22F
  8
1
 62
     7
 10
76.782341009130107
 20
-284.60790680033051
 30
0.0
 40
30.32698924068648
 50
52.760105908465817
 51
82.690510900123869
  0
ARC
  5
230
  8
1
 62
     7
 10
76.782341009130107
 20
-284.60790680033051
 30
0.0
 40
30.326989240686469
 50
97.309489099876117
 51
127.2398940915341
  0
ARC
  5
231
  8
1
 62
     7
 10
76.782341009130107
 20
-283.8654068003305
 30
0.0
 40
11.457500000000019
 50
301.57905060902903
 51
238.420949390971
  0
ARC
  5
232
  8
1
 62
     7
 10
76.782341009130107
 20
-284.60790680033051
 30
0.0
 40
30.326989240686409
 50
142.76010590846579
 51
172.6905109001238
  0
ARC
  5
233
  8
1
 62
     7
 10
76.782341009130107
 20
-284.60790680033051
 30
0.0
 40
30.326989240686469
 50
187.30948909987609
 51
217.23989409153421
  0
ARC
  5
234
  8
1
 62
     7
 10
76.782341009130107
 20
-284.60790680033051
 30
0.0
 40
30.326989240686469
 50
7.3094890998762372
 51
37.23989409153414
  0
ARC
  5
235
  8
1
 62
     7
 10
76.782341009130107
 20
-284.60790680033051
 30
0.0
 40
30.326989240686519
 50
322.76010590846562
 51
352.69051090012391
  0
ARC
  5
236
  8
1
 62
     7
 10
76.782341009130107
 20
-284.60790680033051
 30
0.0
 40
30.326989240686441
 50
277.30948909987592
 51
307.23989409153421
  0
ARC
  5
237
  8
1
 62
     7
 10
76.782341009130107
 20
-284.60790680033051
 30
0.0
 40
30.32698924068649
 50
232.76010590846579
 51
262.6905109001238
  0
ARC
  5
238
  8
1
 62
     7
 10
76.782341009130107
 20
-284.60790680033051
 30
0.0
 40
29.000000000000028
 50
188.41689697043941
 51
261.5831030295605
  0
ARC
  5
239
  8
1
 62
     7
 10
76.782341009130107
 20
-284.60790680033051
 30
0.0
 40
28.99999999999995
 50
8.4168969704393692
 51
81.583103029560647
  0
ARC
  5
23A
  8
1
 62
     7
 10
76.782341009130107
 20
-318.60790680033051
 30
0.0
 40
5.4999999999999618
 50
45.449326865327521
 51
134.55067313467251
  0
ARC
  5
23B
  8
1
 62
     7
 10
42.782341009130107
 20
-284.60790680033051
 30
0.0
 40
5.4999999999999716
 50
315.44932686532701
 51
44.550673134672977
  0
ARC
  5
23C
  8
1
 62
     7
 10
76.782341009130107
 20
-250.60790680033051
 30
0.0
 40
5.4999999999999716
 50
225.4493268653269
 51
314.5506731346731
  0
ARC
  5
23D
  8
1
 62
     7
 10
76.782341009130107
 20
-318.60790680033051
 30
0.0
 40
6.80000000000003
 50
51.373182134209998
 51
128.62681786579071
  0
ARC
  5
23E
  8
1
 62
     7
 10
42.782341009130107
 20
-284.60790680033051
 30
0.0
 40
6.7999999999999643
 50
321.37318213420969
 51
38.626817865790493
  0
ARC
  5
23F
  8
1
 62
     7
 10
76.782341009130107
 20
-250.60790680033051
 30
0.0
 40
6.8000000000000078
 50
231.3731821342098
 51
308.62681786579009
  0
ARC
  5
240
  8
1
 62
     7
 10
110.78234100912999
 20
-284.60790680033051
 30
0.0
 40
6.8000000000000194
 50
141.37318213420991
 51
218.62681786579009
  0
ARC
  5
241
  8
1
 62
     7
 10
110.78234100912999
 20
-284.60790680033051
 30
0.0
 40
5.5000000000000107
 50
135.4493268653265
 51
224.55067313467299
  0
ARC
  5
242
  8
1
 62
     7
 10
76.782341009130107
 20
-284.60790680033051
 30
0.0
 40
28.999999999999961
 50
98.416896970439353
 51
171.58310302956059
  0
ARC
  5
243
  8
1
 62
     7
 10
76.782341009130107
 20
-284.60790680033051
 30
0.0
 40
28.99999999999994
 50
278.41689697043938
 51
351.58310302956062
  0
ARC
  5
244
  8
1
 62
     7
 10
76.782341009130107
 20
-284.60790680033051
 30
0.0
 40
58.999999999999972
 50
61.878886878143049
 51
118.12111312185699
  0
ARC
  5
245
  8
1
 62
     7
 10
76.782341009130107
 20
-284.60790680033051
 30
0.0
 40
54.999999999999957
 50
100.1626183538897
 51
117.8373816461102
  0
ARC
  5
246
  8
1
 62
     7
 10
76.782341009130107
 20
-284.60790680033051
 30
0.0
 40
50.999999999999972
 50
100.1626183538895
 51
117.8373816461102
  0
ARC
  5
247
  8
1
 62
     7
 10
76.782341009130107
 20
-284.60790680033051
 30
0.0
 40
50.999999999999993
 50
62.162618353889599
 51
79.837381646110316
  0
ARC
  5
248
  8
1
 62
     7
 10
76.782341009130107
 20
-284.60790680033051
 30
0.0
 40
55.000000000000028
 50
62.16261835388962
 51
79.837381646110316
  0
ARC
  5
249
  8
1
 62
     7
 10
76.782341009130107
 20
-284.60790680033051
 30
0.0
 40
50.99999999999995
 50
256.10190983933688
 51
263.89809016066289
  0
ARC
  5
24A
  8
1
 62
     7
 10
76.782341009130107
 20
-284.60790680033051
 30
0.0
 40
58.000000000000043
 50
255.0
 51
265.0
  0
ARC
  5
24B
  8
1
 62
     7
 10
76.782341009130107
 20
-284.60790680033051
 30
0.0
 40
58.000000000000043
 50
275.0
 51
285.00000000000011
  0
ARC
  5
24C
  8
1
 62
     7
 10
76.782341009130107
 20
-284.60790680033051
 30
0.0
 40
50.999999999999943
 50
276.101909839337
 51
283.89809016066278
  0
ARC
  5
24D
  8
1
 62
     7
 10
76.782341009130107
 20
-284.60790680033051
 30
0.0
 40
51.000000000000007
 50
191.1019098393368
 51
200.14063552332931
  0
ARC
  5
24E
  8
1
 62
     7
 10
76.782341009130107
 20
-284.60790680033051
 30
0.0
 40
58.0
 50
190.0
 51
201.5295889625003
  0
ARC
  5
24F
  8
1
 62
     7
 10
47.2823410091301
 20
-332.10038381275371
 30
0.0
 40
2.0
 50
0.0
 51
180.0
  0
ARC
  5
250
  8
1
 62
     7
 10
43.2823410091301
 20
-332.10038381275371
 30
0.0
 40
2.0
 50
0.0
 51
90.0
  0
ARC
  5
251
  8
1
 62
     7
 10
51.282341009130079
 20
-332.10038381275371
 30
0.0
 40
2.0
 50
90.0
 51
180.0
  0
ARC
  5
252
  8
1
 62
     7
 10
76.782341009130107
 20
-284.60790680033051
 30
0.0
 40
50.999999999999993
 50
207.85936447667081
 51
215.8980901606628
  0
ARC
  5
253
  8
1
 62
     7
 10
76.782341009130107
 20
-284.60790680033051
 30
0.0
 40
58.000000000000043
 50
206.47041103750001
 51
216.99999999999989
  0
ARC
  5
254
  8
1
 62
     7
 10
76.782341009130107
 20
-284.60790680033051
 30
0.0
 40
58.000000000000028
 50
323.00000000000011
 51
333.52958896249987
  0
ARC
  5
255
  8
1
 62
     7
 10
76.782341009130107
 20
-284.60790680033051
 30
0.0
 40
58.000000000000043
 50
338.47041103749967
 51
349.99999999999977
  0
ARC
  5
256
  8
1
 62
     7
 10
76.782341009130107
 20
-284.60790680033051
 30
0.0
 40
51.000000000000021
 50
324.10190983933711
 51
332.14063552332931
  0
ARC
  5
257
  8
1
 62
     7
 10
76.782341009130107
 20
-284.60790680033051
 30
0.0
 40
51.000000000000043
 50
339.85936447667069
 51
348.89809016066289
  0
ARC
  5
258
  8
1
 62
     7
 10
102.28234100912999
 20
-332.10038381275371
 30
0.0
 40
2.0
 50
0.0
 51
90.0
  0
ARC
  5
259
  8
1
 62
     7
 10
110.28234100913011
 20
-332.10038381275371
 30
0.0
 40
2.0
 50
90.0
 51
180.0
  0
ARC
  5
25A
  8
1
 62
     7
 10
106.28234100912999
 20
-332.10038381275371
 30
0.0
 40
2.0
 50
0.0
 51
180.0
  0
ARC
  5
25B
  8
1
 62
     7
 10
-260.54655055101603
 20
-326.04351281262427
 30
0.0
 40
2.3507389315101501
 50
142.3012451533171
 51
217.6987548466827
  0
ARC
  5
25C
  8
1
 62
     7
 10
-254.2304553497022
 20
-321.73101281262427
 30
0.0
 40
8.6668341328239684
 50
160.6265294576767
 51
199.37347054232319
  0
ARC
  5
25D
  8
1
 62
     7
 10
-260.54655055101603
 20
-317.41851281262427
 30
0.0
 40
2.3507389315101501
 50
142.3012451533171
 51
217.6987548466827
  0
ARC
  5
25E
  8
1
 62
     7
 10
76.782341009130107
 20
-284.60790680033051
 30
0.0
 40
7.5000000000000524
 50
109.47122063449051
 51
70.528779365509564
  0
ARC
  5
25F
  8
1
 62
     7
 10
76.782341009130107
 20
-284.60790680033051
 30
0.0
 40
63.000000000000071
 50
314.96957576040262
 51
225.03042423959749
  0
ARC
  5
260
  8
1
 62
     7
 10
-260.54655055101603
 20
-23.880375322915089
 30
0.0
 40
2.3507389315101501
 50
142.3012451533171
 51
217.6987548466827
  0
ARC
  5
261
  8
1
 62
     7
 10
-260.54655055101603
 20
-15.255375322915089
 30
0.0
 40
2.3507389315101501
 50
142.3012451533171
 51
217.6987548466827
  0
ARC
  5
262
  8
1
 62
     7
 10
-254.2304553497022
 20
-19.567875322915079
 30
0.0
 40
8.6668341328239684
 50
160.6265294576767
 51
199.37347054232319
  0
ARC
  5
263
  8
1
 62
     7
 10
-254.2304553497022
 20
-19.567875322915079
 30
0.0
 40
8.6668341328239684
 50
160.6265294576767
 51
199.37347054232319
  0
ARC
  5
264
  8
1
 62
     7
 10
-260.54655055101603
 20
-98.126587347502635
 30
0.0
 40
2.3507389315101501
 50
142.3012451533171
 51
217.6987548466827
  0
ARC
  5
265
  8
1
 62
     7
 10
-260.54655055101603
 20
-89.501587347502664
 30
0.0
 40
2.3507389315101501
 50
142.3012451533171
 51
217.6987548466827
  0
ARC
  5
266
  8
1
 62
     7
 10
-254.2304553497022
 20
-93.814087347502635
 30
0.0
 40
8.6668341328239684
 50
160.6265294576767
 51
199.37347054232319
  0
ARC
  5
267
  8
1
 62
     7
 10
-254.2304553497022
 20
-93.814087347502635
 30
0.0
 40
8.6668341328239684
 50
160.6265294576767
 51
199.37347054232319
  0
ARC
  5
268
  8
1
 62
     7
 10
-163.831213476497
 20
-111.8682643572797
 30
0.0
 40
2.0
 50
0.0
 51
90.0
  0
ARC
  5
269
  8
1
 62
     7
 10
-237.8972894825263
 20
-111.8682643572798
 30
0.0
 40
2.0
 50
90.0
 51
180.0
  0
ARC
  5
26A
  8
1
 62
     7
 10
-239.3972894825263
 20
-149.84430246075189
 30
0.0
 40
2.0
 50
180.0
 51
270.0
  0
ARC
  5
26B
  8
1
 62
     7
 10
-162.3972894825263
 20
-149.84430246075169
 30
0.0
 40
2.0
 50
270.0
 51
0.0
  0
ARC
  5
26C
  8
1
 62
     7
 10
-242.8972894825263
 20
-117.690981335209
 30
0.0
 40
2.0
 50
180.0
 51
270.0
  0
ARC
  5
26D
  8
1
 62
     7
 10
-158.8972894825263
 20
-117.6909813352089
 30
0.0
 40
2.0
 50
270.0
 51
0.0
  0
ARC
  5
26E
  8
1
 62
     7
 10
-242.8972894825263
 20
-149.84430246075169
 30
0.0
 40
2.0
 50
180.0
 51
270.0
  0
ARC
  5
26F
  8
1
 62
     7
 10
-158.8972894825263
 20
-149.84430246075169
 30
0.0
 40
2.0
 50
270.0
 51
0.0
  0
ARC
  5
270
  8
1
 62
     7
 10
-239.8972894825263
 20
-248.20558958731539
 30
0.0
 40
5.0
 50
90.0
 51
180.0
  0
ARC
  5
271
  8
1
 62
     7
 10
-236.3972894825263
 20
-249.6664114441966
 30
0.0
 40
5.0
 50
90.0
 51
180.0
  0
ARC
  5
272
  8
1
 62
     7
 10
-161.8972894825263
 20
-248.20558958731539
 30
0.0
 40
5.0
 50
0.0
 51
90.0
  0
ARC
  5
273
  8
1
 62
     7
 10
-165.3972894825263
 20
-249.6664114441966
 30
0.0
 40
5.0
 50
0.0
 51
90.0
  0
ARC
  5
274
  8
1
 62
     7
 10
-165.3972894825263
 20
-300.66363581712312
 30
0.0
 40
5.0
 50
270.0
 51
0.0
  0
ARC
  5
275
  8
1
 62
     7
 10
-161.8972894825263
 20
-305.68984746788732
 30
0.0
 40
5.0
 50
270.0
 51
0.0
  0
ARC
  5
276
  8
1
 62
     7
 10
-236.3972894825263
 20
-300.66363581712312
 30
0.0
 40
5.0
 50
180.0
 51
270.0
  0
ARC
  5
277
  8
1
 62
     7
 10
-239.8972894825263
 20
-305.68984746788732
 30
0.0
 40
5.0
 50
180.0
 51
270.0
  0
ARC
  5
278
  8
1
 62
     7
 10
-257.28015183050837
 20
-279.36303857759691
 30
0.0
 40
1.0000000000000051
 50
275.43946420941478
 51
0.0
  0
ARC
  5
279
  8
1
 62
     7
 10
-257.28015183050837
 20
-289.85277502306411
 30
0.0
 40
1.0
 50
0.0
 51
84.192925072405018
  0
ARC
  5
27A
  8
1
 62
     7
 10
-144.51442713454389
 20
-279.36303857759691
 30
0.0
 40
1.0
 50
180.0
 51
264.26103992148228
  0
ARC
  5
27B
  8
1
 62
     7
 10
-303.39728948252611
 20
-56.690981335208903
 30
0.0
 40
2.5
 50
270.0
 51
90.0
  0
ARC
  5
27C
  8
1
 62
     7
 10
-98.39728948252629
 20
-56.690981335208903
 30
0.0
 40
2.5
 50
90.0
 51
270.0
  0
ARC
  5
27D
  8
1
 62
     7
 10
-153.90562325504891
 20
-121.6909813352089
 30
0.0
 40
3.0000000000000062
 50
184.27167705015299
 51
270.0
  0
ARC
  5
27E
  8
1
 62
     7
 10
-151.89728948252611
 20
1.309018664791151
 30
0.0
 40
5.0
 50
0.0
 51
90.0
  0
ARC
  5
27F
  8
1
 62
     7
 10
-151.89728948252611
 20
-114.690981335209
 30
0.0
 40
5.0
 50
270.0
 51
0.0
  0
ARC
  5
280
  8
1
 62
     7
 10
-249.89728948252611
 20
-114.690981335209
 30
0.0
 40
5.0
 50
180.0
 51
270.0
  0
ARC
  5
281
  8
1
 62
     7
 10
-249.89728948252611
 20
1.3090186647911271
 30
0.0
 40
5.0
 50
90.0
 51
180.0
  0
ARC
  5
282
  8
1
 62
     7
 10
-257.89728948252611
 20
-86.190981335208903
 30
0.0
 40
2.0
 50
180.0
 51
270.0
  0
ARC
  5
283
  8
1
 62
     7
 10
-257.89728948252611
 20
-27.190981335208921
 30
0.0
 40
2.0
 50
90.0
 51
180.0
  0
ARC
  5
284
  8
1
 62
     7
 10
-143.8972894825263
 20
-86.190981335208903
 30
0.0
 40
2.0
 50
270.0
 51
0.0
  0
ARC
  5
285
  8
1
 62
     7
 10
-143.8972894825263
 20
-27.190981335208889
 30
0.0
 40
2.0
 50
0.0
 51
90.0
  0
ARC
  5
286
  8
1
 62
     7
 10
-247.8972894825263
 20
8.30901866479104
 30
0.0
 40
3.0
 50
0.0
 51
90.0
  0
ARC
  5
287
  8
1
 62
     7
 10
-153.89728948252611
 20
8.3090186647910613
 30
0.0
 40
2.9999999999999978
 50
90.0
 51
180.0
  0
ARC
  5
288
  8
1
 62
     7
 10
-117.8972894825262
 20
6.3090186647910622
 30
0.0
 40
5.0
 50
0.0
 51
90.0
  0
ARC
  5
289
  8
1
 62
     7
 10
-283.89728948252628
 20
6.30901866479104
 30
0.0
 40
5.0
 50
90.0
 51
180.0
  0
ARC
  5
28A
  8
1
 62
     7
 10
-247.89728948252611
 20
-121.6909813352089
 30
0.0
 40
3.0
 50
270.0
 51
0.0
  0
ARC
  5
28B
  8
1
 62
     7
 10
-117.8972894825262
 20
-119.6909813352089
 30
0.0
 40
5.0
 50
270.0
 51
0.0
  0
ARC
  5
28C
  8
1
 62
     7
 10
-283.89728948252628
 20
-119.6909813352089
 30
0.0
 40
5.0
 50
180.0
 51
270.0
  0
ARC
  5
28D
  8
1
 62
     7
 10
-255.89728948252611
 20
-12.567875322915141
 30
0.0
 40
1.0
 50
270.0
 51
0.0
  0
ARC
  5
28E
  8
1
 62
     7
 10
-290.82658470798719
 20
-51.446113112475302
 30
0.0
 40
1.0
 50
180.0
 51
270.0
  0
ARC
  5
28F
  8
1
 62
     7
 10
-290.39728948252611
 20
-83.027626036692695
 30
0.0
 40
2.5
 50
180.0
 51
267.99502397286147
  0
ARC
  5
290
  8
1
 62
     7
 10
-290.39728948252611
 20
-30.354336633725101
 30
0.0
 40
2.4999999999999969
 50
92.004976027138483
 51
180.0
  0
ARC
  5
291
  8
1
 62
     7
 10
-255.89728948252611
 20
-100.81408734750271
 30
0.0
 40
1.0
 50
0.0
 51
90.0
  0
ARC
  5
292
  8
1
 62
     7
 10
-290.82658470798719
 20
-61.935849557942497
 30
0.0
 40
1.0
 50
90.0
 51
180.0
  0
ARC
  5
293
  8
1
 62
     7
 10
-145.88055122683201
 20
-12.567875322915141
 30
0.0
 40
1.0
 50
180.0
 51
270.0
  0
ARC
  5
294
  8
1
 62
     7
 10
-110.9679942570652
 20
-51.446113112475302
 30
0.0
 40
1.0
 50
270.0
 51
0.0
  0
ARC
  5
295
  8
1
 62
     7
 10
-111.3972894825262
 20
-83.027626036692695
 30
0.0
 40
2.4999999999999609
 50
272.00497602713841
 51
0.0
  0
ARC
  5
296
  8
1
 62
     7
 10
-111.3972894825262
 20
-30.354336633725101
 30
0.0
 40
2.5
 50
0.0
 51
87.995023972861517
  0
ARC
  5
297
  8
1
 62
     7
 10
-145.88055122683201
 20
-100.81408734750271
 30
0.0
 40
1.000000000000042
 50
90.0
 51
180.0
  0
ARC
  5
298
  8
1
 62
     7
 10
-110.9679942570652
 20
-61.935849557942497
 30
0.0
 40
1.0
 50
0.0
 51
90.0
  0
ARC
  5
299
  8
1
 62
     7
 10
-145.89728948252611
 20
-240.48480078803681
 30
0.0
 40
1.0
 50
180.0
 51
270.0
  0
ARC
  5
29A
  8
1
 62
     7
 10
-145.89728948252611
 20
-254.48480078803669
 30
0.0
 40
1.0
 50
90.0
 51
180.0
  0
ARC
  5
29B
  8
1
 62
     7
 10
-255.89728948252611
 20
-254.48480078803669
 30
0.0
 40
1.0
 50
0.0
 51
90.0
  0
ARC
  5
29C
  8
1
 62
     7
 10
-110.9679942570652
 20
-279.36303857759691
 30
0.0
 40
1.0
 50
270.0
 51
0.0
  0
ARC
  5
29D
  8
1
 62
     7
 10
-290.82658470798719
 20
-279.36303857759691
 30
0.0
 40
1.0
 50
180.0
 51
270.0
  0
ARC
  5
29E
  8
1
 62
     7
 10
-290.82658470798719
 20
-279.36303857759691
 30
0.0
 40
1.0
 50
180.0
 51
270.0
  0
ARC
  5
29F
  8
1
 62
     7
 10
-111.3972894825262
 20
-310.94455150181432
 30
0.0
 40
2.4999999999999578
 50
272.00497602713631
 51
0.0
  0
ARC
  5
2A0
  8
1
 62
     7
 10
-142.1711939407686
 20
-332.5820072963578
 30
0.0
 40
5.0000000000000711
 50
199.0526321587345
 51
267.99999999999989
  0
ARC
  5
2A1
  8
1
 62
     7
 10
-183.89728948252611
 20
-333.12670353352001
 30
0.0
 40
3.0
 50
180.0
 51
267.9999999999996
  0
ARC
  5
2A2
  8
1
 62
     7
 10
-114.89728948252611
 20
-340.53928434994458
 30
0.0
 40
2.0
 50
0.0
 51
87.999999999999886
  0
ARC
  5
2A3
  8
1
 62
     7
 10
-193.89728948252611
 20
-340.62255500833362
 30
0.0
 40
2.0
 50
180.0
 51
267.9999999999996
  0
ARC
  5
2A4
  8
1
 62
     7
 10
-143.89728948252619
 20
-223.60790680033051
 30
0.0
 40
2.0
 50
0.0
 51
90.0
  0
ARC
  5
2A5
  8
1
 62
     7
 10
-142.89728948252611
 20
-231.5726655625723
 30
0.0
 40
1.0
 50
270.0
 51
0.0
  0
ARC
  5
2A6
  8
1
 62
     7
 10
-111.3972894825262
 20
-258.27126209884671
 30
0.0
 40
2.5
 50
0.0
 51
87.995023972863763
  0
ARC
  5
2A7
  8
1
 62
     7
 10
72.782341009130107
 20
-295.80586577146317
 30
0.0
 40
2.0
 50
180.0
 51
270.0
  0
ARC
  5
2A8
  8
1
 62
     7
 10
80.782341009130107
 20
-295.80586577146317
 30
0.0
 40
2.0
 50
270.0
 51
0.0
  0
ARC
  5
2A9
  8
1
 62
     7
 10
41.988606402759054
 20
-256.17813322463832
 30
0.0
 40
3.0000000000000631
 50
45.000000000000782
 51
92.848000618879055
  0
ARC
  5
2AA
  8
1
 62
     7
 10
48.352567433437983
 20
-249.81417219395919
 30
0.0
 40
2.9999999999999978
 50
177.15199938112249
 51
225.00000000000071
  0
ARC
  5
2AB
  8
1
 62
     7
 10
50.250433172181808
 20
-264.43995999406098
 30
0.0
 40
3.0000000000000528
 50
322.76010590846471
 51
45.000000000000782
  0
ARC
  5
2AC
  8
1
 62
     7
 10
51.197793676570768
 20
-265.38732049844998
 30
0.0
 40
3.0000000000000151
 50
323.08401390709872
 51
45.000000000000782
  0
ARC
  5
2AD
  8
1
 62
     7
 10
56.614394202860773
 20
-258.07599896338218
 30
0.0
 40
2.9999999999999729
 50
224.99999999999929
 51
307.23989409153398
  0
ARC
  5
2AE
  8
1
 62
     7
 10
57.561754707249719
 20
-259.02335946777112
 30
0.0
 40
3.0000000000000031
 50
225.0000000000004
 51
306.91598609290071
  0
ARC
  5
2AF
  8
1
 62
     7
 10
41.988606402759054
 20
-256.17813322463832
 30
0.0
 40
3.0000000000000631
 50
45.000000000000782
 51
92.848000618879055
  0
ARC
  5
2B0
  8
1
 62
     7
 10
48.352567433437983
 20
-249.81417219395919
 30
0.0
 40
2.9999999999999978
 50
177.15199938112249
 51
225.00000000000071
  0
ARC
  5
2B1
  8
1
 62
     7
 10
67.430884206865159
 20
-232.43942727796599
 30
0.0
 40
2.000000000000008
 50
8.0000000000015685
 51
100.16261835389039
  0
ARC
  5
2B2
  8
1
 62
     7
 10
67.430884206865159
 20
-232.43942727796599
 30
0.0
 40
1.999999999999958
 50
280.16261835389162
 51
8.0000000000015685
  0
ARC
  5
2B3
  8
1
 62
     7
 10
52.033266462968257
 20
-237.74125224606851
 30
0.0
 40
1.999999999999958
 50
117.8373816461087
 51
209.9999999999992
  0
ARC
  5
2B4
  8
1
 62
     7
 10
52.033266462968257
 20
-237.74125224606851
 30
0.0
 40
2.0000000000000528
 50
209.9999999999992
 51
297.83738164611111
  0
ARC
  5
2B5
  8
1
 62
     7
 10
48.03078966734661
 20
-230.80875907993641
 30
0.0
 40
1.999999999999992
 50
210.0
 51
298.1211131218559
  0
ARC
  5
2B6
  8
1
 62
     7
 10
105.5338923509136
 20
-230.80875907993641
 30
0.0
 40
2.0000000000000151
 50
241.87888687814331
 51
330.00000000000011
  0
ARC
  5
2B7
  8
1
 62
     7
 10
101.5314155552919
 20
-237.74125224606851
 30
0.0
 40
1.999999999999988
 50
242.16261835388951
 51
330.00000000000011
  0
ARC
  5
2B8
  8
1
 62
     7
 10
101.5314155552919
 20
-237.74125224606851
 30
0.0
 40
2.0000000000000151
 50
330.00000000000011
 51
62.162618353890757
  0
ARC
  5
2B9
  8
1
 62
     7
 10
86.133797811395056
 20
-232.43942727796599
 30
0.0
 40
2.000000000000008
 50
171.99999999999841
 51
259.83738164610998
  0
ARC
  5
2BA
  8
1
 62
     7
 10
86.133797811395056
 20
-232.43942727796599
 30
0.0
 40
2.000000000000119
 50
79.837381646110501
 51
171.99999999999841
  0
ARC
  5
2BB
  8
1
 62
     7
 10
96.002927311010495
 20
-259.02335946777112
 30
0.0
 40
3.0000000000000209
 50
233.08401390709949
 51
314.99999999999972
  0
ARC
  5
2BC
  8
1
 62
     7
 10
96.950287815399463
 20
-258.07599896338218
 30
0.0
 40
2.9999999999999791
 50
232.76010590846559
 51
315.00000000000028
  0
ARC
  5
2BD
  8
1
 62
     7
 10
102.3668883416894
 20
-265.38732049844998
 30
0.0
 40
3.0000000000000231
 50
134.99999999999841
 51
216.91598609290151
  0
ARC
  5
2BE
  8
1
 62
     7
 10
103.3142488460784
 20
-264.43995999406098
 30
0.0
 40
3.0000000000000231
 50
134.99999999999841
 51
217.239894091536
  0
ARC
  5
2BF
  8
1
 62
     7
 10
105.2121145848222
 20
-249.81417219395919
 30
0.0
 40
3.0000000000000728
 50
315.00000000000011
 51
2.848000618877351
  0
ARC
  5
2C0
  8
1
 62
     7
 10
111.5760756155012
 20
-256.17813322463832
 30
0.0
 40
3.0000000000000311
 50
87.15199938112066
 51
134.9999999999998
  0
ARC
  5
2C1
  8
1
 62
     7
 10
10.7823410091301
 20
-340.60790680033051
 30
0.0
 40
2.0
 50
90.0
 51
180.0
  0
ARC
  5
2C2
  8
1
 62
     7
 10
43.2823410091301
 20
-336.60790680033051
 30
0.0
 40
2.0
 50
270.0
 51
0.0
  0
ARC
  5
2C3
  8
1
 62
     7
 10
47.2823410091301
 20
-340.60790680033051
 30
0.0
 40
2.0
 50
0.0
 51
90.0
  0
ARC
  5
2C4
  8
1
 62
     7
 10
31.782341009130111
 20
-337.60790680033051
 30
0.0
 40
1.0
 50
180.0
 51
270.0
  0
ARC
  5
2C5
  8
1
 62
     7
 10
11.7823410091301
 20
-337.60790680033051
 30
0.0
 40
1.0
 50
270.0
 51
0.0
  0
ARC
  5
2C6
  8
1
 62
     7
 10
31.824619029407899
 20
-336.70790680033048
 30
0.0
 40
1.9000000000000341
 50
270.0
 51
0.0
  0
ARC
  5
2C7
  8
1
 62
     7
 10
28.724619029407901
 20
-332.71669350421359
 30
0.0
 40
4.9999999999999947
 50
0.0
 51
45.030424239596627
  0
ARC
  5
2C8
  8
1
 62
     7
 10
51.282341009130107
 20
-344.3971198742621
 30
0.0
 40
2.000000000000115
 50
66.901832830036383
 51
180.0
  0
ARC
  5
2C9
  8
1
 62
     7
 10
57.561754707249719
 20
-310.19245413288979
 30
0.0
 40
2.999999999999976
 50
53.0840139070988
 51
135.0000000000004
  0
ARC
  5
2CA
  8
1
 62
     7
 10
56.614394202860737
 20
-311.13981463727879
 30
0.0
 40
2.9999999999999258
 50
52.760105908465157
 51
134.99999999999889
  0
ARC
  5
2CB
  8
1
 62
     7
 10
51.197793676570768
 20
-303.82849310221081
 30
0.0
 40
2.999999999999944
 50
315.00000000000148
 51
36.915986092900212
  0
ARC
  5
2CC
  8
1
 62
     7
 10
50.250433172181801
 20
-304.77585360659981
 30
0.0
 40
2.999999999999984
 50
315.00000000000068
 51
37.239894091534133
  0
ARC
  5
2CD
  8
1
 62
     7
 10
48.352567433437969
 20
-319.40164140670157
 30
0.0
 40
2.9999999999999232
 50
135.00000000000111
 51
182.84800061887739
  0
ARC
  5
2CE
  8
1
 62
     7
 10
41.988606402759039
 20
-313.03768037602259
 30
0.0
 40
3.0000000000001461
 50
267.15199938112079
 51
314.99999999999909
  0
ARC
  5
2CF
  8
1
 62
     7
 10
111.5760756155012
 20
-313.03768037602259
 30
0.0
 40
3.000000000000095
 50
225.0000000000002
 51
272.84800061887933
  0
ARC
  5
2D0
  8
1
 62
     7
 10
105.2121145848222
 20
-319.40164140670157
 30
0.0
 40
3.000000000000028
 50
357.15199938112261
 51
44.999999999997883
  0
ARC
  5
2D1
  8
1
 62
     7
 10
103.3142488460784
 20
-304.77585360659981
 30
0.0
 40
2.9999999999999409
 50
142.7601059084657
 51
225.0
  0
ARC
  5
2D2
  8
1
 62
     7
 10
102.3668883416894
 20
-303.82849310221081
 30
0.0
 40
2.9999999999999818
 50
143.0840139070981
 51
224.9999999999992
  0
ARC
  5
2D3
  8
1
 62
     7
 10
96.950287815399463
 20
-311.13981463727879
 30
0.0
 40
3.0000000000000431
 50
45.000000000001151
 51
127.2398940915354
  0
ARC
  5
2D4
  8
1
 62
     7
 10
96.002927311010495
 20
-310.19245413288979
 30
0.0
 40
2.9999999999999631
 50
44.999999999999609
 51
126.91598609290121
  0
ARC
  5
2D5
  8
1
 62
     7
 10
102.28234100912999
 20
-344.3971198742621
 30
0.0
 40
2.0
 50
0.0
 51
113.098167169964
  0
ARC
  5
2D6
  8
1
 62
     7
 10
124.8400629888523
 20
-332.71669350421359
 30
0.0
 40
4.9999999999999343
 50
134.96957576040251
 51
180.0
  0
ARC
  5
2D7
  8
1
 62
     7
 10
121.7400629888522
 20
-336.70790680033048
 30
0.0
 40
1.900000000000005
 50
180.0
 51
270.0
  0
ARC
  5
2D8
  8
1
 62
     7
 10
141.78234100913011
 20
-337.60790680033051
 30
0.0
 40
1.0
 50
180.0
 51
270.0
  0
ARC
  5
2D9
  8
1
 62
     7
 10
121.78234100913011
 20
-337.60790680033051
 30
0.0
 40
1.0
 50
270.0
 51
0.0
  0
ARC
  5
2DA
  8
1
 62
     7
 10
106.28234100912999
 20
-340.60790680033051
 30
0.0
 40
2.0
 50
90.0
 51
180.0
  0
ARC
  5
2DB
  8
1
 62
     7
 10
110.28234100913011
 20
-336.60790680033051
 30
0.0
 40
2.0
 50
180.0
 51
270.0
  0
ARC
  5
2DC
  8
1
 62
     7
 10
142.78234100913011
 20
-340.60790680033051
 30
0.0
 40
2.0
 50
0.0
 51
90.0
  0
ARC
  5
2DD
  8
1
 62
     7
 10
-145.89728948252611
 20
-328.73101281262427
 30
0.0
 40
1.0
 50
90.0
 51
180.0
  0
ARC
  5
2DE
  8
1
 62
     7
 10
-145.89728948252611
 20
-329.32915433473539
 30
0.0
 40
1.0
 50
180.0
 51
255.33848748957789
  0
ARC
  5
2DF
  8
1
 62
     7
 10
25.755456211132071
 20
-294.6207499436058
 30
0.0
 40
0.9999999999999968
 50
11.10190983934169
 51
100.0
  0
ARC
  5
2E0
  8
1
 62
     7
 10
27.962126223340221
 20
-302.5128398711168
 30
0.0
 40
1.0000000000000091
 50
293.99999999999972
 51
20.14063552332183
  0
ARC
  5
2E1
  8
1
 62
     7
 10
30.809282724870808
 20
-308.90765807461509
 30
0.0
 40
0.9999999999999795
 50
27.859364476667871
 51
113.9999999999996
  0
ARC
  5
2E2
  8
1
 62
     7
 10
34.659159361230799
 20
-315.0978652761645
 30
0.0
 40
0.9999999999999905
 50
306.99999999999937
 51
35.898090160668531
  0
ARC
  5
2E3
  8
1
 62
     7
 10
122.7553992933894
 20
-308.90765807461509
 30
0.0
 40
1.0000000000000111
 50
66.000000000000142
 51
152.14063552332649
  0
ARC
  5
2E4
  8
1
 62
     7
 10
118.90552265702939
 20
-315.0978652761645
 30
0.0
 40
0.9999999999999792
 50
144.10190983933589
 51
232.9999999999975
  0
ARC
  5
2E5
  8
1
 62
     7
 10
125.60255579491989
 20
-302.5128398711168
 30
0.0
 40
0.9999999999999378
 50
159.8593644766774
 51
246.00000000000091
  0
ARC
  5
2E6
  8
1
 62
     7
 10
127.8092258071282
 20
-294.6207499436058
 30
0.0
 40
0.9999999999999932
 50
80.000000000001407
 51
168.89809016066229
  0
ARC
  5
2E7
  8
1
 62
     7
 10
89.272516653375916
 20
-335.08558020527141
 30
0.0
 40
1.0000000000000171
 50
15.000000000004309
 51
103.8980901606654
  0
ARC
  5
2E8
  8
1
 62
     7
 10
82.309796216616647
 20
-336.31329567740232
 30
0.0
 40
1.0000000000000511
 50
96.101909839335789
 51
184.9999999999965
  0
ARC
  5
2E9
  8
1
 62
     7
 10
64.292165364884283
 20
-335.08558020527141
 30
0.0
 40
1.0000000000000651
 50
76.101909839341587
 51
164.99999999999559
  0
ARC
  5
2EA
  8
1
 62
     7
 10
71.254885801643539
 20
-336.31329567740232
 30
0.0
 40
1.0000000000000051
 50
355.00000000000352
 51
83.898090160663415
  0
ARC
  5
2EB
  8
1
 62
     7
 10
-145.89728948252611
 20
-314.73101281262427
 30
0.0
 40
1.0
 50
180.0
 51
270.0
  0
ARC
  5
2EC
  8
1
 62
     7
 10
-144.51442713454389
 20
-289.85277502306411
 30
0.0
 40
1.0000000000000671
 50
95.918160150785056
 51
180.0
  0
ARC
  5
2ED
  8
1
 62
     7
 10
-110.9679942570652
 20
-289.85277502306411
 30
0.0
 40
1.0
 50
0.0
 51
90.0
  0
ARC
  5
2EE
  8
1
 62
     7
 10
-149.89728948252611
 20
-292.54774199334707
 30
0.0
 40
3.0
 50
270.0
 51
0.0
  0
ARC
  5
2EF
  8
1
 62
     7
 10
-154.89728948252611
 20
-300.77326061875613
 30
0.0
 40
2.0
 50
270.0
 51
0.0
  0
ARC
  5
2F0
  8
1
 62
     7
 10
-149.89728948252611
 20
-304.92826829243359
 30
0.0
 40
3.0
 50
270.0
 51
0.0
  0
ARC
  5
2F1
  8
1
 62
     7
 10
-150.89728948252611
 20
-308.23231531410579
 30
0.0
 40
4.0
 50
270.0
 51
0.0
  0
ARC
  5
2F2
  8
1
 62
     7
 10
-154.89728948252611
 20
-313.10742538206563
 30
0.0
 40
2.0
 50
270.0
 51
0.0
  0
ARC
  5
2F3
  8
1
 62
     7
 10
-149.89728948252611
 20
-319.52225325890942
 30
0.0
 40
3.0
 50
270.0
 51
0.0
  0
ARC
  5
2F4
  8
1
 62
     7
 10
-184.89728948252611
 20
-320.52225325890942
 30
0.0
 40
2.0
 50
180.0
 51
270.0
  0
ARC
  5
2F5
  8
1
 62
     7
 10
-258.89728948252611
 20
-231.5726655625723
 30
0.0
 40
1.0
 50
180.0
 51
270.0
  0
ARC
  5
2F6
  8
1
 62
     7
 10
-257.89728948252628
 20
-223.60790680033051
 30
0.0
 40
2.0
 50
90.0
 51
180.0
  0
ARC
  5
2F7
  8
1
 62
     7
 10
-216.89728948252611
 20
-320.52225325890942
 30
0.0
 40
2.0
 50
270.0
 51
0.0
  0
ARC
  5
2F8
  8
1
 62
     7
 10
-251.89728948252611
 20
-319.52225325890942
 30
0.0
 40
3.0
 50
180.0
 51
270.0
  0
ARC
  5
2F9
  8
1
 62
     7
 10
-246.89728948252611
 20
-313.10742538206563
 30
0.0
 40
2.0
 50
180.0
 51
270.0
  0
ARC
  5
2FA
  8
1
 62
     7
 10
-250.89728948252611
 20
-308.23231531410579
 30
0.0
 40
4.0
 50
180.0
 51
270.0
  0
ARC
  5
2FB
  8
1
 62
     7
 10
-251.89728948252611
 20
-304.92826829243359
 30
0.0
 40
3.0
 50
180.0
 51
270.0
  0
ARC
  5
2FC
  8
1
 62
     7
 10
-246.89728948252611
 20
-300.77326061875613
 30
0.0
 40
2.0
 50
180.0
 51
270.0
  0
ARC
  5
2FD
  8
1
 62
     7
 10
-290.82658470798719
 20
-289.85277502306411
 30
0.0
 40
1.0
 50
90.0
 51
180.0
  0
ARC
  5
2FE
  8
1
 62
     7
 10
-255.89728948252611
 20
-314.73101281262427
 30
0.0
 40
1.0
 50
270.0
 51
0.0
  0
ARC
  5
2FF
  8
1
 62
     7
 10
-255.89728948252611
 20
-329.32915433473539
 30
0.0
 40
1.0000000000000171
 50
284.66151251041339
 51
0.0
  0
ARC
  5
300
  8
1
 62
     7
 10
-255.89728948252611
 20
-328.73101281262427
 30
0.0
 40
1.0
 50
0.0
 51
90.0
  0
ARC
  5
301
  8
1
 62
     7
 10
-207.89728948252611
 20
-340.62255500833362
 30
0.0
 40
1.999999999999976
 50
271.9999999999996
 51
0.0
  0
ARC
  5
302
  8
1
 62
     7
 10
-286.89728948252628
 20
-340.53928434994458
 30
0.0
 40
1.9999999999998599
 50
91.999999999997286
 51
180.0
  0
ARC
  5
303
  8
1
 62
     7
 10
-217.89728948252611
 20
-333.12670353352001
 30
0.0
 40
2.999999999999877
 50
271.99999999999761
 51
0.0
  0
ARC
  5
304
  8
1
 62
     7
 10
-259.61501589643672
 20
-332.59419644276852
 30
0.0
 40
4.9881181010446118
 50
272.1009593575485
 51
341.04832719881313
  0
ARC
  5
305
  8
1
 62
     7
 10
-290.39728948252611
 20
-310.94455150181432
 30
0.0
 40
2.5
 50
180.0
 51
267.99502397286147
  0
ARC
  5
306
  8
1
 62
     7
 10
-251.89728948252611
 20
-292.54774199334707
 30
0.0
 40
3.0
 50
180.0
 51
270.0
  0
ARC
  5
307
  8
1
 62
     7
 10
-290.82658470798719
 20
-289.85277502306411
 30
0.0
 40
1.0
 50
90.0
 51
180.0
  0
ARC
  5
308
  8
1
 62
     7
 10
-290.39728948252611
 20
-258.27126209884671
 30
0.0
 40
2.4999999999999609
 50
92.004976027138525
 51
180.0
  0
ARC
  5
309
  8
1
 62
     7
 10
-258.89728948252611
 20
-231.5726655625723
 30
0.0
 40
1.0
 50
180.0
 51
270.0
  0
ARC
  5
30A
  8
1
 62
     7
 10
-257.89728948252628
 20
-223.60790680033051
 30
0.0
 40
2.0
 50
90.0
 51
180.0
  0
ARC
  5
30B
  8
1
 62
     7
 10
-255.89728948252611
 20
-240.48480078803681
 30
0.0
 40
1.0
 50
270.0
 51
0.0
  0
ARC
  5
30C
  8
1
 62
     7
 10
76.782341009130107
 20
-284.60790680033051
 30
0.0
 40
62.999999999999979
 50
279.14056399428972
 51
293.09816716996482
  0
ARC
  5
30D
  8
1
 62
     7
 10
76.782341009130107
 20
-284.60790680033051
 30
0.0
 40
62.999999999999922
 50
246.90183283003509
 51
260.85943600571011
  0
CIRCLE
  5
30E
  8
1
 62
     7
 10
-200.8972894825263
 20
-305.66363581712312
 30
0.0
 40
3.5
  0
CIRCLE
  5
30F
  8
1
 62
     7
 10
-125.8972894825262
 20
-111.6909813352089
 30
0.0
 40
4.25
  0
CIRCLE
  5
310
  8
1
 62
     7
 10
-275.89728948252628
 20
-111.6909813352089
 30
0.0
 40
4.25
  0
CIRCLE
  5
311
  8
1
 62
     7
 10
-125.8972894825262
 20
-1.690981335208924
 30
0.0
 40
4.25
  0
CIRCLE
  5
312
  8
1
 62
     7
 10
-275.89728948252628
 20
-1.690981335208924
 30
0.0
 40
4.25
  0
CIRCLE
  5
313
  8
1
 62
     7
 10
39.659234996836361
 20
-247.48480078803669
 30
0.0
 40
5.0000000000000062
  0
CIRCLE
  5
314
  8
1
 62
     7
 10
72.782341009130107
 20
-296.10586577146319
 30
0.0
 40
1.0
  0
CIRCLE
  5
315
  8
1
 62
     7
 10
80.782341009130107
 20
-296.10586577146319
 30
0.0
 40
1.0
  0
CIRCLE
  5
316
  8
1
 62
     7
 10
76.782341009130107
 20
-284.60790680033051
 30
0.0
 40
10.0
  0
CIRCLE
  5
317
  8
1
 62
     7
 10
76.782341009130107
 20
-284.60790680033051
 30
0.0
 40
23.5
  0
CIRCLE
  5
318
  8
1
 62
     7
 10
76.782341009130107
 20
-284.60790680033051
 30
0.0
 40
10.0
  0
CIRCLE
  5
319
  8
1
 62
     7
 10
76.782341009130107
 20
-318.60790680033051
 30
0.0
 40
4.25
  0
CIRCLE
  5
31A
  8
1
 62
     7
 10
42.782341009130107
 20
-284.60790680033051
 30
0.0
 40
4.2500000000000364
  0
CIRCLE
  5
31B
  8
1
 62
     7
 10
76.782341009130107
 20
-250.60790680033051
 30
0.0
 40
4.25
  0
CIRCLE
  5
31C
  8
1
 62
     7
 10
110.78234100912999
 20
-284.60790680033051
 30
0.0
 40
4.25
  0
CIRCLE
  5
31D
  8
1
 62
     7
 10
39.659234996836361
 20
-247.48480078803669
 30
0.0
 40
6.0999999999999872
  0
CIRCLE
  5
31E
  8
1
 62
     7
 10
113.9054470214239
 20
-247.48480078803669
 30
0.0
 40
6.1000000000000076
  0
CIRCLE
  5
31F
  8
1
 62
     7
 10
113.9054470214239
 20
-247.48480078803669
 30
0.0
 40
5.0
  0
CIRCLE
  5
320
  8
1
 62
     7
 10
39.659234996836346
 20
-321.73101281262427
 30
0.0
 40
6.0999999999999943
  0
CIRCLE
  5
321
  8
1
 62
     7
 10
39.659234996836346
 20
-321.73101281262427
 30
0.0
 40
5.0
  0
CIRCLE
  5
322
  8
1
 62
     7
 10
113.9054470214239
 20
-321.73101281262427
 30
0.0
 40
5.0
  0
CIRCLE
  5
323
  8
1
 62
     7
 10
113.9054470214239
 20
-321.73101281262427
 30
0.0
 40
6.1000000000000076
  0
CIRCLE
  5
324
  8
1
 62
     7
 10
76.782341009130107
 20
-284.60790680033051
 30
0.0
 40
2.0
  0
CIRCLE
  5
325
  8
1
 62
     3
 10
76.782341009130107
 20
-284.60790680033051
 30
0.0
 40
2.5
  0
ARC
  5
326
  8
1
 62
     7
 10
-4.9424084435844984
 20
-311.01322898492617
 30
0.0
 40
0.5000000000000106
 50
263.32057279203929
 51
338.32057279205071
  0
ARC
  5
327
  8
1
 62
     7
 10
17.394294156190401
 20
-243.15068432632799
 30
0.0
 40
0.4999999999999691
 50
83.320572792051834
 51
158.32057279205659
  0
ARC
  5
328
  8
1
 62
     7
 10
21.828713563089
 20
-243.6699947430678
 30
0.0
 40
0.5000000000000016
 50
338.32057279203951
 51
83.320572792052644
  0
ARC
  5
329
  8
1
 62
     7
 10
-9.3768278504830942
 20
-310.49391856818642
 30
0.0
 40
0.5000000000000928
 50
158.3205727920506
 51
263.32057279203912
  0
ARC
  5
32A
  8
1
 62
     7
 10
-12.71999250398912
 20
-303.55798350328757
 30
0.0
 40
2.9999999999999551
 50
173.32057279204781
 51
263.32057279204889
  0
ARC
  5
32B
  8
1
 62
     7
 10
-9.2577432703990041
 20
-307.48736272118691
 30
0.0
 40
0.4999999999999872
 50
338.32057279204582
 51
83.320572792050726
  0
ARC
  5
32C
  8
1
 62
     7
 10
14.836266535607081
 20
-246.8784519035145
 30
0.0
 40
0.4999999999999825
 50
263.32057279203889
 51
338.32057279205202
  0
ARC
  5
32D
  8
1
 62
     7
 10
-4.8910543131655109
 20
-249.60237464930211
 30
0.0
 40
4.4999999999999973
 50
83.320572792046789
 51
173.32057279204719
  0
TEXT
  5
32E
  8
1
 62
     7
 10
66.815869580558683
 20
-330.21239941169603
 30
0.0
 40
4.5
  1
INPUT
 41
1.069199999999999
  7
SIMPLEX
 72
     1
 11
76.782341009130107
 21
-330.21239941169603
 31
0.0
  0
TEXT
  5
32F
  8
1
 62
     7
 10
64.446308015856118
 20
-49.504563718428287
 30
0.0
 40
7.0
  1
MSU 1.2
 41
0.9
  7
SIMPLEX
  0
ENDSEC
  0
EOF
