  0
SECTION
  2
HEADER
  9
$ACADVER
  1
AC1009
  9
$INSBASE
 10
0.0
 20
0.0
 30
0.0
  9
$EXTMIN
 10
-471.03902107659297
 20
-154.12821279451759
 30
0.0
  9
$EXTMAX
 10
510.7774204720738
 20
665.53432143406485
 30
0.0
  9
$LIMMIN
 10
-471.03902107659297
 20
-154.12821279451759
  9
$LIMMAX
 10
510.77742047207391
 20
664.91300109050519
  9
$ORTHOMODE
 70
     0
  9
$REGENMODE
 70
     1
  9
$FILLMODE
 70
     1
  9
$QTEXTMODE
 70
     0
  9
$MIRRTEXT
 70
     1
  9
$DRAGMODE
 70
     2
  9
$LTSCALE
 40
1.0
  9
$OSMODE
 70
    37
  9
$ATTMODE
 70
     1
  9
$TEXTSIZE
 40
3.5
  9
$TRACEWID
 40
0.5
  9
$TEXTSTYLE
  7
STANDARD
  9
$CLAYER
  8
0
  9
$CELTYPE
  6
BYLAYER
  9
$CECOLOR
 62
   256
  9
$DIMSCALE
 40
1.0
  9
$DIMASZ
 40
0.18
  9
$DIMEXO
 40
0.0625
  9
$DIMDLI
 40
0.38
  9
$DIMRND
 40
0.0
  9
$DIMDLE
 40
0.0
  9
$DIMEXE
 40
0.18
  9
$DIMTP
 40
0.0
  9
$DIMTM
 40
0.0
  9
$DIMTXT
 40
0.18
  9
$DIMCEN
 40
0.09
  9
$DIMTSZ
 40
0.0
  9
$DIMTOL
 70
     0
  9
$DIMLIM
 70
     0
  9
$DIMTIH
 70
     1
  9
$DIMTOH
 70
     1
  9
$DIMSE1
 70
     0
  9
$DIMSE2
 70
     0
  9
$DIMTAD
 70
     0
  9
$DIMZIN
 70
     0
  9
$DIMBLK
  1

  9
$DIMASO
 70
     1
  9
$DIMSHO
 70
     1
  9
$DIMPOST
  1

  9
$DIMAPOST
  1

  9
$DIMALT
 70
     0
  9
$DIMALTD
 70
     2
  9
$DIMALTF
 40
25.399999999999999
  9
$DIMLFAC
 40
1.0
  9
$DIMTOFL
 70
     0
  9
$DIMTVP
 40
0.0
  9
$DIMTIX
 70
     0
  9
$DIMSOXD
 70
     0
  9
$DIMSAH
 70
     0
  9
$DIMBLK1
  1

  9
$DIMBLK2
  1

  9
$DIMSTYLE
  2
STANDARD
  9
$DIMCLRD
 70
     0
  9
$DIMCLRE
 70
     0
  9
$DIMCLRT
 70
     0
  9
$DIMTFAC
 40
1.0
  9
$DIMGAP
 40
0.09
  9
$LUNITS
 70
     2
  9
$LUPREC
 70
     4
  9
$SKETCHINC
 40
0.1
  9
$FILLETRAD
 40
2.0
  9
$AUNITS
 70
     0
  9
$AUPREC
 70
     0
  9
$MENU
  1
ACAD
  9
$ELEVATION
 40
0.0
  9
$PELEVATION
 40
0.0
  9
$THICKNESS
 40
0.0
  9
$LIMCHECK
 70
     0
  9
$BLIPMODE
 70
     0
  9
$CHAMFERA
 40
0.0
  9
$CHAMFERB
 40
0.0
  9
$SKPOLY
 70
     0
  9
$TDCREATE
 40
2452094.8689040509
  9
$TDUPDATE
 40
2452094.8695372678
  9
$TDINDWG
 40
0.0006478009
  9
$TDUSRTIMER
 40
0.0006478009
  9
$USRTIMER
 70
     1
  9
$ANGBASE
 50
0.0
  9
$ANGDIR
 70
     0
  9
$PDMODE
 70
     0
  9
$PDSIZE
 40
0.0
  9
$PLINEWID
 40
0.0
  9
$COORDS
 70
     1
  9
$SPLFRAME
 70
     0
  9
$SPLINETYPE
 70
     6
  9
$SPLINESEGS
 70
     8
  9
$ATTDIA
 70
     0
  9
$ATTREQ
 70
     1
  9
$HANDLING
 70
 10241
  9
$HANDSEED
  5
33C
  9
$SURFTAB1
 70
     6
  9
$SURFTAB2
 70
     6
  9
$SURFTYPE
 70
     6
  9
$SURFU
 70
     6
  9
$SURFV
 70
     6
  9
$UCSNAME
  2

  9
$UCSORG
 10
0.0
 20
0.0
 30
0.0
  9
$UCSXDIR
 10
1.0
 20
0.0
 30
0.0
  9
$UCSYDIR
 10
0.0
 20
1.0
 30
0.0
  9
$PUCSNAME
  2

  9
$PUCSORG
 10
0.0
 20
0.0
 30
0.0
  9
$PUCSXDIR
 10
1.0
 20
0.0
 30
0.0
  9
$PUCSYDIR
 10
0.0
 20
1.0
 30
0.0
  9
$USERI1
 70
     0
  9
$USERI2
 70
     0
  9
$USERI3
 70
     0
  9
$USERI4
 70
     0
  9
$USERI5
 70
     0
  9
$USERR1
 40
0.0
  9
$USERR2
 40
0.0
  9
$USERR3
 40
0.0
  9
$USERR4
 40
0.0
  9
$USERR5
 40
0.0
  9
$WORLDVIEW
 70
     1
  9
$SHADEDGE
 70
     3
  9
$SHADEDIF
 70
    70
  9
$TILEMODE
 70
     1
  9
$MAXACTVP
 70
    64
  9
$PLIMCHECK
 70
     0
  9
$PEXTMIN
 10
1.0000000000000000E+020
 20
1.0000000000000000E+020
 30
1.0000000000000000E+020
  9
$PEXTMAX
 10
-1.0000000000000000E+020
 20
-1.0000000000000000E+020
 30
-1.0000000000000000E+020
  9
$PLIMMIN
 10
0.0
 20
0.0
  9
$PLIMMAX
 10
12.0
 20
9.0
  9
$UNITMODE
 70
     0
  9
$VISRETAIN
 70
     1
  9
$PLINEGEN
 70
     0
  9
$PSLTSCALE
 70
     1
  0
ENDSEC
  0
SECTION
  2
TABLES
  0
TABLE
  2
VPORT
 70
     2
  0
VPORT
  2
*ACTIVE
 70
     0
 10
0.0
 20
0.0
 11
1.0
 21
1.0
 12
376.71998102762802
 22
512.94455974903644
 13
0.0
 23
0.0
 14
1.0
 24
1.0
 15
0.0
 25
0.0
 16
0.0
 26
0.0
 36
1.0
 17
0.0
 27
0.0
 37
0.0
 40
9.0000004177422852
 41
2.4144144144144142
 42
50.0
 43
0.0
 44
0.0
 50
0.0
 51
0.0
 71
     0
 72
   100
 73
     1
 74
     1
 75
     0
 76
     0
 77
     0
 78
     0
  0
ENDTAB
  0
TABLE
  2
LTYPE
 70
     9
  0
LTYPE
  2
CONTINUOUS
 70
     0
  3
Solid line
 72
    65
 73
     0
 40
0.0
  0
LTYPE
  2
BORDER
 70
     0
  3
__ __ . __ __ .
 72
    65
 73
     6
 40
45.215230860793859
 49
12.918637388798251
 49
-6.4593186943991254
 49
12.918637388798251
 49
-6.4593186943991254
 49
0.0
 49
-6.4593186943991254
  0
LTYPE
  2
CENTER
 70
     0
  3
____ _ ____ _
 72
    65
 73
     4
 40
51.674549555193003
 49
32.296593471995621
 49
-6.4593186943991254
 49
6.4593186943991254
 49
-6.4593186943991254
  0
LTYPE
  2
DASHDOT
 70
     0
  3
__ . __ . __ .
 72
    65
 73
     4
 40
25.837274777596502
 49
12.918637388798251
 49
-6.4593186943991254
 49
0.0
 49
-6.4593186943991254
  0
LTYPE
  2
DASHED
 70
     0
  3
__ __ __ __ __
 72
    65
 73
     2
 40
19.377956083197379
 49
12.918637388798251
 49
-6.4593186943991254
  0
LTYPE
  2
DIVIDE
 70
     0
  3
__ . . __ . . 
 72
    65
 73
     6
 40
32.296593471995621
 49
12.918637388798251
 49
-6.4593186943991254
 49
0.0
 49
-6.4593186943991254
 49
0.0
 49
-6.4593186943991254
  0
LTYPE
  2
DOT
 70
     0
  3
..............
 72
    65
 73
     4
 40
12.918637388798251
 49
0.0
 49
-6.4593186943991254
 49
0.0
 49
-6.4593186943991254
  0
LTYPE
  2
HIDDEN
 70
     0
  3
_ _ _ _ _ _ _
 72
    65
 73
     2
 40
9.6889780415986877
 49
6.4593186943991254
 49
-3.2296593471995618
  0
LTYPE
  2
PHANTOM
 70
     0
  3
_____ _ _ _____ _ _ 
 72
    65
 73
     6
 40
64.593186943991242
 49
32.296593471995621
 49
-6.4593186943991254
 49
6.4593186943991254
 49
-6.4593186943991254
 49
6.4593186943991254
 49
-6.4593186943991254
  0
ENDTAB
  0
TABLE
  2
LAYER
 70
     2
  0
LAYER
  2
0
 70
     0
 62
     7
  6
CONTINUOUS
  0
LAYER
  2
1
 70
     0
 62
     7
  6
CONTINUOUS
  0
ENDTAB
  0
TABLE
  2
STYLE
 70
     4
  0
STYLE
  2
STANDARD
 70
     0
 40
0.0
 41
1.0
 50
0.0
 71
     0
 42
3.5
  3
txt
  4

  0
STYLE
  2
SIMPLEX
 70
     0
 40
0.0
 41
1.0
 50
0.0
 71
     0
 42
3.5
  3
simplex
  4

  0
STYLE
  2
COMPLEX
 70
     0
 40
0.0
 41
1.0
 50
0.0
 71
     0
 42
3.5
  3
complex
  4

  0
STYLE
  2
ITALIC
 70
     0
 40
0.0
 41
1.0
 50
0.0
 71
     0
 42
3.5
  3
italic
  4

  0
ENDTAB
  0
TABLE
  2
VIEW
 70
     0
  0
ENDTAB
  0
TABLE
  2
UCS
 70
     0
  0
ENDTAB
  0
TABLE
  2
APPID
 70
     1
  0
APPID
  2
ACAD
 70
     0
  0
ENDTAB
  0
TABLE
  2
DIMSTYLE
 70
     1
  0
DIMSTYLE
  2
STANDARD
 70
     0
  3

  4

  5

  6

  7

 40
1.0
 41
0.18
 42
0.0625
 43
0.38
 44
0.18
 45
0.0
 46
0.0
 47
0.0
 48
0.0
140
0.18
141
0.09
142
0.0
143
25.399999999999999
144
1.0
145
0.0
146
1.0
147
0.09
 71
     0
 72
     0
 73
     1
 74
     1
 75
     0
 76
     0
 77
     0
 78
     0
170
     0
171
     2
172
     0
173
     0
174
     0
175
     0
176
     0
177
     0
178
     0
  0
ENDTAB
  0
ENDSEC
  0
SECTION
  2
BLOCKS
  0
BLOCK
  8
0
  2
$MODEL_SPACE
 70
     0
 10
0.0
 20
0.0
 30
0.0
  3
$MODEL_SPACE
  1

  0
ENDBLK
  5
20
  8
0
  0
BLOCK
 67
     1
  8
0
  2
$PAPER_SPACE
 70
     0
 10
0.0
 20
0.0
 30
0.0
  3
$PAPER_SPACE
  1

  0
ENDBLK
  5
1C
 67
     1
  8
0
  0
ENDSEC
  0
SECTION
  2
ENTITIES
  0
LINE
  5
33
  8
1
 62
     7
 10
-233.7315210765928
 20
-30.156546709565699
 30
0.0
 11
-234.34652107659281
 21
-30.156546709565699
 31
0.0
  0
LINE
  5
34
  8
1
 62
     7
 10
-236.08902107659279
 20
-31.89904670956577
 30
0.0
 11
-236.08902107659279
 21
-32.514046709565761
 31
0.0
  0
LINE
  5
35
  8
1
 62
     7
 10
-234.34652107659281
 20
-34.256546709565711
 30
0.0
 11
-233.7315210765928
 21
-34.256546709565711
 31
0.0
  0
LINE
  5
36
  8
1
 62
     7
 10
-231.98902107659279
 20
-32.514046709565761
 30
0.0
 11
-231.98902107659279
 21
-31.89904670956577
 31
0.0
  0
LINE
  5
37
  8
1
 62
     7
 10
-242.73902107659279
 20
-32.206546709565778
 30
0.0
 11
-269.53902107659292
 21
-32.206546709565778
 31
0.0
  0
LINE
  5
38
  8
1
 62
     7
 10
-278.03902107659292
 20
-32.206546709565778
 30
0.0
 11
-278.03902107659292
 21
28.793453290434218
 31
0.0
  0
LINE
  5
39
  8
1
 62
     7
 10
-195.03902107659289
 20
-37.206546709565778
 30
0.0
 11
-273.03902107659292
 21
-37.206546709565778
 31
0.0
  0
LINE
  5
3A
  8
1
 62
     7
 10
-190.03902107659289
 20
28.793453290434218
 30
0.0
 11
-190.03902107659289
 21
-32.206546709565778
 31
0.0
  0
LINE
  5
3B
  8
1
 62
     7
 10
-273.03902107659292
 20
33.793453290434222
 30
0.0
 11
-195.03902107659289
 21
33.793453290434222
 31
0.0
  0
LINE
  5
3C
  8
1
 62
     7
 10
-274.53902107659292
 20
-27.206546709565782
 30
0.0
 11
-274.53902107659292
 21
24.293453290434211
 31
0.0
  0
LINE
  5
3D
  8
1
 62
     7
 10
-198.53902107659289
 20
-32.206546709565778
 30
0.0
 11
-225.33902107659301
 21
-32.206546709565778
 31
0.0
  0
LINE
  5
3E
  8
1
 62
     7
 10
-193.53902107659289
 20
24.293453290434211
 30
0.0
 11
-193.53902107659289
 21
-27.206546709565782
 31
0.0
  0
LINE
  5
3F
  8
1
 62
     7
 10
-269.53902107659292
 20
29.293453290434211
 30
0.0
 11
-198.53902107659289
 21
29.293453290434211
 31
0.0
  0
LINE
  5
40
  8
1
 62
     7
 10
-192.03902107659289
 20
342.32497152780542
 30
0.0
 11
-276.03902107659292
 21
342.32497152780542
 31
0.0
  0
LINE
  5
41
  8
1
 62
     7
 10
-190.03902107659289
 20
372.8391198165063
 30
0.0
 11
-190.03902107659289
 21
344.32497152780542
 31
0.0
  0
LINE
  5
42
  8
1
 62
     7
 10
-278.03902107659292
 20
372.8391198165063
 30
0.0
 11
-278.03902107659292
 21
344.32497152780542
 31
0.0
  0
LINE
  5
43
  8
1
 62
     7
 10
-274.53902107659292
 20
367.86245644707179
 30
0.0
 11
-274.53902107659292
 21
344.3249715278053
 31
0.0
  0
LINE
  5
44
  8
1
 62
     7
 10
-193.53902107659289
 20
367.86245644707179
 30
0.0
 11
-193.53902107659289
 21
344.32497152780542
 31
0.0
  0
LINE
  5
45
  8
1
 62
     7
 10
-190.03902107659289
 20
372.8391198165063
 30
0.0
 11
-278.03902107659292
 21
372.8391198165063
 31
0.0
  0
LINE
  5
46
  8
1
 62
     7
 10
-192.03902107659289
 20
367.86245644707179
 30
0.0
 11
-276.03902107659292
 21
367.86245644707179
 31
0.0
  0
LINE
  5
47
  8
1
 62
     7
 10
-273.03902107659292
 20
376.90199758964383
 30
0.0
 11
-273.03902107659292
 21
372.8391198165063
 31
0.0
  0
LINE
  5
48
  8
1
 62
     7
 10
-195.03902107659289
 20
376.901997589644
 30
0.0
 11
-195.03902107659289
 21
372.8391198165063
 31
0.0
  0
LINE
  5
49
  8
1
 62
     7
 10
-197.03902107659289
 20
378.901997589644
 30
0.0
 11
-271.03902107659292
 21
378.90199758964383
 31
0.0
  0
LINE
  5
4A
  8
1
 62
     7
 10
-339.53902107659297
 20
-76.830741456554406
 30
0.0
 11
-339.53902107659297
 21
-79.188000000000002
 31
0.0
  0
LINE
  5
4B
  8
1
 62
     7
 10
-339.53902107659297
 20
79.188000000000002
 30
0.0
 11
-339.53902107659297
 21
76.830741456554392
 31
0.0
  0
LINE
  5
4C
  8
1
 62
     7
 10
-339.53902107659297
 20
443.08225963395063
 30
0.0
 11
-339.53902107659297
 21
440.72500109050509
 31
0.0
  0
LINE
  5
4D
  8
1
 62
     7
 10
-339.53902107659297
 20
599.10100109050495
 30
0.0
 11
-339.53902107659297
 21
596.74374254705947
 31
0.0
  0
LINE
  5
4E
  8
1
 62
     7
 10
-128.53902107659289
 20
-76.830741456554392
 30
0.0
 11
-128.53902107659289
 21
-78.588000000000022
 31
0.0
  0
LINE
  5
4F
  8
1
 62
     7
 10
-128.53902107659289
 20
78.588000000000022
 30
0.0
 11
-128.53902107659289
 21
76.830741456554392
 31
0.0
  0
LINE
  5
50
  8
1
 62
     7
 10
-128.53902107659289
 20
443.08225963395063
 30
0.0
 11
-128.53902107659289
 21
441.32500109050488
 31
0.0
  0
LINE
  5
51
  8
1
 62
     7
 10
-128.53902107659289
 20
598.50100109050504
 30
0.0
 11
-128.53902107659289
 21
596.74374254705947
 31
0.0
  0
LINE
  5
52
  8
1
 62
     7
 10
-384.83902107659299
 20
497.41300109050508
 30
0.0
 11
-389.03902107659297
 21
497.41300109050508
 31
0.0
  0
LINE
  5
53
  8
1
 62
     7
 10
-384.83902107659299
 20
492.81759340545642
 30
0.0
 11
-384.83902107659299
 21
545.96300109050503
 31
0.0
  0
LINE
  5
54
  8
1
 62
     7
 10
-383.03902107659297
 20
492.81759340545642
 30
0.0
 11
-384.83902107659299
 21
492.81759340545642
 31
0.0
  0
LINE
  5
55
  8
1
 62
     7
 10
-384.83902107659299
 20
545.96300109050503
 30
0.0
 11
-383.03902107659297
 21
545.96300109050503
 31
0.0
  0
LINE
  5
56
  8
1
 62
     7
 10
-83.239021076592906
 20
542.41300109050508
 30
0.0
 11
-79.03902107659286
 21
542.41300109050508
 31
0.0
  0
LINE
  5
57
  8
1
 62
     7
 10
-83.239021076592906
 20
492.81759340545642
 30
0.0
 11
-83.239021076592906
 21
545.96300109050503
 31
0.0
  0
LINE
  5
58
  8
1
 62
     7
 10
-85.03902107659286
 20
492.81759340545642
 30
0.0
 11
-83.239021076592906
 21
492.81759340545642
 31
0.0
  0
LINE
  5
59
  8
1
 62
     7
 10
-83.239021076592906
 20
545.96300109050503
 30
0.0
 11
-85.03902107659286
 21
545.96300109050503
 31
0.0
  0
LINE
  5
5A
  8
1
 62
     7
 10
-384.83902107659299
 20
-22.5
 30
0.0
 11
-389.03902107659297
 21
-22.5
 31
0.0
  0
LINE
  5
5B
  8
1
 62
     7
 10
-384.83902107659299
 20
-27.09540768504862
 30
0.0
 11
-384.83902107659299
 21
26.049999999999979
 31
0.0
  0
LINE
  5
5C
  8
1
 62
     7
 10
-383.03902107659297
 20
-27.09540768504862
 30
0.0
 11
-384.83902107659299
 21
-27.09540768504862
 31
0.0
  0
LINE
  5
5D
  8
1
 62
     7
 10
-384.83902107659299
 20
26.049999999999979
 30
0.0
 11
-383.03902107659297
 21
26.049999999999979
 31
0.0
  0
LINE
  5
5E
  8
1
 62
     7
 10
-83.239021076592906
 20
22.5
 30
0.0
 11
-79.03902107659286
 21
22.5
 31
0.0
  0
LINE
  5
5F
  8
1
 62
     7
 10
-83.239021076592906
 20
-27.09540768504862
 30
0.0
 11
-83.239021076592906
 21
26.049999999999979
 31
0.0
  0
LINE
  5
60
  8
1
 62
     7
 10
-85.03902107659286
 20
-27.09540768504862
 30
0.0
 11
-83.239021076592906
 21
-27.09540768504862
 31
0.0
  0
LINE
  5
61
  8
1
 62
     7
 10
-83.239021076592906
 20
26.049999999999979
 30
0.0
 11
-85.03902107659286
 21
26.049999999999979
 31
0.0
  0
LINE
  5
62
  8
1
 62
     7
 10
-349.53902107659297
 20
-93.387999999999977
 30
0.0
 11
-348.03902107659297
 21
-93.387999999999977
 31
0.0
  0
LINE
  5
63
  8
1
 62
     3
 10
-348.03902107659297
 20
-84.387999999999977
 30
0.0
 11
-350.53902107659297
 21
-84.387999999999948
 31
0.0
  0
LINE
  5
64
  8
1
 62
     3
 10
-348.03902107659297
 20
-92.387999999999977
 30
0.0
 11
-350.53902107659297
 21
-92.387999999999948
 31
0.0
  0
LINE
  5
65
  8
1
 62
     7
 10
-349.53902107659297
 20
-83.387999999999948
 30
0.0
 11
-349.53902107659297
 21
-93.387999999999977
 31
0.0
  0
LINE
  5
66
  8
1
 62
     7
 10
-348.03902107659297
 20
-83.387999999999977
 30
0.0
 11
-349.53902107659297
 21
-83.387999999999948
 31
0.0
  0
LINE
  5
67
  8
1
 62
     7
 10
-349.53902107659297
 20
-83.387999999999948
 30
0.0
 11
-350.53902107659297
 21
-84.387999999999948
 31
0.0
  0
LINE
  5
68
  8
1
 62
     7
 10
-350.53902107659297
 20
-84.387999999999948
 30
0.0
 11
-350.53902107659297
 21
-92.387999999999948
 31
0.0
  0
LINE
  5
69
  8
1
 62
     7
 10
-350.53902107659297
 20
-92.387999999999948
 30
0.0
 11
-349.53902107659297
 21
-93.387999999999977
 31
0.0
  0
LINE
  5
6A
  8
1
 62
     7
 10
-340.03902107659297
 20
-98.187999999999988
 30
0.0
 11
-340.03902107659297
 21
-78.588000000000022
 31
0.0
  0
LINE
  5
6B
  8
1
 62
     7
 10
-340.03902107659297
 20
-98.187999999999988
 30
0.0
 11
-347.14412815934912
 21
-98.187999999999988
 31
0.0
  0
LINE
  5
6C
  8
1
 62
     7
 10
-340.03902107659297
 20
-93.287999999999997
 30
0.0
 11
-347.14412815934912
 21
-93.287999999999997
 31
0.0
  0
LINE
  5
6D
  8
1
 62
     7
 10
-340.03902107659297
 20
-83.488
 30
0.0
 11
-347.14412815934912
 21
-83.488
 31
0.0
  0
LINE
  5
6E
  8
1
 62
     7
 10
-340.03902107659297
 20
-78.588000000000022
 30
0.0
 11
-347.14412815934912
 21
-78.588000000000022
 31
0.0
  0
LINE
  5
6F
  8
1
 62
     7
 10
-348.03902107659297
 20
-95.738
 30
0.0
 11
-348.03902107659297
 21
-81.038000000000025
 31
0.0
  0
LINE
  5
70
  8
1
 62
     7
 10
-337.53902107659297
 20
-97.587999999999994
 30
0.0
 11
-340.03902107659297
 21
-97.587999999999994
 31
0.0
  0
LINE
  5
71
  8
1
 62
     7
 10
-340.03902107659297
 20
-79.188000000000002
 30
0.0
 11
-337.53902107659297
 21
-79.188000000000002
 31
0.0
  0
LINE
  5
72
  8
1
 62
     7
 10
-340.03902107659297
 20
-88.388000000000019
 30
0.0
 11
-337.53902107659297
 21
-90.888000000000005
 31
0.0
  0
LINE
  5
73
  8
1
 62
     7
 10
-340.03902107659297
 20
-85.888000000000019
 30
0.0
 11
-337.53902107659297
 21
-88.388000000000034
 31
0.0
  0
LINE
  5
74
  8
1
 62
     7
 10
-347.53902107659297
 20
-79.153537297918746
 30
0.0
 11
-347.53902107659297
 21
-77.366025403784462
 31
0.0
  0
LINE
  5
75
  8
1
 62
     7
 10
-347.53902107659297
 20
-77.366025403784462
 30
0.0
 11
-347.03902107659297
 21
-76.5
 31
0.0
  0
LINE
  5
76
  8
1
 62
     7
 10
-347.03902107659297
 20
-76.5
 30
0.0
 11
-339.94812514554582
 21
-76.5
 31
0.0
  0
LINE
  5
77
  8
1
 62
     7
 10
-347.03902107659297
 20
-78.588000000000022
 30
0.0
 11
-347.03902107659297
 21
-76.5
 31
0.0
  0
LINE
  5
78
  8
1
 62
     7
 10
-348.03902107659297
 20
93.388000000000019
 30
0.0
 11
-349.53902107659297
 21
93.387999999999906
 31
0.0
  0
LINE
  5
79
  8
1
 62
     3
 10
-350.53902107659297
 20
84.387999999999948
 30
0.0
 11
-348.03902107659297
 21
84.387999999999977
 31
0.0
  0
LINE
  5
7A
  8
1
 62
     3
 10
-350.53902107659297
 20
92.38799999999992
 30
0.0
 11
-348.03902107659297
 21
92.388000000000034
 31
0.0
  0
LINE
  5
7B
  8
1
 62
     7
 10
-349.53902107659297
 20
93.387999999999906
 30
0.0
 11
-349.53902107659297
 21
83.387999999999948
 31
0.0
  0
LINE
  5
7C
  8
1
 62
     7
 10
-349.53902107659297
 20
83.387999999999948
 30
0.0
 11
-348.03902107659297
 21
83.387999999999977
 31
0.0
  0
LINE
  5
7D
  8
1
 62
     7
 10
-350.53902107659297
 20
84.387999999999948
 30
0.0
 11
-349.53902107659297
 21
83.387999999999948
 31
0.0
  0
LINE
  5
7E
  8
1
 62
     7
 10
-350.53902107659297
 20
92.38799999999992
 30
0.0
 11
-350.53902107659297
 21
84.387999999999948
 31
0.0
  0
LINE
  5
7F
  8
1
 62
     7
 10
-349.53902107659297
 20
93.387999999999906
 30
0.0
 11
-350.53902107659297
 21
92.38799999999992
 31
0.0
  0
LINE
  5
80
  8
1
 62
     7
 10
-340.03902107659297
 20
78.588000000000022
 30
0.0
 11
-340.03902107659297
 21
98.188000000000031
 31
0.0
  0
LINE
  5
81
  8
1
 62
     7
 10
-347.14412815934912
 20
98.188000000000031
 30
0.0
 11
-340.03902107659297
 21
98.188000000000031
 31
0.0
  0
LINE
  5
82
  8
1
 62
     7
 10
-347.14412815934912
 20
93.288000000000039
 30
0.0
 11
-340.03902107659297
 21
93.288000000000039
 31
0.0
  0
LINE
  5
83
  8
1
 62
     7
 10
-347.14412815934912
 20
83.488
 30
0.0
 11
-340.03902107659297
 21
83.488
 31
0.0
  0
LINE
  5
84
  8
1
 62
     7
 10
-347.14412815934912
 20
78.588000000000022
 30
0.0
 11
-340.03902107659297
 21
78.588000000000022
 31
0.0
  0
LINE
  5
85
  8
1
 62
     7
 10
-348.03902107659297
 20
81.038000000000025
 30
0.0
 11
-348.03902107659297
 21
95.738000000000028
 31
0.0
  0
LINE
  5
86
  8
1
 62
     7
 10
-340.03902107659297
 20
97.588000000000022
 30
0.0
 11
-337.53902107659297
 21
97.588000000000022
 31
0.0
  0
LINE
  5
87
  8
1
 62
     7
 10
-337.53902107659297
 20
79.188000000000002
 30
0.0
 11
-340.03902107659297
 21
79.188000000000002
 31
0.0
  0
LINE
  5
88
  8
1
 62
     7
 10
-337.53902107659297
 20
90.888000000000019
 30
0.0
 11
-340.03902107659297
 21
88.388000000000019
 31
0.0
  0
LINE
  5
89
  8
1
 62
     7
 10
-337.53902107659297
 20
88.388000000000019
 30
0.0
 11
-340.03902107659297
 21
85.888000000000019
 31
0.0
  0
LINE
  5
8A
  8
1
 62
     7
 10
-349.53902107659297
 20
426.52500109050499
 30
0.0
 11
-348.03902107659297
 21
426.52500109050499
 31
0.0
  0
LINE
  5
8B
  8
1
 62
     3
 10
-348.03902107659297
 20
435.52500109050499
 30
0.0
 11
-350.53902107659297
 21
435.52500109050499
 31
0.0
  0
LINE
  5
8C
  8
1
 62
     3
 10
-348.03902107659297
 20
427.52500109050487
 30
0.0
 11
-350.53902107659297
 21
427.52500109050487
 31
0.0
  0
LINE
  5
8D
  8
1
 62
     7
 10
-349.53902107659297
 20
436.52500109050487
 30
0.0
 11
-349.53902107659297
 21
426.52500109050499
 31
0.0
  0
LINE
  5
8E
  8
1
 62
     7
 10
-348.03902107659297
 20
436.52500109050487
 30
0.0
 11
-349.53902107659297
 21
436.52500109050487
 31
0.0
  0
LINE
  5
8F
  8
1
 62
     7
 10
-349.53902107659297
 20
436.52500109050487
 30
0.0
 11
-350.53902107659297
 21
435.52500109050499
 31
0.0
  0
LINE
  5
90
  8
1
 62
     7
 10
-350.53902107659297
 20
435.52500109050499
 30
0.0
 11
-350.53902107659297
 21
427.52500109050487
 31
0.0
  0
LINE
  5
91
  8
1
 62
     7
 10
-350.53902107659297
 20
427.52500109050487
 30
0.0
 11
-349.53902107659297
 21
426.52500109050499
 31
0.0
  0
LINE
  5
92
  8
1
 62
     7
 10
-340.03902107659297
 20
421.72500109050509
 30
0.0
 11
-340.03902107659297
 21
441.32500109050488
 31
0.0
  0
LINE
  5
93
  8
1
 62
     7
 10
-340.03902107659297
 20
421.72500109050509
 30
0.0
 11
-347.14412815934912
 21
421.72500109050509
 31
0.0
  0
LINE
  5
94
  8
1
 62
     7
 10
-340.03902107659297
 20
426.62500109050501
 30
0.0
 11
-347.14412815934912
 21
426.62500109050501
 31
0.0
  0
LINE
  5
95
  8
1
 62
     7
 10
-340.03902107659297
 20
436.42500109050491
 30
0.0
 11
-347.14412815934912
 21
436.42500109050491
 31
0.0
  0
LINE
  5
96
  8
1
 62
     7
 10
-340.03902107659297
 20
441.32500109050488
 30
0.0
 11
-347.14412815934912
 21
441.32500109050488
 31
0.0
  0
LINE
  5
97
  8
1
 62
     7
 10
-348.03902107659297
 20
424.17500109050491
 30
0.0
 11
-348.03902107659297
 21
438.87500109050501
 31
0.0
  0
LINE
  5
98
  8
1
 62
     7
 10
-337.53902107659297
 20
422.325001090505
 30
0.0
 11
-340.03902107659297
 21
422.325001090505
 31
0.0
  0
LINE
  5
99
  8
1
 62
     7
 10
-340.03902107659297
 20
440.72500109050509
 30
0.0
 11
-337.53902107659297
 21
440.72500109050509
 31
0.0
  0
LINE
  5
9A
  8
1
 62
     7
 10
-340.03902107659297
 20
431.52500109050499
 30
0.0
 11
-337.53902107659297
 21
429.02500109050487
 31
0.0
  0
LINE
  5
9B
  8
1
 62
     7
 10
-340.03902107659297
 20
434.02500109050499
 30
0.0
 11
-337.53902107659297
 21
431.52500109050499
 31
0.0
  0
LINE
  5
9C
  8
1
 62
     7
 10
-347.53902107659297
 20
440.75946379258608
 30
0.0
 11
-347.53902107659297
 21
442.5469756867206
 31
0.0
  0
LINE
  5
9D
  8
1
 62
     7
 10
-347.53902107659297
 20
442.5469756867206
 30
0.0
 11
-347.03902107659297
 21
443.41300109050508
 31
0.0
  0
LINE
  5
9E
  8
1
 62
     7
 10
-347.03902107659297
 20
443.41300109050508
 30
0.0
 11
-339.94812514554582
 21
443.41300109050479
 31
0.0
  0
LINE
  5
9F
  8
1
 62
     7
 10
-347.03902107659297
 20
441.32500109050488
 30
0.0
 11
-347.03902107659297
 21
443.41300109050508
 31
0.0
  0
LINE
  5
A0
  8
1
 62
     7
 10
-348.03902107659297
 20
613.30100109050488
 30
0.0
 11
-349.53902107659297
 21
613.30100109050488
 31
0.0
  0
LINE
  5
A1
  8
1
 62
     3
 10
-350.53902107659297
 20
604.30100109050488
 30
0.0
 11
-348.03902107659297
 21
604.30100109050488
 31
0.0
  0
LINE
  5
A2
  8
1
 62
     3
 10
-350.53902107659297
 20
612.301001090505
 30
0.0
 11
-348.03902107659297
 21
612.301001090505
 31
0.0
  0
LINE
  5
A3
  8
1
 62
     7
 10
-349.53902107659297
 20
613.30100109050488
 30
0.0
 11
-349.53902107659297
 21
603.301001090505
 31
0.0
  0
LINE
  5
A4
  8
1
 62
     7
 10
-349.53902107659297
 20
603.301001090505
 30
0.0
 11
-348.03902107659297
 21
603.301001090505
 31
0.0
  0
LINE
  5
A5
  8
1
 62
     7
 10
-350.53902107659297
 20
604.30100109050488
 30
0.0
 11
-349.53902107659297
 21
603.301001090505
 31
0.0
  0
LINE
  5
A6
  8
1
 62
     7
 10
-350.53902107659297
 20
612.301001090505
 30
0.0
 11
-350.53902107659297
 21
604.30100109050488
 31
0.0
  0
LINE
  5
A7
  8
1
 62
     7
 10
-349.53902107659297
 20
613.30100109050488
 30
0.0
 11
-350.53902107659297
 21
612.301001090505
 31
0.0
  0
LINE
  5
A8
  8
1
 62
     7
 10
-340.03902107659297
 20
598.50100109050504
 30
0.0
 11
-340.03902107659297
 21
618.10100109050495
 31
0.0
  0
LINE
  5
A9
  8
1
 62
     7
 10
-347.14412815934912
 20
618.10100109050495
 30
0.0
 11
-340.03902107659297
 21
618.10100109050495
 31
0.0
  0
LINE
  5
AA
  8
1
 62
     7
 10
-347.14412815934912
 20
613.20100109050486
 30
0.0
 11
-340.03902107659297
 21
613.20100109050486
 31
0.0
  0
LINE
  5
AB
  8
1
 62
     7
 10
-347.14412815934912
 20
603.40100109050502
 30
0.0
 11
-340.03902107659297
 21
603.40100109050502
 31
0.0
  0
LINE
  5
AC
  8
1
 62
     7
 10
-347.14412815934912
 20
598.50100109050504
 30
0.0
 11
-340.03902107659297
 21
598.50100109050504
 31
0.0
  0
LINE
  5
AD
  8
1
 62
     7
 10
-348.03902107659297
 20
600.95100109050486
 30
0.0
 11
-348.03902107659297
 21
615.65100109050502
 31
0.0
  0
LINE
  5
AE
  8
1
 62
     7
 10
-340.03902107659297
 20
617.50100109050504
 30
0.0
 11
-337.53902107659297
 21
617.50100109050504
 31
0.0
  0
LINE
  5
AF
  8
1
 62
     7
 10
-337.53902107659297
 20
599.10100109050495
 30
0.0
 11
-340.03902107659297
 21
599.10100109050495
 31
0.0
  0
LINE
  5
B0
  8
1
 62
     7
 10
-337.53902107659297
 20
610.801001090505
 30
0.0
 11
-340.03902107659297
 21
608.301001090505
 31
0.0
  0
LINE
  5
B1
  8
1
 62
     7
 10
-337.53902107659297
 20
608.301001090505
 30
0.0
 11
-340.03902107659297
 21
605.801001090505
 31
0.0
  0
LINE
  5
B2
  8
1
 62
     7
 10
-374.03902107659269
 20
444.91300109050479
 30
0.0
 11
-342.35782877348669
 21
444.91300109050479
 31
0.0
  0
LINE
  5
B3
  8
1
 62
     7
 10
-384.0390210765928
 20
389.91300109050479
 30
0.0
 11
-384.0390210765928
 21
434.91300109050491
 31
0.0
  0
LINE
  5
B4
  8
1
 62
     7
 10
-337.5390210765928
 20
379.91300109050479
 30
0.0
 11
-374.03902107659269
 21
379.91300109050479
 31
0.0
  0
LINE
  5
B5
  8
1
  6
DASHDOT
 62
     3
 10
-364.0390210765928
 20
383.14733237229592
 30
0.0
 11
-364.0390210765928
 21
416.67866980871361
 31
0.0
  0
LINE
  5
B6
  8
1
  6
DASHDOT
 62
     3
 10
-380.80468979480167
 20
399.91300109050479
 30
0.0
 11
-347.27335235838382
 21
399.91300109050479
 31
0.0
  0
LINE
  5
B7
  8
1
  6
DASHDOT
 62
     3
 10
-364.0390210765928
 20
623.1473323722962
 30
0.0
 11
-364.0390210765928
 21
656.67866980871395
 31
0.0
  0
LINE
  5
B8
  8
1
  6
DASHDOT
 62
     3
 10
-347.27335235838382
 20
639.91300109050519
 30
0.0
 11
-380.80468979480167
 21
639.91300109050519
 31
0.0
  0
LINE
  5
B9
  8
1
 62
     7
 10
-341.803520322861
 20
594.91300109050519
 30
0.0
 11
-374.03902107659269
 21
594.91300109050519
 31
0.0
  0
LINE
  5
BA
  8
1
 62
     7
 10
-384.0390210765928
 20
604.91300109050508
 30
0.0
 11
-384.0390210765928
 21
649.91300109050519
 31
0.0
  0
LINE
  5
BB
  8
1
 62
     7
 10
-374.03902107659269
 20
659.91300109050508
 30
0.0
 11
-337.5390210765928
 21
659.91300109050508
 31
0.0
  0
LINE
  5
BC
  8
1
  6
DASHDOT
 62
     3
 10
-104.0390210765929
 20
416.67866980871361
 30
0.0
 11
-104.0390210765929
 21
383.14733237229592
 31
0.0
  0
LINE
  5
BD
  8
1
  6
DASHDOT
 62
     3
 10
-120.8046897948017
 20
399.91300109050479
 30
0.0
 11
-87.273352358383974
 21
399.91300109050479
 31
0.0
  0
LINE
  5
BE
  8
1
 62
     7
 10
-125.72021337969881
 20
444.91300109050479
 30
0.0
 11
-94.03902107659286
 21
444.91300109050479
 31
0.0
  0
LINE
  5
BF
  8
1
 62
     7
 10
-84.03902107659286
 20
434.91300109050491
 30
0.0
 11
-84.03902107659286
 21
389.91300109050479
 31
0.0
  0
LINE
  5
C0
  8
1
 62
     7
 10
-94.03902107659286
 20
379.91300109050479
 30
0.0
 11
-130.53902107659289
 21
379.91300109050479
 31
0.0
  0
LINE
  5
C1
  8
1
  6
DASHDOT
 62
     3
 10
-104.0390210765929
 20
656.67866980871395
 30
0.0
 11
-104.0390210765929
 21
623.1473323722962
 31
0.0
  0
LINE
  5
C2
  8
1
  6
DASHDOT
 62
     3
 10
-87.273352358383974
 20
639.91300109050519
 30
0.0
 11
-120.8046897948017
 21
639.91300109050519
 31
0.0
  0
LINE
  5
C3
  8
1
 62
     7
 10
-94.03902107659286
 20
594.91300109050519
 30
0.0
 11
-125.72021337969881
 21
594.91300109050519
 31
0.0
  0
LINE
  5
C4
  8
1
 62
     7
 10
-84.03902107659286
 20
649.91300109050519
 30
0.0
 11
-84.03902107659286
 21
604.91300109050508
 31
0.0
  0
LINE
  5
C5
  8
1
 62
     7
 10
-130.53902107659289
 20
659.91300109050508
 30
0.0
 11
-94.03902107659286
 21
659.91300109050508
 31
0.0
  0
LINE
  5
C6
  8
1
 62
     7
 10
-87.039021076592874
 20
62.5
 30
0.0
 11
-85.03902107659286
 21
60.5
 31
0.0
  0
LINE
  5
C7
  8
1
 62
     7
 10
-87.039021076592874
 20
-62.5
 30
0.0
 11
-85.03902107659286
 21
-60.499999999999993
 31
0.0
  0
LINE
  5
C8
  8
1
 62
     7
 10
-110.81289535269821
 20
-62.5
 30
0.0
 11
-87.039021076592874
 21
-62.5
 31
0.0
  0
LINE
  5
C9
  8
1
 62
     7
 10
-130.53902107659289
 20
-78.447647675067429
 30
0.0
 11
-85.03902107659286
 21
-41.663031203896452
 31
0.0
  0
LINE
  5
CA
  8
1
 62
     7
 10
-130.53902107659289
 20
-41.663031203896452
 30
0.0
 11
-85.03902107659286
 21
-41.663031203896452
 31
0.0
  0
LINE
  5
CB
  8
1
 62
     7
 10
-87.039021076592874
 20
-132.0
 30
0.0
 11
-129.34352916688471
 21
-100.9001350849568
 31
0.0
  0
LINE
  5
CC
  8
1
 62
     7
 10
-85.03902107659286
 20
60.5
 30
0.0
 11
-85.03902107659286
 21
-60.499999999999993
 31
0.0
  0
LINE
  5
CD
  8
1
  6
DASHED
 62
     3
 10
-97.53902107659286
 20
-134.0
 30
0.0
 11
-97.53902107659286
 21
-150.0
 31
0.0
  0
LINE
  5
CE
  8
1
  6
DASHED
 62
     3
 10
-110.5390210765929
 20
-134.0
 30
0.0
 11
-110.5390210765929
 21
-150.0
 31
0.0
  0
LINE
  5
CF
  8
1
  6
DASHDOT
 62
     3
 10
-104.0390210765929
 20
-129.1280244231319
 30
0.0
 11
-104.0390210765929
 21
-153.6123571578083
 31
0.0
  0
LINE
  5
D0
  8
1
  6
DASHED
 62
     3
 10
-91.039021076592846
 20
-134.0
 30
0.0
 11
-91.039021076592846
 21
-132.0
 31
0.0
  0
LINE
  5
D1
  8
1
  6
DASHED
 62
     3
 10
-117.0390210765928
 20
-134.0
 30
0.0
 11
-91.039021076592846
 21
-134.0
 31
0.0
  0
LINE
  5
D2
  8
1
  6
DASHED
 62
     3
 10
-117.0390210765928
 20
-132.0
 30
0.0
 11
-117.0390210765928
 21
-134.0
 31
0.0
  0
LINE
  5
D3
  8
1
 62
     7
 10
-241.039021076593
 20
-145.0
 30
0.0
 11
-227.03902107659289
 21
-145.0
 31
0.0
  0
LINE
  5
D4
  8
1
 62
     7
 10
-141.53902107659289
 20
-75.226693769185914
 30
0.0
 11
-130.53902107659289
 21
-75.226693769185914
 31
0.0
  0
LINE
  5
D5
  8
1
 62
     7
 10
-141.53902107659289
 20
-62.608550163234042
 30
0.0
 11
-141.53902107659289
 21
-75.226693769185914
 31
0.0
  0
LINE
  5
D6
  8
1
 62
     7
 10
-144.53902107659289
 20
-78.226693769185928
 30
0.0
 11
-211.03902107659289
 21
-78.226693769185928
 31
0.0
  0
LINE
  5
D7
  8
1
 62
     7
 10
-137.77282918992131
 20
-87.263178357047011
 30
0.0
 11
-211.03902107659289
 21
-87.263178357047011
 31
0.0
  0
LINE
  5
D8
  8
1
 62
     7
 10
-224.48337261163709
 20
-130.0
 30
0.0
 11
-213.35148625633349
 21
-130.0
 31
0.0
  0
LINE
  5
D9
  8
1
 62
     7
 10
-87.039021076592874
 20
-132.0
 30
0.0
 11
-208.03902107659289
 21
-132.0
 31
0.0
  0
LINE
  5
DA
  8
1
 62
     7
 10
-227.03902107659289
 20
-59.16440949396452
 30
0.0
 11
-211.03902107659289
 21
-59.16440949396452
 31
0.0
  0
LINE
  5
DB
  8
1
 62
     7
 10
-227.03902107659289
 20
-150.0
 30
0.0
 11
-227.03902107659289
 21
-59.16440949396452
 31
0.0
  0
LINE
  5
DC
  8
1
 62
     7
 10
-141.75211236120521
 20
-47.275702649490782
 30
0.0
 11
-130.53902107659289
 21
-47.275702649490782
 31
0.0
  0
LINE
  5
DD
  8
1
 62
     7
 10
-141.53902107659289
 20
-25.178985761704912
 30
0.0
 11
-141.53902107659289
 21
-46.165234364443592
 31
0.0
  0
LINE
  5
DE
  8
1
 62
     7
 10
-84.03902107659286
 20
-150.0
 30
0.0
 11
-84.03902107659286
 21
-135.0
 31
0.0
  0
LINE
  5
DF
  8
1
 62
     7
 10
-227.03902107659289
 20
-150.0
 30
0.0
 11
-84.03902107659286
 21
-150.0
 31
0.0
  0
LINE
  5
E0
  8
1
 62
     7
 10
-130.53902107659289
 20
117.63949993962849
 30
0.0
 11
-125.5390210765929
 21
117.63949993962849
 31
0.0
  0
LINE
  5
E1
  8
1
 62
     7
 10
-122.5390210765929
 20
142.0
 30
0.0
 11
-122.5390210765929
 21
120.63949993962849
 31
0.0
  0
LINE
  5
E2
  8
1
 62
     7
 10
-342.53902107659297
 20
145.0
 30
0.0
 11
-125.5390210765929
 21
145.0
 31
0.0
  0
LINE
  5
E3
  8
1
 62
     7
 10
-211.03902107659289
 20
-59.16440949396452
 30
0.0
 11
-211.03902107659289
 21
-129.0
 31
0.0
  0
LINE
  5
E4
  8
1
 62
     7
 10
-136.81366507779569
 20
-55.300186502093233
 30
0.0
 11
-213.03902107659289
 21
-55.300186502093233
 31
0.0
  0
LINE
  5
E5
  8
1
 62
     7
 10
-144.53902107659289
 20
-49.165234364443599
 30
0.0
 11
-213.03902107659289
 21
-49.165234364443599
 31
0.0
  0
LINE
  5
E6
  8
1
 62
     7
 10
-136.81366507779569
 20
-25.17898576170489
 30
0.0
 11
-190.03902107659289
 21
-25.17898576170489
 31
0.0
  0
LINE
  5
E7
  8
1
 62
     7
 10
-211.03902107659289
 20
-62.608550163234042
 30
0.0
 11
-138.53239322409399
 21
-62.608550163234042
 31
0.0
  0
LINE
  5
E8
  8
1
 62
     7
 10
-135.86457915284791
 20
-99.821616256666132
 30
0.0
 11
-211.03902107659289
 21
-99.821616256666132
 31
0.0
  0
LINE
  5
E9
  8
1
 62
     7
 10
-216.03902107659289
 20
-37.206546709565778
 30
0.0
 11
-216.03902107659289
 21
-52.300186502093233
 31
0.0
  0
LINE
  5
EA
  8
1
 62
     7
 10
-85.03902107659286
 20
41.663031203896438
 30
0.0
 11
-130.53902107659289
 21
41.663031203896438
 31
0.0
  0
LINE
  5
EB
  8
1
 62
     7
 10
-87.039021076592874
 20
62.5
 30
0.0
 11
-110.81289535269821
 21
62.5
 31
0.0
  0
LINE
  5
EC
  8
1
 62
     7
 10
-79.03902107659286
 20
22.5
 30
0.0
 11
-79.03902107659286
 21
-22.5
 31
0.0
  0
LINE
  5
ED
  8
1
 62
     7
 10
-79.03902107659286
 20
-22.5
 30
0.0
 11
-83.239021076592906
 21
-22.5
 31
0.0
  0
LINE
  5
EE
  8
1
 62
     7
 10
-79.03902107659286
 20
20.0
 30
0.0
 11
-8.03902107659286
 21
20.0
 31
0.0
  0
LINE
  5
EF
  8
1
 62
     7
 10
-7.03902107659286
 20
23.5
 30
0.0
 11
-7.03902107659286
 21
-19.0
 31
0.0
  0
LINE
  5
F0
  8
1
 62
     7
 10
-7.03902107659286
 20
-19.0
 30
0.0
 11
-8.03902107659286
 21
-20.0
 31
0.0
  0
LINE
  5
F1
  8
1
 62
     7
 10
-7.03902107659286
 20
23.5
 30
0.0
 11
-74.03902107659286
 21
23.5
 31
0.0
  0
LINE
  5
F2
  8
1
 62
     7
 10
-74.03902107659286
 20
23.5
 30
0.0
 11
-74.03902107659286
 21
20.0
 31
0.0
  0
LINE
  5
F3
  8
1
 62
     7
 10
-130.53902107659289
 20
75.299999999999997
 30
0.0
 11
-130.53902107659289
 21
90.700000000000017
 31
0.0
  0
LINE
  5
F4
  8
1
 62
     7
 10
-121.0390210765929
 20
89.500000000000043
 30
0.0
 11
-120.5390210765929
 21
88.633974596215495
 31
0.0
  0
LINE
  5
F5
  8
1
 62
     7
 10
-120.5390210765929
 20
88.633974596215495
 30
0.0
 11
-120.5390210765929
 21
77.366025403784434
 31
0.0
  0
LINE
  5
F6
  8
1
 62
     7
 10
-120.5390210765929
 20
77.366025403784434
 30
0.0
 11
-121.0390210765929
 21
76.5
 31
0.0
  0
LINE
  5
F7
  8
1
 62
     7
 10
-121.0390210765929
 20
76.5
 30
0.0
 11
-128.1299170076399
 21
76.5
 31
0.0
  0
LINE
  5
F8
  8
1
 62
     7
 10
-121.0390210765929
 20
89.500000000000043
 30
0.0
 11
-121.0390210765929
 21
76.5
 31
0.0
  0
LINE
  5
F9
  8
1
 62
     7
 10
-85.03902107659286
 20
41.663031203896438
 30
0.0
 11
-130.53902107659289
 21
78.447647675067401
 31
0.0
  0
LINE
  5
FA
  8
1
 62
     7
 10
-123.5390210765929
 20
95.738000000000028
 30
0.0
 11
-123.5390210765929
 21
81.038000000000025
 31
0.0
  0
LINE
  5
FB
  8
1
 62
     7
 10
-124.4339139938368
 20
98.188000000000031
 30
0.0
 11
-130.53902107659289
 21
98.188000000000031
 31
0.0
  0
LINE
  5
FC
  8
1
 62
     7
 10
-124.4339139938368
 20
93.288000000000039
 30
0.0
 11
-130.53902107659289
 21
93.288000000000039
 31
0.0
  0
LINE
  5
FD
  8
1
 62
     7
 10
-124.4339139938368
 20
83.488
 30
0.0
 11
-130.53902107659289
 21
83.488
 31
0.0
  0
LINE
  5
FE
  8
1
 62
     7
 10
-124.4339139938368
 20
78.588000000000022
 30
0.0
 11
-130.53902107659289
 21
78.588000000000022
 31
0.0
  0
LINE
  5
FF
  8
1
 62
     7
 10
-123.5390210765929
 20
89.500000000000043
 30
0.0
 11
-121.0390210765929
 21
89.500000000000043
 31
0.0
  0
LINE
  5
100
  8
1
 62
     7
 10
-130.53902107659289
 20
-90.700000000000031
 30
0.0
 11
-130.53902107659289
 21
-75.300000000000026
 31
0.0
  0
LINE
  5
101
  8
1
 62
     7
 10
-120.5390210765929
 20
-88.633974596215594
 30
0.0
 11
-121.0390210765929
 21
-89.500000000000043
 31
0.0
  0
LINE
  5
102
  8
1
 62
     7
 10
-120.5390210765929
 20
-77.366025403784462
 30
0.0
 11
-120.5390210765929
 21
-88.633974596215594
 31
0.0
  0
LINE
  5
103
  8
1
 62
     7
 10
-121.0390210765929
 20
-76.500000000000028
 30
0.0
 11
-120.5390210765929
 21
-77.366025403784462
 31
0.0
  0
LINE
  5
104
  8
1
 62
     7
 10
-128.1299170076399
 20
-76.500000000000028
 30
0.0
 11
-121.0390210765929
 21
-76.500000000000028
 31
0.0
  0
LINE
  5
105
  8
1
 62
     7
 10
-121.0390210765929
 20
-76.500000000000028
 30
0.0
 11
-121.0390210765929
 21
-89.500000000000043
 31
0.0
  0
LINE
  5
106
  8
1
 62
     7
 10
-123.5390210765929
 20
-81.038000000000025
 30
0.0
 11
-123.5390210765929
 21
-95.738000000000028
 31
0.0
  0
LINE
  5
107
  8
1
 62
     7
 10
-130.53902107659289
 20
-98.188000000000045
 30
0.0
 11
-124.4339139938368
 21
-98.188000000000045
 31
0.0
  0
LINE
  5
108
  8
1
 62
     7
 10
-130.53902107659289
 20
-93.288000000000039
 30
0.0
 11
-124.4339139938368
 21
-93.288000000000039
 31
0.0
  0
LINE
  5
109
  8
1
 62
     7
 10
-130.53902107659289
 20
-83.488000000000014
 30
0.0
 11
-124.4339139938368
 21
-83.488000000000014
 31
0.0
  0
LINE
  5
10A
  8
1
 62
     7
 10
-130.53902107659289
 20
-78.588000000000051
 30
0.0
 11
-124.4339139938368
 21
-78.588000000000051
 31
0.0
  0
LINE
  5
10B
  8
1
 62
     7
 10
-121.0390210765929
 20
-89.500000000000043
 30
0.0
 11
-123.5390210765929
 21
-89.500000000000043
 31
0.0
  0
LINE
  5
10C
  8
1
 62
     7
 10
-383.03902107659297
 20
60.5
 30
0.0
 11
-381.03902107659297
 21
62.5
 31
0.0
  0
LINE
  5
10D
  8
1
 62
     7
 10
-383.03902107659297
 20
-60.499999999999993
 30
0.0
 11
-381.03902107659297
 21
-62.5
 31
0.0
  0
LINE
  5
10E
  8
1
 62
     7
 10
-381.03902107659297
 20
-62.5
 30
0.0
 11
-357.26514680048768
 21
-62.5
 31
0.0
  0
LINE
  5
10F
  8
1
 62
     7
 10
-383.03902107659297
 20
-41.663031203896452
 30
0.0
 11
-337.53902107659297
 21
-78.447647675067429
 31
0.0
  0
LINE
  5
110
  8
1
 62
     7
 10
-383.03902107659297
 20
-41.663031203896452
 30
0.0
 11
-337.53902107659297
 21
-41.663031203896452
 31
0.0
  0
LINE
  5
111
  8
1
 62
     7
 10
-338.73451298630113
 20
-100.9001350849568
 30
0.0
 11
-381.03902107659297
 21
-132.0
 31
0.0
  0
LINE
  5
112
  8
1
  6
DASHED
 62
     3
 10
-370.53902107659297
 20
-150.0
 30
0.0
 11
-370.53902107659297
 21
-134.0
 31
0.0
  0
LINE
  5
113
  8
1
  6
DASHED
 62
     3
 10
-357.53902107659297
 20
-150.0
 30
0.0
 11
-357.53902107659297
 21
-134.0
 31
0.0
  0
LINE
  5
114
  8
1
  6
DASHDOT
 62
     3
 10
-364.03902107659297
 20
-153.6123571578083
 30
0.0
 11
-364.03902107659297
 21
-129.1280244231319
 31
0.0
  0
LINE
  5
115
  8
1
  6
DASHED
 62
     3
 10
-377.03902107659297
 20
-132.0
 30
0.0
 11
-377.03902107659297
 21
-134.0
 31
0.0
  0
LINE
  5
116
  8
1
  6
DASHED
 62
     3
 10
-377.03902107659297
 20
-134.0
 30
0.0
 11
-351.03902107659297
 21
-134.0
 31
0.0
  0
LINE
  5
117
  8
1
  6
DASHED
 62
     3
 10
-351.03902107659297
 20
-134.0
 30
0.0
 11
-351.03902107659297
 21
-132.0
 31
0.0
  0
LINE
  5
118
  8
1
 62
     7
 10
-337.53902107659297
 20
-75.226693769185914
 30
0.0
 11
-326.53902107659297
 21
-75.226693769185914
 31
0.0
  0
LINE
  5
119
  8
1
 62
     7
 10
-326.53902107659297
 20
-75.226693769185914
 30
0.0
 11
-326.53902107659297
 21
-62.608550163234042
 31
0.0
  0
LINE
  5
11A
  8
1
 62
     7
 10
-257.03902107659297
 20
-78.226693769185928
 30
0.0
 11
-323.53902107659297
 21
-78.226693769185928
 31
0.0
  0
LINE
  5
11B
  8
1
 62
     7
 10
-257.03902107659297
 20
-87.263178357047011
 30
0.0
 11
-330.30521296326458
 21
-87.263178357047011
 31
0.0
  0
LINE
  5
11C
  8
1
 62
     7
 10
-254.7265558968522
 20
-130.0
 30
0.0
 11
-243.59466954154871
 21
-130.0
 31
0.0
  0
LINE
  5
11D
  8
1
 62
     7
 10
-260.03902107659297
 20
-132.0
 30
0.0
 11
-381.03902107659297
 21
-132.0
 31
0.0
  0
LINE
  5
11E
  8
1
 62
     7
 10
-257.03902107659297
 20
-59.16440949396452
 30
0.0
 11
-241.039021076593
 21
-59.16440949396452
 31
0.0
  0
LINE
  5
11F
  8
1
 62
     7
 10
-241.039021076593
 20
-59.16440949396452
 30
0.0
 11
-241.039021076593
 21
-150.0
 31
0.0
  0
LINE
  5
120
  8
1
 62
     7
 10
-337.53902107659297
 20
-47.275702649490782
 30
0.0
 11
-326.3259297919808
 21
-47.275702649490782
 31
0.0
  0
LINE
  5
121
  8
1
 62
     7
 10
-326.53902107659297
 20
-46.165234364443592
 30
0.0
 11
-326.53902107659297
 21
-25.178985761704912
 31
0.0
  0
LINE
  5
122
  8
1
 62
     7
 10
-384.03902107659297
 20
-135.0
 30
0.0
 11
-384.03902107659297
 21
-150.0
 31
0.0
  0
LINE
  5
123
  8
1
 62
     7
 10
-384.03902107659297
 20
-150.0
 30
0.0
 11
-241.039021076593
 21
-150.0
 31
0.0
  0
LINE
  5
124
  8
1
 62
     7
 10
-342.53902107659297
 20
117.63949993962849
 30
0.0
 11
-337.53902107659297
 21
117.63949993962849
 31
0.0
  0
LINE
  5
125
  8
1
 62
     7
 10
-345.53902107659297
 20
120.63949993962849
 30
0.0
 11
-345.53902107659297
 21
142.0
 31
0.0
  0
LINE
  5
126
  8
1
 62
     7
 10
-252.039021076593
 20
-52.300186502093233
 30
0.0
 11
-252.039021076593
 21
-37.206546709565778
 31
0.0
  0
LINE
  5
127
  8
1
 62
     7
 10
-257.03902107659297
 20
-129.0
 30
0.0
 11
-257.03902107659297
 21
-59.16440949396452
 31
0.0
  0
LINE
  5
128
  8
1
 62
     7
 10
-255.039021076593
 20
-55.300186502093233
 30
0.0
 11
-331.26437707539009
 21
-55.300186502093233
 31
0.0
  0
LINE
  5
129
  8
1
 62
     7
 10
-255.039021076593
 20
-49.165234364443599
 30
0.0
 11
-323.53902107659297
 21
-49.165234364443599
 31
0.0
  0
LINE
  5
12A
  8
1
 62
     7
 10
-329.54564892909173
 20
-62.608550163234042
 30
0.0
 11
-257.03902107659297
 21
-62.608550163234042
 31
0.0
  0
LINE
  5
12B
  8
1
 62
     7
 10
-257.03902107659297
 20
-99.821616256666132
 30
0.0
 11
-332.21346300033792
 21
-99.821616256666132
 31
0.0
  0
LINE
  5
12C
  8
1
 62
     7
 10
-337.53902107659297
 20
41.663031203896438
 30
0.0
 11
-383.03902107659297
 21
41.663031203896438
 31
0.0
  0
LINE
  5
12D
  8
1
 62
     7
 10
-357.26514680048768
 20
62.5
 30
0.0
 11
-381.03902107659297
 21
62.5
 31
0.0
  0
LINE
  5
12E
  8
1
 62
     7
 10
-389.03902107659297
 20
22.5
 30
0.0
 11
-384.83902107659299
 21
22.5
 31
0.0
  0
LINE
  5
12F
  8
1
 62
     7
 10
-389.03902107659297
 20
-22.5
 30
0.0
 11
-389.03902107659297
 21
22.5
 31
0.0
  0
LINE
  5
130
  8
1
 62
     7
 10
-461.03902107659297
 20
19.0
 30
0.0
 11
-460.03902107659297
 21
20.0
 31
0.0
  0
LINE
  5
131
  8
1
 62
     7
 10
-461.03902107659297
 20
-19.0
 30
0.0
 11
-461.03902107659297
 21
23.5
 31
0.0
  0
LINE
  5
132
  8
1
 62
     7
 10
-389.03902107659297
 20
-20.0
 30
0.0
 11
-460.03902107659297
 21
-20.0
 31
0.0
  0
LINE
  5
133
  8
1
 62
     7
 10
-394.03902107659297
 20
23.5
 30
0.0
 11
-461.03902107659297
 21
23.5
 31
0.0
  0
LINE
  5
134
  8
1
 62
     7
 10
-394.03902107659297
 20
20.0
 30
0.0
 11
-394.03902107659297
 21
23.5
 31
0.0
  0
LINE
  5
135
  8
1
 62
     7
 10
-347.53902107659297
 20
77.366025403784434
 30
0.0
 11
-347.53902107659297
 21
79.153537297918746
 31
0.0
  0
LINE
  5
136
  8
1
 62
     7
 10
-347.03902107659297
 20
76.5
 30
0.0
 11
-347.53902107659297
 21
77.366025403784434
 31
0.0
  0
LINE
  5
137
  8
1
 62
     7
 10
-339.94812514554582
 20
76.5
 30
0.0
 11
-347.03902107659297
 21
76.5
 31
0.0
  0
LINE
  5
138
  8
1
 62
     7
 10
-347.03902107659297
 20
76.5
 30
0.0
 11
-347.03902107659297
 21
78.588000000000022
 31
0.0
  0
LINE
  5
139
  8
1
 62
     7
 10
-337.53902107659297
 20
78.447647675067401
 30
0.0
 11
-383.03902107659297
 21
41.663031203896438
 31
0.0
  0
LINE
  5
13A
  8
1
 62
     7
 10
-87.039021076592874
 20
582.41300109050519
 30
0.0
 11
-85.03902107659286
 21
580.41300109050508
 31
0.0
  0
LINE
  5
13B
  8
1
 62
     7
 10
-87.039021076592874
 20
457.41300109050508
 30
0.0
 11
-85.03902107659286
 21
459.41300109050508
 31
0.0
  0
LINE
  5
13C
  8
1
 62
     7
 10
-110.81289535269801
 20
457.41300109050508
 30
0.0
 11
-87.039021076592874
 21
457.41300109050508
 31
0.0
  0
LINE
  5
13D
  8
1
 62
     7
 10
-130.53902107659289
 20
441.46535341543768
 30
0.0
 11
-85.03902107659286
 21
478.2499698866086
 31
0.0
  0
LINE
  5
13E
  8
1
 62
     7
 10
-85.03902107659286
 20
580.41300109050508
 30
0.0
 11
-85.03902107659286
 21
459.41300109050508
 31
0.0
  0
LINE
  5
13F
  8
1
 62
     7
 10
-334.53902107659297
 20
664.91300109050519
 30
0.0
 11
-133.53902107659289
 21
664.91300109050519
 31
0.0
  0
LINE
  5
140
  8
1
 62
     7
 10
-85.03902107659286
 20
561.57603229440167
 30
0.0
 11
-122.5390210765929
 21
561.57603229440167
 31
0.0
  0
LINE
  5
141
  8
1
 62
     7
 10
-87.039021076592874
 20
582.41300109050519
 30
0.0
 11
-110.81289535269821
 21
582.41300109050519
 31
0.0
  0
LINE
  5
142
  8
1
 62
     7
 10
-79.03902107659286
 20
542.41300109050508
 30
0.0
 11
-79.03902107659286
 21
497.41300109050508
 31
0.0
  0
LINE
  5
143
  8
1
 62
     7
 10
-79.03902107659286
 20
497.41300109050508
 30
0.0
 11
-83.239021076592906
 21
497.41300109050508
 31
0.0
  0
LINE
  5
144
  8
1
 62
     7
 10
-79.03902107659286
 20
539.91300109050519
 30
0.0
 11
-8.03902107659286
 21
539.91300109050519
 31
0.0
  0
LINE
  5
145
  8
1
 62
     7
 10
-7.03902107659286
 20
538.91300109050508
 30
0.0
 11
-7.03902107659286
 21
500.91300109050502
 31
0.0
  0
LINE
  5
146
  8
1
 62
     7
 10
-7.03902107659286
 20
500.91300109050502
 30
0.0
 11
-8.03902107659286
 21
499.91300109050508
 31
0.0
  0
LINE
  5
147
  8
1
  6
DASHDOT
 62
     3
 10
2.96097892340714
 20
519.91300109050519
 30
0.0
 11
-7.03902107659286
 21
519.91300109050519
 31
0.0
  0
LINE
  5
148
  8
1
 62
     7
 10
-121.0390210765929
 20
609.41300109050508
 30
0.0
 11
-120.5390210765929
 21
608.54697568672066
 31
0.0
  0
LINE
  5
149
  8
1
 62
     7
 10
-120.5390210765929
 20
608.54697568672066
 30
0.0
 11
-120.5390210765929
 21
597.27902649428938
 31
0.0
  0
LINE
  5
14A
  8
1
 62
     7
 10
-120.5390210765929
 20
597.27902649428938
 30
0.0
 11
-121.0390210765929
 21
596.41300109050508
 31
0.0
  0
LINE
  5
14B
  8
1
 62
     7
 10
-121.0390210765929
 20
596.41300109050508
 30
0.0
 11
-128.1299170076399
 21
596.41300109050508
 31
0.0
  0
LINE
  5
14C
  8
1
 62
     7
 10
-121.0390210765929
 20
609.41300109050508
 30
0.0
 11
-121.0390210765929
 21
596.41300109050508
 31
0.0
  0
LINE
  5
14D
  8
1
 62
     7
 10
-85.03902107659286
 20
561.57603229440167
 30
0.0
 11
-130.53902107659289
 21
598.36064876557236
 31
0.0
  0
LINE
  5
14E
  8
1
 62
     7
 10
-123.5390210765929
 20
615.65100109050513
 30
0.0
 11
-123.5390210765929
 21
600.95100109050497
 31
0.0
  0
LINE
  5
14F
  8
1
 62
     7
 10
-124.4339139938368
 20
618.10100109050506
 30
0.0
 11
-130.53902107659289
 21
618.10100109050506
 31
0.0
  0
LINE
  5
150
  8
1
 62
     7
 10
-124.4339139938368
 20
613.20100109050509
 30
0.0
 11
-130.53902107659289
 21
613.20100109050509
 31
0.0
  0
LINE
  5
151
  8
1
 62
     7
 10
-124.4339139938368
 20
603.40100109050513
 30
0.0
 11
-130.53902107659289
 21
603.40100109050513
 31
0.0
  0
LINE
  5
152
  8
1
 62
     7
 10
-124.4339139938368
 20
598.50100109050504
 30
0.0
 11
-130.53902107659289
 21
598.50100109050504
 31
0.0
  0
LINE
  5
153
  8
1
 62
     7
 10
-123.5390210765929
 20
609.41300109050508
 30
0.0
 11
-121.0390210765929
 21
609.41300109050508
 31
0.0
  0
LINE
  5
154
  8
1
 62
     7
 10
-120.5390210765929
 20
431.27902649428938
 30
0.0
 11
-121.0390210765929
 21
430.41300109050508
 31
0.0
  0
LINE
  5
155
  8
1
 62
     7
 10
-120.5390210765929
 20
442.5469756867206
 30
0.0
 11
-120.5390210765929
 21
431.27902649428938
 31
0.0
  0
LINE
  5
156
  8
1
 62
     7
 10
-121.0390210765929
 20
443.41300109050508
 30
0.0
 11
-120.5390210765929
 21
442.5469756867206
 31
0.0
  0
LINE
  5
157
  8
1
 62
     7
 10
-128.1299170076399
 20
443.41300109050508
 30
0.0
 11
-121.0390210765929
 21
443.41300109050508
 31
0.0
  0
LINE
  5
158
  8
1
 62
     7
 10
-121.0390210765929
 20
443.41300109050508
 30
0.0
 11
-121.0390210765929
 21
430.41300109050508
 31
0.0
  0
LINE
  5
159
  8
1
 62
     7
 10
-123.5390210765929
 20
438.87500109050501
 30
0.0
 11
-123.5390210765929
 21
424.17500109050491
 31
0.0
  0
LINE
  5
15A
  8
1
 62
     7
 10
-130.53902107659289
 20
421.72500109050497
 30
0.0
 11
-124.4339139938368
 21
421.72500109050497
 31
0.0
  0
LINE
  5
15B
  8
1
 62
     7
 10
-130.53902107659289
 20
426.62500109050501
 30
0.0
 11
-124.4339139938368
 21
426.62500109050501
 31
0.0
  0
LINE
  5
15C
  8
1
 62
     7
 10
-130.53902107659289
 20
436.42500109050491
 30
0.0
 11
-124.4339139938368
 21
436.42500109050491
 31
0.0
  0
LINE
  5
15D
  8
1
 62
     7
 10
-130.53902107659289
 20
441.32500109050488
 30
0.0
 11
-124.4339139938368
 21
441.32500109050488
 31
0.0
  0
LINE
  5
15E
  8
1
 62
     7
 10
-121.0390210765929
 20
430.41300109050508
 30
0.0
 11
-123.5390210765929
 21
430.41300109050508
 31
0.0
  0
LINE
  5
15F
  8
1
 62
     7
 10
-383.03902107659297
 20
580.41300109050508
 30
0.0
 11
-381.03902107659297
 21
582.41300109050519
 31
0.0
  0
LINE
  5
160
  8
1
 62
     7
 10
-383.03902107659297
 20
459.41300109050508
 30
0.0
 11
-381.03902107659297
 21
457.41300109050508
 31
0.0
  0
LINE
  5
161
  8
1
 62
     7
 10
-381.03902107659297
 20
457.41300109050508
 30
0.0
 11
-357.26514680048768
 21
457.41300109050508
 31
0.0
  0
LINE
  5
162
  8
1
 62
     7
 10
-383.03902107659297
 20
478.2499698866086
 30
0.0
 11
-337.53902107659297
 21
441.46535341543768
 31
0.0
  0
LINE
  5
163
  8
1
 62
     7
 10
-383.03902107659297
 20
478.2499698866086
 30
0.0
 11
-345.53902107659297
 21
478.2499698866086
 31
0.0
  0
LINE
  5
164
  8
1
 62
     7
 10
-383.03902107659297
 20
459.41300109050508
 30
0.0
 11
-383.03902107659297
 21
580.41300109050508
 31
0.0
  0
LINE
  5
165
  8
1
 62
     7
 10
-337.53902107659297
 20
377.91300109050508
 30
0.0
 11
-337.53902107659297
 21
447.41300109050508
 31
0.0
  0
LINE
  5
166
  8
1
 62
     7
 10
-337.53902107659297
 20
661.91300109050519
 30
0.0
 11
-337.53902107659297
 21
592.41300109050508
 31
0.0
  0
LINE
  5
167
  8
1
 62
     7
 10
-357.26514680048768
 20
582.41300109050519
 30
0.0
 11
-381.03902107659297
 21
582.41300109050519
 31
0.0
  0
LINE
  5
168
  8
1
 62
     7
 10
-389.03902107659297
 20
542.41300109050508
 30
0.0
 11
-384.83902107659299
 21
542.41300109050508
 31
0.0
  0
LINE
  5
169
  8
1
 62
     7
 10
-389.03902107659297
 20
497.41300109050508
 30
0.0
 11
-389.03902107659297
 21
542.41300109050508
 31
0.0
  0
LINE
  5
16A
  8
1
 62
     7
 10
-461.0390210765928
 20
538.91300109050508
 30
0.0
 11
-460.03902107659297
 21
539.91300109050519
 31
0.0
  0
LINE
  5
16B
  8
1
 62
     7
 10
-461.03902107659297
 20
500.91300109050508
 30
0.0
 11
-461.0390210765928
 21
538.91300109050508
 31
0.0
  0
LINE
  5
16C
  8
1
 62
     7
 10
-389.03902107659297
 20
499.91300109050508
 30
0.0
 11
-460.03902107659297
 21
499.91300109050508
 31
0.0
  0
LINE
  5
16D
  8
1
 62
     7
 10
-347.53902107659297
 20
597.27902649428938
 30
0.0
 11
-347.53902107659297
 21
599.06653838842385
 31
0.0
  0
LINE
  5
16E
  8
1
 62
     7
 10
-347.03902107659297
 20
596.41300109050508
 30
0.0
 11
-347.53902107659297
 21
597.27902649428938
 31
0.0
  0
LINE
  5
16F
  8
1
 62
     7
 10
-339.94812514554582
 20
596.41300109050508
 30
0.0
 11
-347.03902107659297
 21
596.41300109050508
 31
0.0
  0
LINE
  5
170
  8
1
 62
     7
 10
-347.03902107659297
 20
596.41300109050508
 30
0.0
 11
-347.03902107659297
 21
598.50100109050504
 31
0.0
  0
LINE
  5
171
  8
1
 62
     7
 10
-337.53902107659297
 20
598.36064876557236
 30
0.0
 11
-383.03902107659297
 21
561.57603229440167
 31
0.0
  0
LINE
  5
172
  8
1
 62
     7
 10
-130.53902107659289
 20
592.41300109050508
 30
0.0
 11
-125.5390210765929
 21
592.41300109050508
 31
0.0
  0
LINE
  5
173
  8
1
 62
     7
 10
-122.5390210765929
 20
589.41300109050508
 30
0.0
 11
-122.5390210765929
 21
450.41300109050508
 31
0.0
  0
LINE
  5
174
  8
1
 62
     7
 10
-125.5390210765929
 20
447.41300109050508
 30
0.0
 11
-130.53902107659289
 21
447.41300109050508
 31
0.0
  0
LINE
  5
175
  8
1
 62
     7
 10
-342.53902107659297
 20
592.41300109050508
 30
0.0
 11
-337.53902107659297
 21
592.41300109050508
 31
0.0
  0
LINE
  5
176
  8
1
 62
     7
 10
-345.53902107659297
 20
450.41300109050508
 30
0.0
 11
-345.53902107659297
 21
589.41300109050508
 31
0.0
  0
LINE
  5
177
  8
1
 62
     7
 10
-337.53902107659297
 20
447.41300109050508
 30
0.0
 11
-342.53902107659297
 21
447.41300109050508
 31
0.0
  0
LINE
  5
178
  8
1
 62
     7
 10
-121.0390210765929
 20
526.41300109050508
 30
0.0
 11
-120.5390210765929
 21
525.54697568672054
 31
0.0
  0
LINE
  5
179
  8
1
 62
     7
 10
-120.5390210765929
 20
525.54697568672054
 30
0.0
 11
-120.5390210765929
 21
514.27902649428938
 31
0.0
  0
LINE
  5
17A
  8
1
 62
     7
 10
-120.5390210765929
 20
514.27902649428938
 30
0.0
 11
-121.0390210765929
 21
513.41300109050508
 31
0.0
  0
LINE
  5
17B
  8
1
 62
     7
 10
-121.0390210765929
 20
513.41300109050508
 30
0.0
 11
-122.5390210765929
 21
513.41300109050508
 31
0.0
  0
LINE
  5
17C
  8
1
 62
     7
 10
-121.0390210765929
 20
526.41300109050508
 30
0.0
 11
-121.0390210765929
 21
513.41300109050508
 31
0.0
  0
LINE
  5
17D
  8
1
 62
     7
 10
-122.5390210765929
 20
526.41300109050508
 30
0.0
 11
-121.0390210765929
 21
526.41300109050508
 31
0.0
  0
LINE
  5
17E
  8
1
 62
     7
 10
-347.5390210765928
 20
525.54697568672054
 30
0.0
 11
-347.0390210765928
 21
526.41300109050508
 31
0.0
  0
LINE
  5
17F
  8
1
 62
     7
 10
-347.5390210765928
 20
514.27902649428938
 30
0.0
 11
-347.5390210765928
 21
525.54697568672054
 31
0.0
  0
LINE
  5
180
  8
1
 62
     7
 10
-347.0390210765928
 20
513.41300109050508
 30
0.0
 11
-347.5390210765928
 21
514.27902649428938
 31
0.0
  0
LINE
  5
181
  8
1
 62
     7
 10
-345.5390210765928
 20
513.41300109050508
 30
0.0
 11
-347.0390210765928
 21
513.41300109050508
 31
0.0
  0
LINE
  5
182
  8
1
 62
     7
 10
-347.0390210765928
 20
513.41300109050508
 30
0.0
 11
-347.0390210765928
 21
526.41300109050508
 31
0.0
  0
LINE
  5
183
  8
1
 62
     7
 10
-347.0390210765928
 20
526.41300109050508
 30
0.0
 11
-345.5390210765928
 21
526.41300109050508
 31
0.0
  0
LINE
  5
184
  8
1
 62
     7
 10
-130.53902107659289
 20
0.0
 30
0.0
 11
-128.53902107659289
 21
1.999999999999998
 31
0.0
  0
LINE
  5
185
  8
1
 62
     7
 10
-130.53902107659289
 20
-2.0
 30
0.0
 11
-128.53902107659289
 21
0.0
 31
0.0
  0
LINE
  5
186
  8
1
 62
     7
 10
-130.53902107659289
 20
7.7000000000000011
 30
0.0
 11
-128.53902107659289
 21
7.7000000000000011
 31
0.0
  0
LINE
  5
187
  8
1
 62
     7
 10
-128.53902107659289
 20
7.7000000000000011
 30
0.0
 11
-128.53902107659289
 21
-7.7000000000000011
 31
0.0
  0
LINE
  5
188
  8
1
 62
     7
 10
-128.53902107659289
 20
-7.7000000000000011
 30
0.0
 11
-130.53902107659289
 21
-7.7000000000000011
 31
0.0
  0
LINE
  5
189
  8
1
 62
     7
 10
-128.53902107659289
 20
6.4999999999999973
 30
0.0
 11
-121.0390210765929
 21
6.4999999999999973
 31
0.0
  0
LINE
  5
18A
  8
1
 62
     7
 10
-121.0390210765929
 20
6.4999999999999973
 30
0.0
 11
-120.5390210765929
 21
5.6339745962155607
 31
0.0
  0
LINE
  5
18B
  8
1
 62
     7
 10
-120.5390210765929
 20
5.6339745962155607
 30
0.0
 11
-120.5390210765929
 21
-5.6339745962155643
 31
0.0
  0
LINE
  5
18C
  8
1
 62
     7
 10
-120.5390210765929
 20
-5.6339745962155643
 30
0.0
 11
-121.0390210765929
 21
-6.5000000000000018
 31
0.0
  0
LINE
  5
18D
  8
1
 62
     7
 10
-121.0390210765929
 20
-6.5000000000000018
 30
0.0
 11
-128.53902107659289
 21
-6.5000000000000018
 31
0.0
  0
LINE
  5
18E
  8
1
 62
     7
 10
-121.0390210765929
 20
6.4999999999999973
 30
0.0
 11
-121.0390210765929
 21
-6.5000000000000018
 31
0.0
  0
LINE
  5
18F
  8
1
 62
     7
 10
-339.53902107659297
 20
1.999999999999998
 30
0.0
 11
-337.53902107659297
 21
0.0
 31
0.0
  0
LINE
  5
190
  8
1
 62
     7
 10
-339.53902107659297
 20
0.0
 30
0.0
 11
-337.53902107659297
 21
-2.0
 31
0.0
  0
LINE
  5
191
  8
1
 62
     7
 10
-339.53902107659297
 20
7.7000000000000011
 30
0.0
 11
-337.53902107659297
 21
7.7000000000000011
 31
0.0
  0
LINE
  5
192
  8
1
 62
     7
 10
-339.53902107659297
 20
-7.7000000000000011
 30
0.0
 11
-339.53902107659297
 21
7.7000000000000011
 31
0.0
  0
LINE
  5
193
  8
1
 62
     7
 10
-337.53902107659297
 20
-7.7000000000000011
 30
0.0
 11
-339.53902107659297
 21
-7.7000000000000011
 31
0.0
  0
LINE
  5
194
  8
1
 62
     7
 10
-347.03902107659297
 20
6.4999999999999973
 30
0.0
 11
-339.53902107659297
 21
6.4999999999999973
 31
0.0
  0
LINE
  5
195
  8
1
 62
     7
 10
-347.53902107659297
 20
5.6339745962155607
 30
0.0
 11
-347.03902107659297
 21
6.4999999999999973
 31
0.0
  0
LINE
  5
196
  8
1
 62
     7
 10
-347.53902107659297
 20
-5.6339745962155643
 30
0.0
 11
-347.53902107659297
 21
5.6339745962155607
 31
0.0
  0
LINE
  5
197
  8
1
 62
     7
 10
-347.03902107659297
 20
-6.5000000000000018
 30
0.0
 11
-347.53902107659297
 21
-5.6339745962155643
 31
0.0
  0
LINE
  5
198
  8
1
 62
     7
 10
-339.53902107659297
 20
-6.5000000000000018
 30
0.0
 11
-347.03902107659297
 21
-6.5000000000000018
 31
0.0
  0
LINE
  5
199
  8
1
 62
     7
 10
-347.03902107659297
 20
-6.5000000000000018
 30
0.0
 11
-347.03902107659297
 21
6.4999999999999973
 31
0.0
  0
LINE
  5
19A
  8
1
 62
     7
 10
-334.53902107659297
 20
374.91300109050508
 30
0.0
 11
-273.03902107659292
 21
374.91300109050508
 31
0.0
  0
LINE
  5
19B
  8
1
 62
     7
 10
-130.53902107659289
 20
377.91300109050508
 30
0.0
 11
-130.53902107659289
 21
447.41300109050508
 31
0.0
  0
LINE
  5
19C
  8
1
 62
     7
 10
-130.53902107659289
 20
592.41300109050508
 30
0.0
 11
-130.53902107659289
 21
661.91300109050519
 31
0.0
  0
LINE
  5
19D
  8
1
 62
     7
 10
-122.5390210765929
 20
478.2499698866086
 30
0.0
 11
-85.03902107659286
 21
478.2499698866086
 31
0.0
  0
LINE
  5
19E
  8
1
 62
     7
 10
-345.53902107659297
 20
561.57603229440167
 30
0.0
 11
-383.03902107659297
 21
561.57603229440167
 31
0.0
  0
LINE
  5
19F
  8
1
  6
DASHDOT
 62
     3
 10
-461.03902107659297
 20
519.91300109050519
 30
0.0
 11
-471.03902107659297
 21
519.91300109050519
 31
0.0
  0
LINE
  5
1A0
  8
1
 62
     7
 10
-461.03902107659297
 20
524.91300109050519
 30
0.0
 11
-399.03902107659297
 21
524.91300109050519
 31
0.0
  0
LINE
  5
1A1
  8
1
 62
     7
 10
-399.03902107659297
 20
514.91300109050519
 30
0.0
 11
-461.03902107659297
 21
514.91300109050519
 31
0.0
  0
LINE
  5
1A2
  8
1
 62
     7
 10
-69.039021076592576
 20
524.91300109050519
 30
0.0
 11
-7.0390210765925758
 21
524.91300109050519
 31
0.0
  0
LINE
  5
1A3
  8
1
 62
     7
 10
-7.0390210765925758
 20
514.91300109050519
 30
0.0
 11
-69.039021076592576
 21
514.91300109050519
 31
0.0
  0
LINE
  5
1A4
  8
1
 62
     7
 10
-278.03902107659292
 20
-25.17898576170489
 30
0.0
 11
-331.26437707539009
 21
-25.17898576170489
 31
0.0
  0
LINE
  5
1A5
  8
1
 62
     7
 10
213.09412734671949
 20
33.12640777792204
 30
0.0
 11
188.73012855043751
 21
-35.873592222077953
 31
0.0
  0
LINE
  5
1A6
  8
1
 62
     7
 10
189.1768009497155
 20
-32.206546709565721
 30
0.0
 11
188.85946041234109
 21
-32.206546709565721
 31
0.0
  0
LINE
  5
1A7
  8
1
 62
     7
 10
196.56193415316511
 20
-37.206546709565721
 30
0.0
 11
189.6730714486354
 21
-37.206546709565721
 31
0.0
  0
LINE
  5
1A8
  8
1
 62
     7
 10
218.78879227424491
 20
32.460498802946518
 30
0.0
 11
194.42479347796291
 21
-36.539501197053369
 31
0.0
  0
LINE
  5
1A9
  8
1
 62
     7
 10
188.25946041234121
 20
-31.606546709565571
 30
0.0
 11
188.25946041234121
 21
28.293453290434279
 31
0.0
  0
LINE
  5
1AA
  8
1
 62
     7
 10
189.2594604123413
 20
29.293453290434279
 30
0.0
 11
211.03329745641369
 21
29.293453290434279
 31
0.0
  0
LINE
  5
1AB
  8
1
 62
     7
 10
214.0370702449174
 20
33.793453290434272
 30
0.0
 11
217.84584937604691
 21
33.793453290434272
 31
0.0
  0
LINE
  5
1AC
  8
1
 62
     7
 10
218.44792896283761
 20
31.495157740350461
 30
0.0
 11
221.70898176592161
 21
30.62136127528845
 31
0.0
  0
LINE
  5
1AD
  8
1
 62
     7
 10
197.561934153165
 20
-36.206546709565721
 30
0.0
 11
197.561934153165
 21
-31.706546709565721
 31
0.0
  0
LINE
  5
1AE
  8
1
 62
     7
 10
198.561934153165
 20
-30.706546709565721
 30
0.0
 11
221.061934153165
 21
-30.706546709565721
 31
0.0
  0
LINE
  5
1AF
  8
1
 62
     7
 10
498.20441119058631
 20
-59.898850543447459
 30
0.0
 11
502.64526714979581
 21
-129.91638156534501
 31
0.0
  0
LINE
  5
1B0
  8
1
 62
     7
 10
227.90231071042211
 20
-132.0
 30
0.0
 11
287.7774204720738
 21
-132.0
 31
0.0
  0
LINE
  5
1B1
  8
1
 62
     7
 10
228.9095737943519
 20
-129.91638156534501
 30
0.0
 11
233.35042975356129
 21
-59.898850543447459
 31
0.0
  0
LINE
  5
1B2
  8
1
 62
     7
 10
237.76756436560311
 20
-22.57159142817898
 30
0.0
 11
222.98029628530361
 21
-25.17898576170489
 31
0.0
  0
LINE
  5
1B3
  8
1
 62
     7
 10
245.51612274961721
 20
-49.165234364443549
 30
0.0
 11
231.7367946423139
 21
-55.300186502093197
 31
0.0
  0
LINE
  5
1B4
  8
1
 62
     7
 10
248.7700158942236
 20
-56.473598025584351
 30
0.0
 11
234.9906877869202
 21
-62.608550163233993
 31
0.0
  0
LINE
  5
1B5
  8
1
 62
     7
 10
261.96709159319022
 20
-78.226693769185886
 30
0.0
 11
249.97527151521641
 21
-87.263178357046954
 31
0.0
  0
LINE
  5
1B6
  8
1
 62
     7
 10
408.09627151425622
 20
-122.90286752744851
 30
0.0
 11
415.01626917249598
 21
-143.0
 31
0.0
  0
LINE
  5
1B7
  8
1
 62
     7
 10
377.10632609233858
 20
-129.4899837726731
 30
0.0
 11
378.2882993562809
 21
-143.0
 31
0.0
  0
LINE
  5
1B8
  8
1
 62
     7
 10
353.26654158786653
 20
-143.0
 30
0.0
 11
354.44851485180902
 21
-129.4899837726731
 31
0.0
  0
LINE
  5
1B9
  8
1
 62
     7
 10
316.53857177165168
 20
-143.0
 30
0.0
 11
323.45856942989161
 21
-122.90286752744851
 31
0.0
  0
LINE
  5
1BA
  8
1
 62
     7
 10
481.57956942893122
 20
-87.263178357046954
 30
0.0
 11
469.58774935095761
 21
-78.226693769185886
 31
0.0
  0
LINE
  5
1BB
  8
1
 62
     7
 10
496.56415315722728
 20
-62.608550163233993
 30
0.0
 11
482.78482504992382
 21
-56.473598025584351
 31
0.0
  0
LINE
  5
1BC
  8
1
 62
     7
 10
499.81804630183382
 20
-55.300186502093197
 30
0.0
 11
486.03871819453047
 21
-49.165234364443549
 31
0.0
  0
LINE
  5
1BD
  8
1
 62
     7
 10
508.57454465884382
 20
-25.17898576170489
 30
0.0
 11
493.78727657854461
 21
-22.57159142817898
 31
0.0
  0
LINE
  5
1BE
  8
1
 62
     7
 10
297.28472013108859
 20
118.6328369381765
 30
0.0
 11
293.2774204720738
 21
125.5736835487435
 31
0.0
  0
LINE
  5
1BF
  8
1
 62
     7
 10
301.78523344896922
 20
110.837719211467
 30
0.0
 11
300.28505450473369
 21
113.4361053633277
 31
0.0
  0
LINE
  5
1C0
  8
1
 62
     7
 10
354.7774204720738
 20
130.3533658944026
 30
0.0
 11
354.7774204720738
 21
127.3381325448115
 31
0.0
  0
LINE
  5
1C1
  8
1
 62
     7
 10
376.77742047207369
 20
127.3381325448115
 30
0.0
 11
376.77742047207369
 21
130.3533658944026
 31
0.0
  0
LINE
  5
1C2
  8
1
 62
     7
 10
431.26978643941391
 20
113.4361053633277
 30
0.0
 11
429.76960749517832
 21
110.837719211467
 31
0.0
  0
LINE
  5
1C3
  8
1
 62
     7
 10
438.2774204720738
 20
125.5736835487435
 30
0.0
 11
434.27012081305912
 21
118.6328369381765
 31
0.0
  0
LINE
  5
1C4
  8
1
 62
     7
 10
295.7774204720738
 20
-143.0
 30
0.0
 11
435.7774204720738
 21
-143.0
 31
0.0
  0
LINE
  5
1C5
  8
1
 62
     7
 10
290.77742047207369
 20
-148.0
 30
0.0
 11
290.77742047207369
 21
-150.0
 31
0.0
  0
LINE
  5
1C6
  8
1
 62
     7
 10
225.7774204720738
 20
-135.0
 30
0.0
 11
225.7774204720738
 21
-150.0
 31
0.0
  0
LINE
  5
1C7
  8
1
 62
     7
 10
290.77742047207369
 20
-150.0
 30
0.0
 11
225.7774204720738
 21
-150.0
 31
0.0
  0
LINE
  5
1C8
  8
1
  6
DASHDOT
 62
     3
 10
245.7774204720738
 20
-154.12821279451759
 30
0.0
 11
245.7774204720738
 21
-126.7378485388284
 31
0.0
  0
LINE
  5
1C9
  8
1
  6
DASHED
 62
     3
 10
258.7774204720738
 20
-134.0
 30
0.0
 11
258.7774204720738
 21
-132.0
 31
0.0
  0
LINE
  5
1CA
  8
1
  6
DASHED
 62
     3
 10
232.7774204720738
 20
-134.0
 30
0.0
 11
258.7774204720738
 21
-134.0
 31
0.0
  0
LINE
  5
1CB
  8
1
 62
     3
 10
232.7774204720738
 20
-132.0
 30
0.0
 11
232.7774204720738
 21
-134.0
 31
0.0
  0
LINE
  5
1CC
  8
1
  6
DASHED
 62
     3
 10
252.2774204720738
 20
-150.0
 30
0.0
 11
252.2774204720738
 21
-134.0
 31
0.0
  0
LINE
  5
1CD
  8
1
  6
DASHED
 62
     3
 10
239.2774204720738
 20
-150.0
 30
0.0
 11
239.2774204720738
 21
-134.0
 31
0.0
  0
LINE
  5
1CE
  8
1
 62
     7
 10
290.77742047207369
 20
-102.0
 30
0.0
 11
290.77742047207369
 21
-147.30880184440659
 31
0.0
  0
LINE
  5
1CF
  8
1
 62
     7
 10
260.7774204720738
 20
-101.9803902718555
 30
0.0
 11
260.7774204720738
 21
-129.0
 31
0.0
  0
LINE
  5
1D0
  8
1
 62
     7
 10
292.77742047207369
 20
-100.0
 30
0.0
 11
293.7774204720738
 21
-100.0
 31
0.0
  0
LINE
  5
1D1
  8
1
 62
     7
 10
273.7774204720738
 20
-100.0
 30
0.0
 11
272.77742047207369
 21
-100.0
 31
0.0
  0
LINE
  5
1D2
  8
1
 62
     7
 10
275.7774204720738
 20
-129.0
 30
0.0
 11
275.7774204720738
 21
-102.0
 31
0.0
  0
LINE
  5
1D3
  8
1
 62
     7
 10
276.80646627328952
 20
-100.0
 30
0.0
 11
289.82918695127739
 21
-100.0
 31
0.0
  0
LINE
  5
1D4
  8
1
 62
     7
 10
440.77742047207369
 20
-102.0
 30
0.0
 11
440.77742047207369
 21
-147.30880184440659
 31
0.0
  0
LINE
  5
1D5
  8
1
 62
     7
 10
502.77742047207391
 20
-132.0
 30
0.0
 11
443.7774204720738
 21
-132.0
 31
0.0
  0
LINE
  5
1D6
  8
1
 62
     7
 10
441.72565399287032
 20
-100.0
 30
0.0
 11
454.74837467085808
 21
-100.0
 31
0.0
  0
LINE
  5
1D7
  8
1
 62
     7
 10
437.77742047207369
 20
-100.0
 30
0.0
 11
438.7774204720738
 21
-100.0
 31
0.0
  0
LINE
  5
1D8
  8
1
 62
     7
 10
458.77742047207391
 20
-100.0
 30
0.0
 11
457.77742047207391
 21
-100.0
 31
0.0
  0
LINE
  5
1D9
  8
1
 62
     7
 10
455.7774204720738
 20
-102.0
 30
0.0
 11
455.7774204720738
 21
-129.0
 31
0.0
  0
LINE
  5
1DA
  8
1
 62
     7
 10
470.77742047207391
 20
-129.0
 30
0.0
 11
470.77742047207391
 21
-101.9803902718555
 31
0.0
  0
LINE
  5
1DB
  8
1
  6
DASHED
 62
     3
 10
492.27742047207391
 20
-134.0
 30
0.0
 11
492.27742047207391
 21
-150.0
 31
0.0
  0
LINE
  5
1DC
  8
1
  6
DASHED
 62
     3
 10
479.27742047207391
 20
-134.0
 30
0.0
 11
479.27742047207391
 21
-150.0
 31
0.0
  0
LINE
  5
1DD
  8
1
 62
     3
 10
498.77742047207391
 20
-134.0
 30
0.0
 11
498.77742047207391
 21
-132.0
 31
0.0
  0
LINE
  5
1DE
  8
1
  6
DASHED
 62
     3
 10
472.77742047207403
 20
-134.0
 30
0.0
 11
498.77742047207391
 21
-134.0
 31
0.0
  0
LINE
  5
1DF
  8
1
  6
DASHED
 62
     3
 10
472.77742047207403
 20
-132.0
 30
0.0
 11
472.77742047207403
 21
-134.0
 31
0.0
  0
LINE
  5
1E0
  8
1
  6
DASHDOT
 62
     3
 10
485.77742047207391
 20
-126.7378485388284
 30
0.0
 11
485.77742047207391
 21
-154.12821279451759
 31
0.0
  0
LINE
  5
1E1
  8
1
 62
     7
 10
505.77742047207403
 20
-150.0
 30
0.0
 11
440.77742047207369
 21
-150.0
 31
0.0
  0
LINE
  5
1E2
  8
1
 62
     7
 10
505.77742047207403
 20
-150.0
 30
0.0
 11
505.77742047207403
 21
-135.0
 31
0.0
  0
LINE
  5
1E3
  8
1
 62
     7
 10
440.77742047207369
 20
-150.0
 30
0.0
 11
440.77742047207369
 21
-148.0
 31
0.0
  0
LINE
  5
1E4
  8
1
 62
     7
 10
443.98887176729659
 20
-83.868305544715085
 30
0.0
 11
408.99923764635389
 21
-48.878671423772403
 31
0.0
  0
LINE
  5
1E5
  8
1
 62
     7
 10
449.64572601678901
 20
-78.211451295222673
 30
0.0
 11
414.6560918958462
 21
-43.221817174280091
 31
0.0
  0
LINE
  5
1E6
  8
1
 62
     7
 10
281.90911492735881
 20
-78.211451295222673
 30
0.0
 11
316.8987490483014
 21
-43.22181717427997
 31
0.0
  0
LINE
  5
1E7
  8
1
 62
     7
 10
287.56596917685113
 20
-83.868305544715085
 30
0.0
 11
322.55560329779382
 21
-48.878671423772403
 31
0.0
  0
LINE
  5
1E8
  8
1
 62
     7
 10
287.56596917685113
 20
83.868305544715085
 30
0.0
 11
322.55560329779382
 21
48.878671423772509
 31
0.0
  0
LINE
  5
1E9
  8
1
 62
     7
 10
281.90911492735881
 20
78.211451295222673
 30
0.0
 11
316.8987490483014
 21
43.221817174280091
 31
0.0
  0
LINE
  5
1EA
  8
1
 62
     7
 10
443.98887176729659
 20
83.868305544715085
 30
0.0
 11
408.99923764635389
 21
48.878671423772509
 31
0.0
  0
LINE
  5
1EB
  8
1
 62
     7
 10
449.64572601678901
 20
78.211451295222673
 30
0.0
 11
414.65609189584637
 21
43.221817174280091
 31
0.0
  0
LINE
  5
1EC
  8
1
 62
     7
 10
320.7774204720738
 20
-101.47904474053919
 30
0.0
 11
410.7774204720738
 21
-101.47904474053919
 31
0.0
  0
LINE
  5
1ED
  8
1
 62
     7
 10
410.7774204720738
 20
-101.47904474053919
 30
0.0
 11
410.7774204720738
 21
-117.47904474053919
 31
0.0
  0
LINE
  5
1EE
  8
1
 62
     7
 10
410.7774204720738
 20
-117.47904474053919
 30
0.0
 11
320.7774204720738
 21
-117.47904474053919
 31
0.0
  0
LINE
  5
1EF
  8
1
 62
     7
 10
320.7774204720738
 20
-117.47904474053919
 30
0.0
 11
320.7774204720738
 21
-101.47904474053919
 31
0.0
  0
LINE
  5
1F0
  8
1
 62
     7
 10
360.7774204720738
 20
23.5
 30
0.0
 11
370.7774204720738
 21
23.5
 31
0.0
  0
LINE
  5
1F1
  8
1
 62
     7
 10
370.7774204720738
 20
23.5
 30
0.0
 11
370.7774204720738
 21
15.5
 31
0.0
  0
LINE
  5
1F2
  8
1
 62
     7
 10
370.7774204720738
 20
15.5
 30
0.0
 11
360.7774204720738
 21
15.5
 31
0.0
  0
LINE
  5
1F3
  8
1
 62
     7
 10
360.7774204720738
 20
15.5
 30
0.0
 11
360.7774204720738
 21
23.5
 31
0.0
  0
LINE
  5
1F4
  8
1
  6
DASHDOT
 62
     3
 10
373.7774204720738
 20
0.0
 30
0.0
 11
357.77742047207369
 21
0.0
 31
0.0
  0
LINE
  5
1F5
  8
1
  6
DASHDOT
 62
     3
 10
365.77742047207369
 20
7.9999999999999973
 30
0.0
 11
365.77742047207369
 21
-8.0000000000000018
 31
0.0
  0
LINE
  5
1F6
  8
1
 62
     7
 10
375.2774204720738
 20
-24.595407685048599
 30
0.0
 11
375.2774204720738
 21
-21.512496578342049
 31
0.0
  0
LINE
  5
1F7
  8
1
 62
     7
 10
356.2774204720738
 20
-24.595407685048599
 30
0.0
 11
356.2774204720738
 21
-21.512496578342049
 31
0.0
  0
LINE
  5
1F8
  8
1
 62
     7
 10
370.27742047207369
 20
-22.045407685048641
 30
0.0
 11
370.27742047207369
 21
-27.095407685048599
 31
0.0
  0
LINE
  5
1F9
  8
1
 62
     7
 10
370.27742047207369
 20
-27.095407685048599
 30
0.0
 11
372.7774204720738
 21
-27.095407685048599
 31
0.0
  0
LINE
  5
1FA
  8
1
 62
     7
 10
361.2774204720738
 20
-22.045407685048641
 30
0.0
 11
361.2774204720738
 21
-27.095407685048599
 31
0.0
  0
LINE
  5
1FB
  8
1
 62
     7
 10
361.2774204720738
 20
-27.095407685048599
 30
0.0
 11
358.7774204720738
 21
-27.095407685048599
 31
0.0
  0
LINE
  5
1FC
  8
1
 62
     7
 10
461.10598905827788
 20
95.328568586204113
 30
0.0
 11
451.62547094924957
 21
97.86886575734691
 31
0.0
  0
LINE
  5
1FD
  8
1
 62
     7
 10
451.62547094924957
 20
97.86886575734691
 30
0.0
 11
444.68525001136391
 21
90.928644819461311
 31
0.0
  0
LINE
  5
1FE
  8
1
 62
     7
 10
444.68525001136391
 20
90.928644819461311
 30
0.0
 11
447.22554718250672
 21
81.448126710432817
 31
0.0
  0
LINE
  5
1FF
  8
1
 62
     7
 10
447.22554718250672
 20
81.448126710432817
 30
0.0
 11
456.70606529153508
 21
78.907829539289963
 31
0.0
  0
LINE
  5
200
  8
1
 62
     7
 10
456.70606529153508
 20
78.907829539289963
 30
0.0
 11
463.6462862294207
 21
85.848050477175633
 31
0.0
  0
LINE
  5
201
  8
1
 62
     7
 10
463.6462862294207
 20
85.848050477175633
 30
0.0
 11
461.10598905827788
 21
95.328568586204113
 31
0.0
  0
LINE
  5
202
  8
1
 62
     7
 10
270.44885188586977
 20
95.328568586204113
 30
0.0
 11
267.9085547147269
 21
85.848050477175633
 31
0.0
  0
LINE
  5
203
  8
1
 62
     7
 10
267.9085547147269
 20
85.848050477175633
 30
0.0
 11
274.84877565261257
 21
78.907829539289963
 31
0.0
  0
LINE
  5
204
  8
1
 62
     7
 10
274.84877565261257
 20
78.907829539289963
 30
0.0
 11
284.32929376164111
 21
81.448126710432817
 31
0.0
  0
LINE
  5
205
  8
1
 62
     7
 10
284.32929376164111
 20
81.448126710432817
 30
0.0
 11
286.86959093278381
 21
90.928644819461311
 31
0.0
  0
LINE
  5
206
  8
1
 62
     7
 10
286.86959093278381
 20
90.928644819461311
 30
0.0
 11
279.92936999489831
 21
97.86886575734691
 31
0.0
  0
LINE
  5
207
  8
1
 62
     7
 10
279.92936999489831
 20
97.86886575734691
 30
0.0
 11
270.44885188586977
 21
95.328568586204113
 31
0.0
  0
LINE
  5
208
  8
1
 62
     7
 10
270.44885188586977
 20
-95.328568586204142
 30
0.0
 11
279.92936999489831
 21
-97.868865757346967
 31
0.0
  0
LINE
  5
209
  8
1
 62
     7
 10
279.92936999489831
 20
-97.868865757346967
 30
0.0
 11
286.86959093278381
 21
-90.928644819461269
 31
0.0
  0
LINE
  5
20A
  8
1
 62
     7
 10
286.86959093278381
 20
-90.928644819461269
 30
0.0
 11
284.32929376164111
 21
-81.448126710432817
 31
0.0
  0
LINE
  5
20B
  8
1
 62
     7
 10
284.32929376164111
 20
-81.448126710432817
 30
0.0
 11
274.84877565261257
 21
-78.907829539289963
 31
0.0
  0
LINE
  5
20C
  8
1
 62
     7
 10
274.84877565261257
 20
-78.907829539289963
 30
0.0
 11
267.9085547147269
 21
-85.848050477175661
 31
0.0
  0
LINE
  5
20D
  8
1
 62
     7
 10
267.9085547147269
 20
-85.848050477175661
 30
0.0
 11
270.44885188586977
 21
-95.328568586204142
 31
0.0
  0
LINE
  5
20E
  8
1
 62
     7
 10
461.10598905827788
 20
-95.328568586204142
 30
0.0
 11
463.6462862294207
 21
-85.848050477175661
 31
0.0
  0
LINE
  5
20F
  8
1
 62
     7
 10
463.6462862294207
 20
-85.848050477175661
 30
0.0
 11
456.70606529153508
 21
-78.907829539289963
 31
0.0
  0
LINE
  5
210
  8
1
 62
     7
 10
456.70606529153508
 20
-78.907829539289963
 30
0.0
 11
447.22554718250672
 21
-81.448126710432817
 31
0.0
  0
LINE
  5
211
  8
1
 62
     7
 10
447.22554718250672
 20
-81.448126710432817
 30
0.0
 11
444.68525001136391
 21
-90.928644819461269
 31
0.0
  0
LINE
  5
212
  8
1
 62
     7
 10
444.68525001136391
 20
-90.928644819461269
 30
0.0
 11
451.62547094924957
 21
-97.868865757346967
 31
0.0
  0
LINE
  5
213
  8
1
 62
     7
 10
451.62547094924957
 20
-97.868865757346967
 30
0.0
 11
461.10598905827788
 21
-95.328568586204142
 31
0.0
  0
LINE
  5
214
  8
1
 62
     7
 10
365.77742047207369
 20
86.464101615137807
 30
0.0
 11
362.7774204720738
 21
84.732050807568953
 31
0.0
  0
LINE
  5
215
  8
1
 62
     7
 10
362.7774204720738
 20
84.732050807568953
 30
0.0
 11
362.7774204720738
 21
81.267949192431047
 31
0.0
  0
LINE
  5
216
  8
1
 62
     7
 10
362.7774204720738
 20
81.267949192431047
 30
0.0
 11
365.77742047207369
 21
79.535898384862193
 31
0.0
  0
LINE
  5
217
  8
1
 62
     7
 10
365.77742047207369
 20
79.535898384862193
 30
0.0
 11
368.7774204720738
 21
81.267949192431047
 31
0.0
  0
LINE
  5
218
  8
1
 62
     7
 10
368.7774204720738
 20
81.267949192431047
 30
0.0
 11
368.7774204720738
 21
84.732050807568953
 31
0.0
  0
LINE
  5
219
  8
1
 62
     7
 10
368.7774204720738
 20
84.732050807568953
 30
0.0
 11
365.77742047207369
 21
86.464101615137807
 31
0.0
  0
LINE
  5
21A
  8
1
 62
     7
 10
279.31331885693612
 20
0.0
 30
0.0
 11
281.04536966450502
 21
-3.0
 31
0.0
  0
LINE
  5
21B
  8
1
 62
     7
 10
281.04536966450502
 20
-3.0
 30
0.0
 11
284.50947127964281
 21
-3.0
 31
0.0
  0
LINE
  5
21C
  8
1
 62
     7
 10
284.50947127964281
 20
-3.0
 30
0.0
 11
286.24152208721148
 21
0.0
 31
0.0
  0
LINE
  5
21D
  8
1
 62
     7
 10
286.24152208721148
 20
0.0
 30
0.0
 11
284.50947127964281
 21
2.9999999999999978
 31
0.0
  0
LINE
  5
21E
  8
1
 62
     7
 10
284.50947127964281
 20
2.9999999999999978
 30
0.0
 11
281.04536966450502
 21
2.9999999999999978
 31
0.0
  0
LINE
  5
21F
  8
1
 62
     7
 10
281.04536966450502
 20
2.9999999999999978
 30
0.0
 11
279.31331885693612
 21
0.0
 31
0.0
  0
LINE
  5
220
  8
1
 62
     7
 10
365.77742047207369
 20
-86.464101615137807
 30
0.0
 11
368.7774204720738
 21
-84.732050807568825
 31
0.0
  0
LINE
  5
221
  8
1
 62
     7
 10
368.7774204720738
 20
-84.732050807568825
 30
0.0
 11
368.7774204720738
 21
-81.267949192431047
 31
0.0
  0
LINE
  5
222
  8
1
 62
     7
 10
368.7774204720738
 20
-81.267949192431047
 30
0.0
 11
365.77742047207369
 21
-79.535898384862193
 31
0.0
  0
LINE
  5
223
  8
1
 62
     7
 10
365.77742047207369
 20
-79.535898384862193
 30
0.0
 11
362.7774204720738
 21
-81.267949192431047
 31
0.0
  0
LINE
  5
224
  8
1
 62
     7
 10
362.7774204720738
 20
-81.267949192431047
 30
0.0
 11
362.7774204720738
 21
-84.732050807568825
 31
0.0
  0
LINE
  5
225
  8
1
 62
     7
 10
362.7774204720738
 20
-84.732050807568825
 30
0.0
 11
365.77742047207369
 21
-86.464101615137807
 31
0.0
  0
LINE
  5
226
  8
1
 62
     7
 10
452.24152208721171
 20
0.0
 30
0.0
 11
450.50947127964281
 21
2.9999999999999978
 31
0.0
  0
LINE
  5
227
  8
1
 62
     7
 10
450.50947127964281
 20
2.9999999999999978
 30
0.0
 11
447.04536966450502
 21
2.9999999999999978
 31
0.0
  0
LINE
  5
228
  8
1
 62
     7
 10
447.04536966450502
 20
2.9999999999999978
 30
0.0
 11
445.31331885693612
 21
0.0
 31
0.0
  0
LINE
  5
229
  8
1
 62
     7
 10
445.31331885693612
 20
0.0
 30
0.0
 11
447.04536966450502
 21
-3.0
 31
0.0
  0
LINE
  5
22A
  8
1
 62
     7
 10
447.04536966450502
 20
-3.0
 30
0.0
 11
450.50947127964281
 21
-3.0
 31
0.0
  0
LINE
  5
22B
  8
1
 62
     7
 10
450.50947127964281
 20
-3.0
 30
0.0
 11
452.24152208721171
 21
0.0
 31
0.0
  0
LINE
  5
22C
  8
1
 62
     7
 10
-195.03902107659289
 20
374.91300109050508
 30
0.0
 11
-133.53902107659289
 21
374.91300109050508
 31
0.0
  0
LINE
  5
22D
  8
1
  6
DASHED
 62
     3
 10
-7.0390210765928609
 20
-4.0
 30
0.0
 11
-35.03902107659286
 21
-3.999999999999996
 31
0.0
  0
LINE
  5
22E
  8
1
  6
DASHED
 62
     3
 10
-35.03902107659286
 20
-3.999999999999996
 30
0.0
 11
-35.03902107659286
 21
4.0000000000000044
 31
0.0
  0
LINE
  5
22F
  8
1
  6
DASHED
 62
     3
 10
-35.03902107659286
 20
4.0000000000000044
 30
0.0
 11
-7.0390210765928583
 21
4.0
 31
0.0
  0
LINE
  5
230
  8
1
  6
DASHED
 62
     3
 10
-35.03902107659286
 20
-3.999999999999996
 30
0.0
 11
-37.925772422540987
 21
0.0000000000000038
 31
0.0
  0
LINE
  5
231
  8
1
  6
DASHED
 62
     3
 10
-37.925772422540987
 20
0.0000000000000038
 30
0.0
 11
-35.03902107659286
 21
4.0000000000000044
 31
0.0
  0
LINE
  5
232
  8
1
  6
DASHED
 62
     3
 10
-7.0390210765928609
 20
-5.0
 30
0.0
 11
-27.03902107659286
 21
-4.9999999999999973
 31
0.0
  0
LINE
  5
233
  8
1
  6
DASHED
 62
     3
 10
-27.03902107659286
 20
-4.9999999999999973
 30
0.0
 11
-27.03902107659286
 21
5.0000000000000018
 31
0.0
  0
LINE
  5
234
  8
1
  6
DASHED
 62
     3
 10
-27.03902107659286
 20
5.0000000000000018
 30
0.0
 11
-7.0390210765928583
 21
5.0
 31
0.0
  0
LINE
  5
235
  8
1
  6
DASHED
 62
     3
 10
-27.03902107659286
 20
-4.9999999999999973
 30
0.0
 11
-28.771071884161731
 21
-3.999999999999996
 31
0.0
  0
LINE
  5
236
  8
1
  6
DASHED
 62
     3
 10
-27.03902107659286
 20
5.0000000000000018
 30
0.0
 11
-28.771071884161731
 21
4.0000000000000018
 31
0.0
  0
LINE
  5
237
  8
1
  6
DASHDOT
 62
     3
 10
-4.03902107659286
 20
-0.0000000000000004
 30
0.0
 11
-42.348422153351372
 21
0.0000000000000043
 31
0.0
  0
LINE
  5
238
  8
1
 62
     7
 10
-130.53902107659289
 20
117.63949993962849
 30
0.0
 11
-130.53902107659289
 21
-129.0
 31
0.0
  0
LINE
  5
239
  8
1
 62
     7
 10
-337.53902107659297
 20
117.63949993962849
 30
0.0
 11
-337.53902107659297
 21
-129.0
 31
0.0
  0
LINE
  5
23A
  8
1
 62
     7
 10
-383.03902107659297
 20
60.5
 30
0.0
 11
-383.03902107659297
 21
-60.499999999999993
 31
0.0
  0
LINE
  5
23B
  8
1
  6
DASHED
 62
     3
 10
-461.03902107659297
 20
4.0
 30
0.0
 11
-433.03902107659297
 21
4.0
 31
0.0
  0
LINE
  5
23C
  8
1
  6
DASHED
 62
     3
 10
-433.03902107659297
 20
4.0
 30
0.0
 11
-433.03902107659297
 21
-4.0
 31
0.0
  0
LINE
  5
23D
  8
1
  6
DASHED
 62
     3
 10
-433.03902107659297
 20
-4.0
 30
0.0
 11
-461.03902107659297
 21
-4.0
 31
0.0
  0
LINE
  5
23E
  8
1
  6
DASHED
 62
     3
 10
-433.03902107659297
 20
4.0
 30
0.0
 11
-430.15226973064478
 21
0.0
 31
0.0
  0
LINE
  5
23F
  8
1
  6
DASHED
 62
     3
 10
-430.15226973064478
 20
0.0
 30
0.0
 11
-433.03902107659297
 21
-4.0
 31
0.0
  0
LINE
  5
240
  8
1
  6
DASHED
 62
     3
 10
-461.03902107659297
 20
4.9999999999999982
 30
0.0
 11
-441.03902107659297
 21
5.0
 31
0.0
  0
LINE
  5
241
  8
1
  6
DASHED
 62
     3
 10
-441.03902107659297
 20
5.0
 30
0.0
 11
-441.03902107659297
 21
-5.0
 31
0.0
  0
LINE
  5
242
  8
1
  6
DASHED
 62
     3
 10
-441.03902107659297
 20
-5.0
 30
0.0
 11
-461.03902107659297
 21
-5.0000000000000009
 31
0.0
  0
LINE
  5
243
  8
1
  6
DASHED
 62
     3
 10
-441.03902107659297
 20
5.0
 30
0.0
 11
-439.30697026902408
 21
4.0
 31
0.0
  0
LINE
  5
244
  8
1
  6
DASHED
 62
     3
 10
-441.03902107659297
 20
-5.0
 30
0.0
 11
-439.30697026902408
 21
-4.0
 31
0.0
  0
LINE
  5
245
  8
1
  6
DASHDOT
 62
     3
 10
-464.03902107659297
 20
0.0
 30
0.0
 11
-425.72961999983448
 21
0.0
 31
0.0
  0
LINE
  5
246
  8
1
 62
     7
 10
-8.03902107659286
 20
20.0
 30
0.0
 11
-7.03902107659286
 21
19.0
 31
0.0
  0
LINE
  5
247
  8
1
 62
     7
 10
-8.03902107659286
 20
-20.0
 30
0.0
 11
-79.03902107659286
 21
-20.0
 31
0.0
  0
LINE
  5
248
  8
1
 62
     7
 10
-8.03902107659286
 20
20.0
 30
0.0
 11
-8.03902107659286
 21
-20.0
 31
0.0
  0
LINE
  5
249
  8
1
 62
     7
 10
-460.03902107659297
 20
-20.0
 30
0.0
 11
-461.03902107659297
 21
-19.0
 31
0.0
  0
LINE
  5
24A
  8
1
 62
     7
 10
-460.03902107659297
 20
20.0
 30
0.0
 11
-389.03902107659297
 21
20.0
 31
0.0
  0
LINE
  5
24B
  8
1
 62
     7
 10
-460.03902107659297
 20
20.0
 30
0.0
 11
-460.03902107659297
 21
-20.0
 31
0.0
  0
LINE
  5
24C
  8
1
 62
     7
 10
-8.03902107659286
 20
499.91300109050508
 30
0.0
 11
-79.03902107659286
 21
499.91300109050508
 31
0.0
  0
LINE
  5
24D
  8
1
 62
     7
 10
-8.03902107659286
 20
539.91300109050519
 30
0.0
 11
-7.03902107659286
 21
538.91300109050508
 31
0.0
  0
LINE
  5
24E
  8
1
 62
     7
 10
-8.03902107659286
 20
539.91300109050519
 30
0.0
 11
-8.03902107659286
 21
524.91300109050519
 31
0.0
  0
LINE
  5
24F
  8
1
 62
     7
 10
-8.03902107659286
 20
499.91300109050508
 30
0.0
 11
-8.03902107659286
 21
514.91300109050519
 31
0.0
  0
LINE
  5
250
  8
1
 62
     7
 10
-460.03902107659297
 20
499.91300109050508
 30
0.0
 11
-461.03902107659297
 21
500.91300109050508
 31
0.0
  0
LINE
  5
251
  8
1
 62
     7
 10
-460.03902107659297
 20
539.91300109050519
 30
0.0
 11
-389.03902107659297
 21
539.91300109050519
 31
0.0
  0
LINE
  5
252
  8
1
 62
     7
 10
-460.03902107659297
 20
539.91300109050519
 30
0.0
 11
-460.03902107659297
 21
524.91300109050519
 31
0.0
  0
LINE
  5
253
  8
1
 62
     7
 10
-460.03902107659297
 20
499.91300109050508
 30
0.0
 11
-460.03902107659297
 21
514.91300109050519
 31
0.0
  0
ARC
  5
254
  8
1
 62
     7
 10
-231.98902107659279
 20
-30.156546709565699
 30
0.0
 40
1.7425000000001201
 50
180.0
 51
270.0
  0
ARC
  5
255
  8
1
 62
     7
 10
-236.08902107659279
 20
-30.156546709565699
 30
0.0
 40
1.7425000000000701
 50
270.0
 51
0.0
  0
ARC
  5
256
  8
1
 62
     7
 10
-236.08902107659279
 20
-34.256546709565711
 30
0.0
 40
1.742499999999892
 50
0.0
 51
90.0
  0
ARC
  5
257
  8
1
 62
     7
 10
-231.98902107659279
 20
-34.256546709565711
 30
0.0
 40
1.7424999999999491
 50
90.0
 51
180.0
  0
ARC
  5
258
  8
1
 62
     7
 10
-242.73902107659279
 20
-29.506546709565718
 30
0.0
 40
2.7000000000000601
 50
270.0
 51
0.0
  0
ARC
  5
259
  8
1
 62
     7
 10
-234.03902107659289
 20
-29.506546709565718
 30
0.0
 40
6.0
 50
0.0
 51
180.0
  0
ARC
  5
25A
  8
1
 62
     7
 10
-225.33902107659301
 20
-29.506546709565718
 30
0.0
 40
2.6999999999997901
 50
180.0
 51
270.0
  0
ARC
  5
25B
  8
1
 62
     7
 10
-344.23782140105737
 20
-95.738
 30
0.0
 40
3.8011996755355488
 50
139.86930256112831
 51
220.13069743887169
  0
ARC
  5
25C
  8
1
 62
     7
 10
-334.17656175031721
 20
-88.388000000000019
 30
0.0
 40
13.86245932627588
 50
159.30013540055731
 51
200.69986459944269
  0
ARC
  5
25D
  8
1
 62
     7
 10
-344.2378214010576
 20
-81.038000000000025
 30
0.0
 40
3.8011996755353858
 50
139.86930256112601
 51
220.1306974388738
  0
ARC
  5
25E
  8
1
 62
     7
 10
-344.23782140105737
 20
95.738000000000028
 30
0.0
 40
3.8011996755355488
 50
139.86930256112831
 51
220.13069743887169
  0
ARC
  5
25F
  8
1
 62
     7
 10
-334.17656175031721
 20
88.388000000000019
 30
0.0
 40
13.86245932627588
 50
159.30013540055731
 51
200.6998645994428
  0
ARC
  5
260
  8
1
 62
     7
 10
-344.2378214010576
 20
81.038000000000025
 30
0.0
 40
3.8011996755353761
 50
139.86930256112609
 51
220.13069743887399
  0
ARC
  5
261
  8
1
 62
     7
 10
-344.23782140105732
 20
424.17500109050508
 30
0.0
 40
3.8011996755355999
 50
139.86930256113021
 51
220.1306974388705
  0
ARC
  5
262
  8
1
 62
     7
 10
-334.17656175031738
 20
431.52500109050499
 30
0.0
 40
13.862459326275729
 50
159.30013540055691
 51
200.6998645994428
  0
ARC
  5
263
  8
1
 62
     7
 10
-344.23782140105777
 20
438.87500109050478
 30
0.0
 40
3.8011996755354058
 50
139.8693025611243
 51
220.130697438873
  0
ARC
  5
264
  8
1
 62
     7
 10
-344.23782140105732
 20
615.65100109050479
 30
0.0
 40
3.8011996755356741
 50
139.8693025611289
 51
220.13069743886979
  0
ARC
  5
265
  8
1
 62
     7
 10
-334.17656175031738
 20
608.301001090505
 30
0.0
 40
13.86245932627571
 50
159.3001354005572
 51
200.6998645994428
  0
ARC
  5
266
  8
1
 62
     7
 10
-344.23782140105777
 20
600.95100109050497
 30
0.0
 40
3.8011996755352961
 50
139.8693025611262
 51
220.13069743887499
  0
ARC
  5
267
  8
1
 62
     7
 10
-137.55651952885529
 20
-80.119008471831265
 30
0.0
 40
7.1474438240740374
 50
268.26574036398182
 51
349.05784536871562
  0
ARC
  5
268
  8
1
 62
     7
 10
-138.0679377434395
 20
-55.09397317694863
 30
0.0
 40
7.5289166668465937
 50
266.4632034527724
 51
358.4310890205802
  0
ARC
  5
269
  8
1
 62
     7
 10
-137.88870139713859
 20
-17.803236658286959
 30
0.0
 40
7.4536821722204287
 50
278.29262857725638
 51
350.41749605763232
  0
ARC
  5
26A
  8
1
 62
     7
 10
-137.88870139713859
 20
-47.924437398675302
 30
0.0
 40
7.4536821722204181
 50
278.29262857725661
 51
350.41749605763232
  0
ARC
  5
26B
  8
1
 62
     7
 10
-127.3402207521284
 20
95.738000000000028
 30
0.0
 40
3.8011996755356141
 50
319.8693025611289
 51
40.130697438870918
  0
ARC
  5
26C
  8
1
 62
     7
 10
-137.40148040286951
 20
88.388000000000019
 30
0.0
 40
13.86245932627669
 50
339.30013540055859
 51
20.699864599441419
  0
ARC
  5
26D
  8
1
 62
     7
 10
-127.3402207521284
 20
81.038000000000025
 30
0.0
 40
3.8011996755356141
 50
319.8693025611289
 51
40.130697438870918
  0
ARC
  5
26E
  8
1
 62
     7
 10
-127.3402207521284
 20
-95.738000000000028
 30
0.0
 40
3.8011996755356141
 50
319.8693025611289
 51
40.130697438870918
  0
ARC
  5
26F
  8
1
 62
     7
 10
-137.40148040286951
 20
-88.388000000000034
 30
0.0
 40
13.86245932627669
 50
339.30013540055859
 51
20.699864599441419
  0
ARC
  5
270
  8
1
 62
     7
 10
-127.3402207521284
 20
-81.038000000000025
 30
0.0
 40
3.8011996755356141
 50
319.8693025611289
 51
40.130697438870918
  0
ARC
  5
271
  8
1
 62
     7
 10
-330.5215226243306
 20
-80.119008471831265
 30
0.0
 40
7.1474438240740277
 50
190.9421546312841
 51
271.73425963601738
  0
ARC
  5
272
  8
1
 62
     7
 10
-330.0101044097463
 20
-55.09397317694863
 30
0.0
 40
7.5289166668465803
 50
181.5689109794198
 51
273.5367965472276
  0
ARC
  5
273
  8
1
 62
     7
 10
-330.18934075604727
 20
-17.803236658286959
 30
0.0
 40
7.4536821722204314
 50
189.58250394236751
 51
261.70737142274311
  0
ARC
  5
274
  8
1
 62
     7
 10
-330.18934075604727
 20
-47.924437398675302
 30
0.0
 40
7.4536821722204314
 50
189.58250394236751
 51
261.70737142274311
  0
ARC
  5
275
  8
1
 62
     7
 10
-127.3402207521284
 20
615.65100109050513
 30
0.0
 40
3.8011996755356421
 50
319.86930256112851
 51
40.13069743887025
  0
ARC
  5
276
  8
1
 62
     7
 10
-137.40148040286951
 20
608.301001090505
 30
0.0
 40
13.86245932627669
 50
339.30013540055882
 51
20.699864599441302
  0
ARC
  5
277
  8
1
 62
     7
 10
-127.3402207521284
 20
600.95100109050497
 30
0.0
 40
3.8011996755356421
 50
319.86930256112851
 51
40.130697438871557
  0
ARC
  5
278
  8
1
 62
     7
 10
-127.3402207521284
 20
424.17500109050491
 30
0.0
 40
3.8011996755356421
 50
319.86930256112851
 51
40.130697438870918
  0
ARC
  5
279
  8
1
 62
     7
 10
-137.40148040286951
 20
431.52500109050499
 30
0.0
 40
13.86245932627669
 50
339.30013540055882
 51
20.699864599441529
  0
ARC
  5
27A
  8
1
 62
     7
 10
-127.3402207521284
 20
438.87500109050501
 30
0.0
 40
3.8011996755356039
 50
319.86930256112908
 51
40.130697438870918
  0
ARC
  5
27B
  8
1
 62
     7
 10
221.061934153165
 20
-28.206546709565721
 30
0.0
 40
2.5
 50
270.0
 51
25.507821205343529
  0
ARC
  5
27C
  8
1
 62
     7
 10
221.061934153165
 20
28.206546709565711
 30
0.0
 40
2.4999999999998921
 50
334.4921787946563
 51
74.999999999994273
  0
ARC
  5
27D
  8
1
 62
     7
 10
365.77742047207391
 20
0.0000000000000107
 30
0.0
 40
115.0
 50
43.342799618080932
 51
46.672450716174247
  0
ARC
  5
27E
  8
1
 62
     7
 10
365.77742047207391
 20
0.0000000000000107
 30
0.0
 40
115.0
 50
313.33710347213707
 51
316.6215071364748
  0
ARC
  5
27F
  8
1
 62
     7
 10
365.77742047207391
 20
0.0000000000000107
 30
0.0
 40
115.0
 50
223.38596325847749
 51
226.59776504570999
  0
ARC
  5
280
  8
1
 62
     7
 10
365.77742047207391
 20
0.0000000000000107
 30
0.0
 40
115.0
 50
133.5399172816291
 51
136.6483527723824
  0
ARC
  5
281
  8
1
 62
     7
 10
365.77742047207391
 20
0.0000000000000107
 30
0.0
 40
144.99999999999989
 50
336.20666241861261
 51
222.8334280660672
  0
ARC
  5
282
  8
1
 62
     7
 10
365.77742047207391
 20
0.0000000000000107
 30
0.0
 40
127.9999999999999
 50
190.8815083068059
 51
201.35463965843741
  0
ARC
  5
283
  8
1
 62
     7
 10
365.77742047207391
 20
0.0000000000000107
 30
0.0
 40
128.0
 50
206.64536034156231
 51
216.11849169319399
  0
ARC
  5
284
  8
1
 62
     7
 10
365.77742047207391
 20
0.0000000000000107
 30
0.0
 40
134.0
 50
190.0
 51
202.2894241196887
  0
ARC
  5
285
  8
1
 62
     7
 10
365.77742047207391
 20
0.0000000000000107
 30
0.0
 40
133.99999999999989
 50
205.71057588031121
 51
216.99999999999989
  0
ARC
  5
286
  8
1
 62
     7
 10
365.77742047207391
 20
0.0000000000000107
 30
0.0
 40
128.0000000000002
 50
275.88150830680593
 51
288.11849169319407
  0
ARC
  5
287
  8
1
 62
     7
 10
365.77742047207391
 20
0.0000000000000107
 30
0.0
 40
134.0000000000002
 50
274.99999999999989
 51
288.99999999999977
  0
ARC
  5
288
  8
1
 62
     7
 10
365.77742047207391
 20
0.0000000000000107
 30
0.0
 40
134.0000000000002
 50
251.0
 51
264.99999999999989
  0
ARC
  5
289
  8
1
 62
     7
 10
365.77742047207391
 20
0.0000000000000107
 30
0.0
 40
127.9999999999999
 50
251.8815083068059
 51
264.11849169319402
  0
ARC
  5
28A
  8
1
 62
     7
 10
365.77742047207391
 20
0.0000000000000107
 30
0.0
 40
134.0
 50
322.99999999999977
 51
334.28942411968882
  0
ARC
  5
28B
  8
1
 62
     7
 10
365.77742047207391
 20
0.0000000000000107
 30
0.0
 40
134.0000000000002
 50
337.71057588031113
 51
349.99999999999977
  0
ARC
  5
28C
  8
1
 62
     7
 10
365.77742047207391
 20
0.0000000000000107
 30
0.0
 40
127.9999999999999
 50
323.88150830680581
 51
333.35463965843752
  0
ARC
  5
28D
  8
1
 62
     7
 10
365.77742047207391
 20
0.0000000000000107
 30
0.0
 40
128.0
 50
338.64536034156231
 51
349.1184916931939
  0
ARC
  5
28E
  8
1
 62
     7
 10
365.77742047207391
 20
0.0000000000000107
 30
0.0
 40
134.99999999999989
 50
60.836464450062721
 51
119.16353554993729
  0
ARC
  5
28F
  8
1
 62
     7
 10
365.77742047207391
 20
0.0000000000000107
 30
0.0
 40
133.0
 50
95.695214591156045
 51
119.1252212891584
  0
ARC
  5
290
  8
1
 62
     7
 10
365.77742047207391
 20
0.0000000000000107
 30
0.0
 40
126.0
 50
95.829153279898776
 51
119.10471701342991
  0
ARC
  5
291
  8
1
 62
     7
 10
365.77742047207391
 20
0.0000000000000107
 30
0.0
 40
125.9999999999999
 50
60.89528298657018
 51
84.170846720101238
  0
ARC
  5
292
  8
1
 62
     7
 10
365.77742047207391
 20
0.0000000000000107
 30
0.0
 40
133.0
 50
60.874778710841639
 51
84.304785408843927
  0
ARC
  5
293
  8
1
 62
     7
 10
365.77742047207391
 20
0.0000000000000107
 30
0.0
 40
145.0
 50
317.16657193393257
 51
337.58077376568662
  0
ARC
  5
294
  8
1
 62
     7
 10
365.77742047207391
 20
0.0000000000000107
 30
0.0
 40
19.999999999999989
 50
104.47751218593029
 51
75.522487814070431
  0
ARC
  5
295
  8
1
 62
     7
 10
365.77742047207369
 20
1.32000000000005
 30
0.0
 40
24.730000000000071
 50
292.59090733090011
 51
247.40909266909989
  0
ARC
  5
296
  8
1
 62
     7
 10
365.77742047207391
 20
0.0000000000000107
 30
0.0
 40
22.500000000000028
 50
102.8395884069044
 51
77.1604115930961
  0
ARC
  5
297
  8
1
 62
     7
 10
365.77742047207391
 20
0.0000000000000107
 30
0.0
 40
115.0
 50
223.53991728162919
 51
226.6483527723824
  0
ARC
  5
298
  8
1
 62
     7
 10
-273.03902107659292
 20
-32.206546709565778
 30
0.0
 40
5.0
 50
180.0
 51
270.0
  0
ARC
  5
299
  8
1
 62
     7
 10
-269.53902107659292
 20
-27.206546709565782
 30
0.0
 40
5.0
 50
180.0
 51
270.0
  0
ARC
  5
29A
  8
1
 62
     7
 10
-195.03902107659289
 20
-32.206546709565778
 30
0.0
 40
5.0
 50
270.0
 51
0.0
  0
ARC
  5
29B
  8
1
 62
     7
 10
-198.53902107659289
 20
-27.206546709565782
 30
0.0
 40
4.9999999999999947
 50
270.0
 51
0.0
  0
ARC
  5
29C
  8
1
 62
     7
 10
-198.53902107659289
 20
24.293453290434211
 30
0.0
 40
5.0
 50
0.0
 51
90.0
  0
ARC
  5
29D
  8
1
 62
     7
 10
-195.03902107659289
 20
28.793453290434218
 30
0.0
 40
5.0
 50
0.0
 51
90.0
  0
ARC
  5
29E
  8
1
 62
     7
 10
-269.53902107659292
 20
24.293453290434211
 30
0.0
 40
5.0
 50
90.0
 51
180.0
  0
ARC
  5
29F
  8
1
 62
     7
 10
-273.03902107659292
 20
28.793453290434218
 30
0.0
 40
5.0000000000000107
 50
90.0
 51
180.0
  0
ARC
  5
2A0
  8
1
 62
     7
 10
-192.03902107659289
 20
344.32497152780542
 30
0.0
 40
2.0
 50
270.0
 51
0.0
  0
ARC
  5
2A1
  8
1
 62
     7
 10
-276.03902107659292
 20
344.32497152780542
 30
0.0
 40
2.0
 50
180.0
 51
270.0
  0
ARC
  5
2A2
  8
1
 62
     7
 10
-192.03902107659289
 20
369.86245644707179
 30
0.0
 40
2.0
 50
270.0
 51
0.0
  0
ARC
  5
2A3
  8
1
 62
     7
 10
-276.03902107659292
 20
369.86245644707179
 30
0.0
 40
2.0
 50
180.0
 51
270.0
  0
ARC
  5
2A4
  8
1
 62
     7
 10
-195.53902107659289
 20
344.32497152780542
 30
0.0
 40
2.0
 50
270.0
 51
0.0
  0
ARC
  5
2A5
  8
1
 62
     7
 10
-272.53902107659292
 20
344.3249715278053
 30
0.0
 40
2.0
 50
180.0
 51
270.0
  0
ARC
  5
2A6
  8
1
 62
     7
 10
-271.03902107659292
 20
376.90199758964383
 30
0.0
 40
2.0
 50
90.0
 51
180.0
  0
ARC
  5
2A7
  8
1
 62
     7
 10
-197.03902107659289
 20
376.901997589644
 30
0.0
 40
2.0
 50
0.0
 51
90.0
  0
ARC
  5
2A8
  8
1
 62
     7
 10
-374.03902107659269
 20
434.91300109050491
 30
0.0
 40
10.0
 50
90.0
 51
180.0
  0
ARC
  5
2A9
  8
1
 62
     7
 10
-374.03902107659269
 20
389.91300109050479
 30
0.0
 40
10.0
 50
180.0
 51
270.0
  0
ARC
  5
2AA
  8
1
 62
     7
 10
-374.03902107659269
 20
604.91300109050508
 30
0.0
 40
10.0
 50
180.0
 51
270.0
  0
ARC
  5
2AB
  8
1
 62
     7
 10
-374.03902107659269
 20
649.91300109050519
 30
0.0
 40
10.0
 50
90.0
 51
180.0
  0
ARC
  5
2AC
  8
1
 62
     7
 10
-94.03902107659286
 20
434.91300109050491
 30
0.0
 40
10.0
 50
0.0
 51
90.0
  0
ARC
  5
2AD
  8
1
 62
     7
 10
-94.03902107659286
 20
389.91300109050479
 30
0.0
 40
10.0
 50
270.0
 51
0.0
  0
ARC
  5
2AE
  8
1
 62
     7
 10
-94.03902107659286
 20
604.91300109050508
 30
0.0
 40
10.0
 50
270.0
 51
0.0
  0
ARC
  5
2AF
  8
1
 62
     7
 10
-94.03902107659286
 20
649.91300109050519
 30
0.0
 40
10.0
 50
0.0
 51
90.0
  0
ARC
  5
2B0
  8
1
 62
     7
 10
-127.5390210765928
 20
-98.503522777537952
 30
0.0
 40
2.9999999999999858
 50
180.0
 51
233.02240364732791
  0
ARC
  5
2B1
  8
1
 62
     7
 10
-127.5390210765928
 20
-129.0
 30
0.0
 40
2.9999999999999858
 50
180.0
 51
270.0
  0
ARC
  5
2B2
  8
1
 62
     7
 10
-87.039021076592874
 20
-135.0
 30
0.0
 40
3.0
 50
0.0
 51
90.0
  0
ARC
  5
2B3
  8
1
 62
     7
 10
-135.86457915284791
 20
-96.821616256666147
 30
0.0
 40
3.0
 50
270.0
 51
0.0
  0
ARC
  5
2B4
  8
1
 62
     7
 10
-144.53902107659289
 20
-75.226693769185914
 30
0.0
 40
3.0
 50
270.0
 51
0.0
  0
ARC
  5
2B5
  8
1
 62
     7
 10
-144.53902107659289
 20
-46.165234364443592
 30
0.0
 40
3.0
 50
270.0
 51
0.0
  0
ARC
  5
2B6
  8
1
 62
     7
 10
-125.5390210765929
 20
142.0
 30
0.0
 40
3.0
 50
0.0
 51
90.0
  0
ARC
  5
2B7
  8
1
 62
     7
 10
-125.5390210765929
 20
120.63949993962849
 30
0.0
 40
3.0
 50
270.0
 51
0.0
  0
ARC
  5
2B8
  8
1
 62
     7
 10
-213.03902107659289
 20
-46.165234364443592
 30
0.0
 40
3.0
 50
180.0
 51
270.0
  0
ARC
  5
2B9
  8
1
 62
     7
 10
-208.03902107659289
 20
-129.0
 30
0.0
 40
3.0
 50
180.0
 51
270.0
  0
ARC
  5
2BA
  8
1
 62
     7
 10
-213.03902107659289
 20
-52.300186502093233
 30
0.0
 40
3.0
 50
180.0
 51
270.0
  0
ARC
  5
2BB
  8
1
 62
     7
 10
-340.53902107659297
 20
-98.503522777537952
 30
0.0
 40
2.9999999999999929
 50
306.97759635267181
 51
0.0
  0
ARC
  5
2BC
  8
1
 62
     7
 10
-340.53902107659297
 20
-129.0
 30
0.0
 40
3.0
 50
270.0
 51
0.0
  0
ARC
  5
2BD
  8
1
 62
     7
 10
-381.03902107659297
 20
-135.0
 30
0.0
 40
3.0
 50
90.0
 51
180.0
  0
ARC
  5
2BE
  8
1
 62
     7
 10
-332.21346300033792
 20
-96.821616256666147
 30
0.0
 40
3.0
 50
180.0
 51
270.0
  0
ARC
  5
2BF
  8
1
 62
     7
 10
-323.53902107659297
 20
-75.226693769185914
 30
0.0
 40
3.0
 50
180.0
 51
270.0
  0
ARC
  5
2C0
  8
1
 62
     7
 10
-323.53902107659297
 20
-46.165234364443592
 30
0.0
 40
3.0
 50
180.0
 51
270.0
  0
ARC
  5
2C1
  8
1
 62
     7
 10
-342.53902107659297
 20
142.0
 30
0.0
 40
3.0
 50
90.0
 51
180.0
  0
ARC
  5
2C2
  8
1
 62
     7
 10
-342.53902107659297
 20
120.63949993962849
 30
0.0
 40
3.0
 50
180.0
 51
270.0
  0
ARC
  5
2C3
  8
1
 62
     7
 10
-255.039021076593
 20
-46.165234364443592
 30
0.0
 40
3.0
 50
270.0
 51
0.0
  0
ARC
  5
2C4
  8
1
 62
     7
 10
-260.03902107659297
 20
-129.0
 30
0.0
 40
3.0
 50
270.0
 51
0.0
  0
ARC
  5
2C5
  8
1
 62
     7
 10
-255.039021076593
 20
-52.300186502093233
 30
0.0
 40
3.0
 50
270.0
 51
0.0
  0
ARC
  5
2C6
  8
1
 62
     7
 10
-125.5390210765929
 20
450.41300109050508
 30
0.0
 40
3.0
 50
270.0
 51
0.0
  0
ARC
  5
2C7
  8
1
 62
     7
 10
-125.5390210765929
 20
589.41300109050508
 30
0.0
 40
3.0
 50
0.0
 51
90.0
  0
ARC
  5
2C8
  8
1
 62
     7
 10
-342.53902107659297
 20
589.41300109050508
 30
0.0
 40
3.0
 50
90.0
 51
180.0
  0
ARC
  5
2C9
  8
1
 62
     7
 10
-342.53902107659297
 20
450.41300109050508
 30
0.0
 40
3.0
 50
180.0
 51
270.0
  0
ARC
  5
2CA
  8
1
 62
     7
 10
-133.53902107659289
 20
661.91300109050519
 30
0.0
 40
3.0
 50
0.0
 51
90.0
  0
ARC
  5
2CB
  8
1
 62
     7
 10
-334.53902107659297
 20
661.91300109050519
 30
0.0
 40
3.0
 50
90.0
 51
180.0
  0
ARC
  5
2CC
  8
1
 62
     7
 10
-334.53902107659297
 20
377.91300109050508
 30
0.0
 40
3.0
 50
180.0
 51
270.0
  0
ARC
  5
2CD
  8
1
 62
     7
 10
-133.53902107659289
 20
377.91300109050508
 30
0.0
 40
3.0
 50
270.0
 51
0.0
  0
ARC
  5
2CE
  8
1
 62
     7
 10
-399.03902107659297
 20
519.91300109050519
 30
0.0
 40
5.0
 50
270.0
 51
90.0
  0
ARC
  5
2CF
  8
1
 62
     7
 10
-69.039021076592576
 20
519.91300109050519
 30
0.0
 40
5.0
 50
90.0
 51
270.0
  0
ARC
  5
2D0
  8
1
 62
     7
 10
211.03329745641369
 20
30.293453290434279
 30
0.0
 40
1.0
 50
270.0
 51
340.55180070494271
  0
ARC
  5
2D1
  8
1
 62
     7
 10
189.2594604123413
 20
28.293453290434279
 30
0.0
 40
1.0
 50
90.0
 51
180.0
  0
ARC
  5
2D2
  8
1
 62
     7
 10
214.0370702449174
 20
32.793453290434279
 30
0.0
 40
1.0
 50
90.0
 51
160.55180070494009
  0
ARC
  5
2D3
  8
1
 62
     7
 10
217.84584937604691
 20
32.793453290434279
 30
0.0
 40
1.0000000000000591
 50
340.55180070494271
 51
90.0
  0
ARC
  5
2D4
  8
1
 62
     7
 10
193.48185057976499
 20
-36.206546709565721
 30
0.0
 40
1.0
 50
270.0
 51
340.55180070494669
  0
ARC
  5
2D5
  8
1
 62
     7
 10
189.6730714486354
 20
-36.206546709565721
 30
0.0
 40
1.00000000000006
 50
160.55180070494231
 51
270.0
  0
ARC
  5
2D6
  8
1
 62
     7
 10
189.1768009497155
 20
-32.806546709565623
 30
0.0
 40
0.5999999999999625
 50
340.55180070494441
 51
90.0
  0
ARC
  5
2D7
  8
1
 62
     7
 10
188.85946041234109
 20
-31.606546709565571
 30
0.0
 40
0.5999999999997954
 50
180.0
 51
270.0
  0
ARC
  5
2D8
  8
1
 62
     7
 10
196.56193415316511
 20
-36.206546709565721
 30
0.0
 40
1.0
 50
270.0
 51
0.0
  0
ARC
  5
2D9
  8
1
 62
     7
 10
198.561934153165
 20
-31.706546709565721
 30
0.0
 40
1.0
 50
90.0
 51
180.0
  0
ARC
  5
2DA
  8
1
 62
     7
 10
505.63925121426149
 20
-129.72648838030381
 30
0.0
 40
2.9999999999997988
 50
183.6291188498486
 51
241.512189074551
  0
ARC
  5
2DB
  8
1
 62
     7
 10
501.19839525505211
 20
-59.708957358406451
 30
0.0
 40
3.0000000000002331
 50
156.20666241861079
 51
183.62911884984629
  0
ARC
  5
2DC
  8
1
 62
     7
 10
230.35644568909561
 20
-59.708957358406451
 30
0.0
 40
2.9999999999999352
 50
356.37088115015359
 51
23.793337581388709
  0
ARC
  5
2DD
  8
1
 62
     7
 10
225.91558972988631
 20
-129.72648838030381
 30
0.0
 40
2.9999999999999871
 50
298.48781092544903
 51
356.37088115015132
  0
ARC
  5
2DE
  8
1
 62
     7
 10
249.5834891803753
 20
-58.300688940869577
 30
0.0
 40
2.0000000000000351
 50
26.645360341563869
 51
114.000000000002
  0
ARC
  5
2DF
  8
1
 62
     7
 10
260.76346154688588
 20
-76.629422749091304
 30
0.0
 40
2.0000000000000631
 50
307.0000000000033
 51
36.118491693188631
  0
ARC
  5
2E0
  8
1
 62
     7
 10
244.7026494634656
 20
-47.338143449158338
 30
0.0
 40
2.0000000000000231
 50
293.99999999999977
 51
21.35463965844087
  0
ARC
  5
2E1
  8
1
 62
     7
 10
238.11486072093689
 20
-24.541206934203501
 30
0.0
 40
2.0000000000000688
 50
10.881508306804291
 51
100.0000000000005
  0
ARC
  5
2E2
  8
1
 62
     7
 10
406.20523436305751
 20
-123.5540038363629
 30
0.0
 40
1.999999999999948
 50
18.999999999999758
 51
108.1184916931939
  0
ARC
  5
2E3
  8
1
 62
     7
 10
379.0987154885222
 20
-129.3156722871777
 30
0.0
 40
1.9999999999998961
 50
95.881508306807149
 51
184.9999999999994
  0
ARC
  5
2E4
  8
1
 62
     7
 10
352.45612545562562
 20
-129.3156722871777
 30
0.0
 40
1.9999999999999061
 50
355.0
 51
84.11849169319342
  0
ARC
  5
2E5
  8
1
 62
     7
 10
325.34960658109031
 20
-123.5540038363629
 30
0.0
 40
1.999999999999996
 50
71.881508306811881
 51
161.00000000000131
  0
ARC
  5
2E6
  8
1
 62
     7
 10
493.4399802232108
 20
-24.541206934203501
 30
0.0
 40
2.000000000000095
 50
80.000000000001975
 51
169.11849169319399
  0
ARC
  5
2E7
  8
1
 62
     7
 10
486.85219148068188
 20
-47.338143449158338
 30
0.0
 40
1.999999999999899
 50
158.645360341562
 51
246.00000000000239
  0
ARC
  5
2E8
  8
1
 62
     7
 10
470.79137939726172
 20
-76.629422749091304
 30
0.0
 40
1.999999999999911
 50
143.88150830680391
 51
233.0000000000019
  0
ARC
  5
2E9
  8
1
 62
     7
 10
481.9713517637723
 20
-58.300688940869577
 30
0.0
 40
1.9999999999999649
 50
66.000000000003851
 51
153.35463965843891
  0
ARC
  5
2EA
  8
1
 62
     7
 10
299.01677093865737
 20
119.6328369381765
 30
0.0
 40
2.0000000000000151
 50
209.9999999999996
 51
299.16353554993788
  0
ARC
  5
2EB
  8
1
 62
     7
 10
302.01710531230282
 20
114.4361053633277
 30
0.0
 40
1.9999999999998901
 50
119.1252212891654
 51
209.99999999999801
  0
ARC
  5
2EC
  8
1
 62
     7
 10
303.51728425653812
 20
111.837719211467
 30
0.0
 40
1.999999999999966
 50
210.0000000000004
 51
299.10471701342959
  0
ARC
  5
2ED
  8
1
 62
     7
 10
352.7774204720738
 20
127.3381325448115
 30
0.0
 40
2.0000000000000271
 50
275.82915327990202
 51
0.0
  0
ARC
  5
2EE
  8
1
 62
     7
 10
352.7774204720738
 20
130.3533658944026
 30
0.0
 40
2.0
 50
0.0
 51
95.695214591151768
  0
ARC
  5
2EF
  8
1
 62
     7
 10
378.77742047207369
 20
130.3533658944026
 30
0.0
 40
2.0000000000000422
 50
84.304785408840374
 51
180.0
  0
ARC
  5
2F0
  8
1
 62
     7
 10
378.77742047207369
 20
127.3381325448115
 30
0.0
 40
2.0
 50
180.0
 51
264.17084672010151
  0
ARC
  5
2F1
  8
1
 62
     7
 10
428.03755668760959
 20
111.837719211467
 30
0.0
 40
2.0000000000000662
 50
240.8952829865689
 51
329.99999999999858
  0
ARC
  5
2F2
  8
1
 62
     7
 10
429.53773563184501
 20
114.4361053633277
 30
0.0
 40
2.000000000000115
 50
330.00000000000182
 51
60.874778710838832
  0
ARC
  5
2F3
  8
1
 62
     7
 10
432.53807000549023
 20
119.6328369381765
 30
0.0
 40
2.0000000000000662
 50
240.8364644500648
 51
330.00000000000011
  0
ARC
  5
2F4
  8
1
 62
     7
 10
292.7774204720738
 20
-102.0
 30
0.0
 40
2.0
 50
90.0
 51
180.0
  0
ARC
  5
2F5
  8
1
 62
     7
 10
295.7774204720738
 20
-148.0
 30
0.0
 40
5.0
 50
90.0
 51
180.0
  0
ARC
  5
2F6
  8
1
 62
     7
 10
257.77742047207369
 20
-129.0
 30
0.0
 40
3.0
 50
270.0
 51
0.0
  0
ARC
  5
2F7
  8
1
 62
     7
 10
272.77742047207369
 20
-129.0
 30
0.0
 40
3.0
 50
270.0
 51
0.0
  0
ARC
  5
2F8
  8
1
 62
     7
 10
287.7774204720738
 20
-135.0
 30
0.0
 40
3.0
 50
0.0
 51
90.0
  0
ARC
  5
2F9
  8
1
 62
     7
 10
228.7774204720738
 20
-135.0
 30
0.0
 40
2.999999999999952
 50
118.4878109254512
 51
180.0
  0
ARC
  5
2FA
  8
1
 62
     7
 10
255.7774204720738
 20
-101.9803902718555
 30
0.0
 40
5.0
 50
0.0
 51
42.833428066063959
  0
ARC
  5
2FB
  8
1
 62
     7
 10
273.7774204720738
 20
-102.0
 30
0.0
 40
2.0
 50
0.0
 51
90.0
  0
ARC
  5
2FC
  8
1
 62
     7
 10
502.77742047207391
 20
-135.0
 30
0.0
 40
3.0
 50
0.0
 51
90.0
  0
ARC
  5
2FD
  8
1
 62
     7
 10
443.7774204720738
 20
-135.0
 30
0.0
 40
3.0
 50
90.0
 51
180.0
  0
ARC
  5
2FE
  8
1
 62
     7
 10
475.77742047207391
 20
-101.9803902718555
 30
0.0
 40
4.9999999999999716
 50
137.1665719339353
 51
180.0
  0
ARC
  5
2FF
  8
1
 62
     7
 10
458.77742047207391
 20
-129.0
 30
0.0
 40
3.000000000000226
 50
180.0
 51
270.0
  0
ARC
  5
300
  8
1
 62
     7
 10
473.77742047207391
 20
-129.0
 30
0.0
 40
3.0
 50
180.0
 51
270.0
  0
ARC
  5
301
  8
1
 62
     7
 10
435.7774204720738
 20
-148.0
 30
0.0
 40
5.0
 50
0.0
 51
90.0
  0
ARC
  5
302
  8
1
 62
     7
 10
438.7774204720738
 20
-102.0
 30
0.0
 40
2.0
 50
0.0
 51
90.0
  0
ARC
  5
303
  8
1
 62
     7
 10
457.77742047207391
 20
-102.0
 30
0.0
 40
2.0
 50
90.0
 51
180.0
  0
ARC
  5
304
  8
1
 62
     7
 10
442.57465820492342
 20
-85.282519107088206
 30
0.0
 40
2.000000000000115
 50
344.99999999999972
 51
45.0
  0
ARC
  5
305
  8
1
 62
     7
 10
451.05993957916212
 20
-76.797237732849567
 30
0.0
 40
2.0000000000000151
 50
225.0
 51
285.00000000000102
  0
ARC
  5
306
  8
1
 62
     7
 10
406.87791730279412
 20
-50.999991767332062
 30
0.0
 40
3.0000000000001439
 50
44.999999999997691
 51
128.86507081919839
  0
ARC
  5
307
  8
1
 62
     7
 10
416.77741223940592
 20
-41.100496830720431
 30
0.0
 40
3.0000000000000471
 50
141.1349291808001
 51
224.99999999999849
  0
ARC
  5
308
  8
1
 62
     7
 10
280.49490136498559
 20
-76.797237732849567
 30
0.0
 40
2.0000000000000608
 50
254.9999999999992
 51
315.0
  0
ARC
  5
309
  8
1
 62
     7
 10
288.98018273922418
 20
-85.282519107088206
 30
0.0
 40
1.9999999999999349
 50
134.99999999999761
 51
194.9999999999992
  0
ARC
  5
30A
  8
1
 62
     7
 10
314.77742870474168
 20
-41.100496830720431
 30
0.0
 40
2.999999999999984
 50
315.00000000000227
 51
38.865070819198174
  0
ARC
  5
30B
  8
1
 62
     7
 10
324.67692364135343
 20
-50.999991767332062
 30
0.0
 40
2.999999999999944
 50
51.13492918080253
 51
135.0
  0
ARC
  5
30C
  8
1
 62
     7
 10
288.98018273922418
 20
85.282519107088206
 30
0.0
 40
1.999999999999849
 50
164.99999999999679
 51
225.0000000000023
  0
ARC
  5
30D
  8
1
 62
     7
 10
280.49490136498559
 20
76.797237732849567
 30
0.0
 40
2.0000000000000151
 50
45.0
 51
105.00000000000109
  0
ARC
  5
30E
  8
1
 62
     7
 10
324.67692364135343
 20
50.999991767332062
 30
0.0
 40
2.999999999999948
 50
224.99999999999849
 51
308.8650708192003
  0
ARC
  5
30F
  8
1
 62
     7
 10
314.77742870474179
 20
41.100496830720537
 30
0.0
 40
2.999999999999913
 50
321.13492918079811
 51
45.00000000000086
  0
ARC
  5
310
  8
1
 62
     7
 10
406.87791730279412
 20
50.999991767332062
 30
0.0
 40
2.9999999999998721
 50
231.13492918080411
 51
315.00000000000369
  0
ARC
  5
311
  8
1
 62
     7
 10
416.77741223940592
 20
41.10049683072031
 30
0.0
 40
3.0000000000000639
 50
134.99999999999761
 51
218.8650708191966
  0
ARC
  5
312
  8
1
 62
     7
 10
442.57465820492342
 20
85.282519107088206
 30
0.0
 40
2.0000000000000151
 50
315.0
 51
15.00000000000116
  0
ARC
  5
313
  8
1
 62
     7
 10
451.05993957916212
 20
76.797237732849567
 30
0.0
 40
2.0000000000000608
 50
74.999999999999261
 51
135.0
  0
ARC
  5
314
  8
1
 62
     7
 10
372.7774204720738
 20
-24.595407685048599
 30
0.0
 40
2.5
 50
270.0
 51
0.0
  0
ARC
  5
315
  8
1
 62
     7
 10
358.7774204720738
 20
-24.595407685048599
 30
0.0
 40
2.5
 50
180.0
 51
270.0
  0
ARC
  5
316
  8
1
 62
     7
 10
280.49490136498559
 20
-76.797237732849567
 30
0.0
 40
2.0000000000000608
 50
254.9999999999992
 51
315.0
  0
ARC
  5
317
  8
1
 62
     7
 10
288.98018273922418
 20
-85.282519107088206
 30
0.0
 40
1.9999999999999349
 50
134.99999999999761
 51
194.9999999999992
  0
ARC
  5
318
  8
1
 62
     7
 10
451.05993957916212
 20
-76.797237732849567
 30
0.0
 40
2.0000000000000151
 50
225.0
 51
285.00000000000102
  0
ARC
  5
319
  8
1
 62
     7
 10
451.05993957916212
 20
-76.797237732849567
 30
0.0
 40
2.0000000000000151
 50
225.0
 51
285.00000000000102
  0
CIRCLE
  5
31A
  8
1
 62
     7
 10
-234.03902107659289
 20
-32.206546709565778
 30
0.0
 40
3.5
  0
CIRCLE
  5
31B
  8
1
 62
     7
 10
-364.0390210765928
 20
399.91300109050479
 30
0.0
 40
6.5
  0
CIRCLE
  5
31C
  8
1
 62
     7
 10
-364.0390210765928
 20
399.91300109050479
 30
0.0
 40
13.0
  0
CIRCLE
  5
31D
  8
1
 62
     7
 10
-364.0390210765928
 20
639.91300109050519
 30
0.0
 40
6.5
  0
CIRCLE
  5
31E
  8
1
 62
     7
 10
-364.0390210765928
 20
639.91300109050519
 30
0.0
 40
13.0
  0
CIRCLE
  5
31F
  8
1
 62
     7
 10
-104.0390210765929
 20
399.91300109050479
 30
0.0
 40
6.5
  0
CIRCLE
  5
320
  8
1
 62
     7
 10
-104.0390210765929
 20
399.91300109050479
 30
0.0
 40
13.0
  0
CIRCLE
  5
321
  8
1
 62
     7
 10
-104.0390210765929
 20
639.91300109050519
 30
0.0
 40
13.0
  0
CIRCLE
  5
322
  8
1
 62
     7
 10
-104.0390210765929
 20
639.91300109050519
 30
0.0
 40
6.5
  0
CIRCLE
  5
323
  8
1
 62
     7
 10
365.77742047207391
 20
0.0000000000000107
 30
0.0
 40
62.499999999999893
  0
CIRCLE
  5
324
  8
1
 62
     7
 10
365.77742047207391
 20
0.0000000000000107
 30
0.0
 40
49.999999999999893
  0
CIRCLE
  5
325
  8
1
 62
     7
 10
365.77742047207391
 20
0.0000000000000107
 30
0.0
 40
39.999999999999893
  0
CIRCLE
  5
326
  8
1
 62
     7
 10
365.77742047207391
 20
0.0000000000000107
 30
0.0
 40
3.9999999999998859
  0
CIRCLE
  5
327
  8
1
 62
     3
 10
365.77742047207391
 20
0.0000000000000107
 30
0.0
 40
4.9999999999998863
  0
CIRCLE
  5
328
  8
1
 62
     7
 10
372.7774204720738
 20
-24.570407685048622
 30
0.0
 40
1.25
  0
CIRCLE
  5
329
  8
1
 62
     7
 10
358.7774204720738
 20
-24.570407685048622
 30
0.0
 40
1.25
  0
CIRCLE
  5
32A
  8
1
 62
     7
 10
454.16576812039239
 20
88.388347648318515
 30
0.0
 40
8.5
  0
CIRCLE
  5
32B
  8
1
 62
     7
 10
277.38907282375538
 20
88.388347648318515
 30
0.0
 40
8.5
  0
CIRCLE
  5
32C
  8
1
 62
     7
 10
277.38907282375538
 20
-88.388347648318373
 30
0.0
 40
8.5000000000001137
  0
CIRCLE
  5
32D
  8
1
 62
     7
 10
454.16576812039239
 20
-88.388347648318458
 30
0.0
 40
8.5
  0
CIRCLE
  5
32E
  8
1
 62
     7
 10
365.77742047207369
 20
83.000000000000085
 30
0.0
 40
6.5
  0
CIRCLE
  5
32F
  8
1
 62
     7
 10
282.7774204720738
 20
0.0
 30
0.0
 40
6.5
  0
CIRCLE
  5
330
  8
1
 62
     7
 10
365.77742047207369
 20
-83.0
 30
0.0
 40
6.5
  0
CIRCLE
  5
331
  8
1
 62
     7
 10
448.7774204720738
 20
0.0
 30
0.0
 40
6.5
  0
TEXT
  5
332
  8
1
 62
     7
 10
324.52130327862182
 20
529.75039469695105
 30
0.0
 40
15.0
  1
MSU 20
 41
0.9
  7
SIMPLEX
  0
TEXT
  5
334
  8
1
 62
     7
 10
344.73284904350243
 20
-112.8061402239157
 30
0.0
 40
8.0
  1
Ｉ　Ｎ　Ｐ　Ｕ　Ｔ
 41
0.7128000000000001
  7
SIMPLEX
 72
     1
 11
365.77742047207391
 21
-112.8061402239157
 31
0.0
  0
ENDSEC
  0
EOF
