  0
SECTION
  2
HEADER
  9
$ACADVER
  1
AC1009
  9
$INSBASE
 10
0.0
 20
0.0
 30
0.0
  9
$EXTMIN
 10
-285.9561926635696
 20
-82.217282833415865
 30
0.0
  9
$EXTMAX
 10
227.28025645370101
 20
379.03553390593282
 30
0.0
  9
$LIMMIN
 10
-285.9561926635696
 20
-82.217282833415865
  9
$LIMMAX
 10
226.86604289132799
 20
378.67373146035487
  9
$ORTHOMODE
 70
     0
  9
$REGENMODE
 70
     1
  9
$FILLMODE
 70
     1
  9
$QTEXTMODE
 70
     0
  9
$MIRRTEXT
 70
     1
  9
$DRAGMODE
 70
     2
  9
$LTSCALE
 40
1.0
  9
$OSMODE
 70
    37
  9
$ATTMODE
 70
     1
  9
$TEXTSIZE
 40
3.5
  9
$TRACEWID
 40
0.5
  9
$TEXTSTYLE
  7
STANDARD
  9
$CLAYER
  8
0
  9
$CELTYPE
  6
BYLAYER
  9
$CECOLOR
 62
   256
  9
$DIMSCALE
 40
1.0
  9
$DIMASZ
 40
0.18
  9
$DIMEXO
 40
0.0625
  9
$DIMDLI
 40
0.38
  9
$DIMRND
 40
0.0
  9
$DIMDLE
 40
0.0
  9
$DIMEXE
 40
0.18
  9
$DIMTP
 40
0.0
  9
$DIMTM
 40
0.0
  9
$DIMTXT
 40
0.18
  9
$DIMCEN
 40
0.09
  9
$DIMTSZ
 40
0.0
  9
$DIMTOL
 70
     0
  9
$DIMLIM
 70
     0
  9
$DIMTIH
 70
     1
  9
$DIMTOH
 70
     1
  9
$DIMSE1
 70
     0
  9
$DIMSE2
 70
     0
  9
$DIMTAD
 70
     0
  9
$DIMZIN
 70
     0
  9
$DIMBLK
  1

  9
$DIMASO
 70
     1
  9
$DIMSHO
 70
     1
  9
$DIMPOST
  1

  9
$DIMAPOST
  1

  9
$DIMALT
 70
     0
  9
$DIMALTD
 70
     2
  9
$DIMALTF
 40
25.399999999999999
  9
$DIMLFAC
 40
1.0
  9
$DIMTOFL
 70
     0
  9
$DIMTVP
 40
0.0
  9
$DIMTIX
 70
     0
  9
$DIMSOXD
 70
     0
  9
$DIMSAH
 70
     0
  9
$DIMBLK1
  1

  9
$DIMBLK2
  1

  9
$DIMSTYLE
  2
STANDARD
  9
$DIMCLRD
 70
     0
  9
$DIMCLRE
 70
     0
  9
$DIMCLRT
 70
     0
  9
$DIMTFAC
 40
1.0
  9
$DIMGAP
 40
0.09
  9
$LUNITS
 70
     2
  9
$LUPREC
 70
     4
  9
$SKETCHINC
 40
0.1
  9
$FILLETRAD
 40
2.0
  9
$AUNITS
 70
     0
  9
$AUPREC
 70
     0
  9
$MENU
  1
ACAD
  9
$ELEVATION
 40
0.0
  9
$PELEVATION
 40
0.0
  9
$THICKNESS
 40
0.0
  9
$LIMCHECK
 70
     0
  9
$BLIPMODE
 70
     0
  9
$CHAMFERA
 40
0.0
  9
$CHAMFERB
 40
0.0
  9
$SKPOLY
 70
     0
  9
$TDCREATE
 40
2452094.8484093752
  9
$TDUPDATE
 40
2452094.8491766201
  9
$TDINDWG
 40
0.0007793981
  9
$TDUSRTIMER
 40
0.0007793981
  9
$USRTIMER
 70
     1
  9
$ANGBASE
 50
0.0
  9
$ANGDIR
 70
     0
  9
$PDMODE
 70
     0
  9
$PDSIZE
 40
0.0
  9
$PLINEWID
 40
0.0
  9
$COORDS
 70
     1
  9
$SPLFRAME
 70
     0
  9
$SPLINETYPE
 70
     6
  9
$SPLINESEGS
 70
     8
  9
$ATTDIA
 70
     0
  9
$ATTREQ
 70
     1
  9
$HANDLING
 70
 10241
  9
$HANDSEED
  5
2E0
  9
$SURFTAB1
 70
     6
  9
$SURFTAB2
 70
     6
  9
$SURFTYPE
 70
     6
  9
$SURFU
 70
     6
  9
$SURFV
 70
     6
  9
$UCSNAME
  2

  9
$UCSORG
 10
0.0
 20
0.0
 30
0.0
  9
$UCSXDIR
 10
1.0
 20
0.0
 30
0.0
  9
$UCSYDIR
 10
0.0
 20
1.0
 30
0.0
  9
$PUCSNAME
  2

  9
$PUCSORG
 10
0.0
 20
0.0
 30
0.0
  9
$PUCSXDIR
 10
1.0
 20
0.0
 30
0.0
  9
$PUCSYDIR
 10
0.0
 20
1.0
 30
0.0
  9
$USERI1
 70
     0
  9
$USERI2
 70
     0
  9
$USERI3
 70
     0
  9
$USERI4
 70
     0
  9
$USERI5
 70
     0
  9
$USERR1
 40
0.0
  9
$USERR2
 40
0.0
  9
$USERR3
 40
0.0
  9
$USERR4
 40
0.0
  9
$USERR5
 40
0.0
  9
$WORLDVIEW
 70
     1
  9
$SHADEDGE
 70
     3
  9
$SHADEDIF
 70
    70
  9
$TILEMODE
 70
     1
  9
$MAXACTVP
 70
    64
  9
$PLIMCHECK
 70
     0
  9
$PEXTMIN
 10
1.0000000000000000E+020
 20
1.0000000000000000E+020
 30
1.0000000000000000E+020
  9
$PEXTMAX
 10
-1.0000000000000000E+020
 20
-1.0000000000000000E+020
 30
-1.0000000000000000E+020
  9
$PLIMMIN
 10
0.0
 20
0.0
  9
$PLIMMAX
 10
12.0
 20
9.0
  9
$UNITMODE
 70
     0
  9
$VISRETAIN
 70
     1
  9
$PLINEGEN
 70
     0
  9
$PSLTSCALE
 70
     1
  0
ENDSEC
  0
SECTION
  2
TABLES
  0
TABLE
  2
VPORT
 70
     2
  0
VPORT
  2
*ACTIVE
 70
     0
 10
0.0
 20
0.0
 11
1.0
 21
1.0
 12
135.93823424101171
 22
291.98704901979289
 13
0.0
 23
0.0
 14
1.0
 24
1.0
 15
0.0
 25
0.0
 16
0.0
 26
0.0
 36
1.0
 17
0.0
 27
0.0
 37
0.0
 40
8.9999995120386345
 41
2.4144144144144142
 42
50.0
 43
0.0
 44
0.0
 50
0.0
 51
0.0
 71
     0
 72
   100
 73
     1
 74
     1
 75
     0
 76
     0
 77
     0
 78
     0
  0
ENDTAB
  0
TABLE
  2
LTYPE
 70
     9
  0
LTYPE
  2
CONTINUOUS
 70
     0
  3
Solid line
 72
    65
 73
     0
 40
0.0
  0
LTYPE
  2
BORDER
 70
     0
  3
__ __ . __ __ .
 72
    65
 73
     6
 40
23.61681347950185
 49
6.7476609941433887
 49
-3.3738304970716939
 49
6.7476609941433887
 49
-3.3738304970716939
 49
0.0
 49
-3.3738304970716939
  0
LTYPE
  2
CENTER
 70
     0
  3
____ _ ____ _
 72
    65
 73
     4
 40
26.990643976573551
 49
16.86915248535847
 49
-3.3738304970716939
 49
3.3738304970716939
 49
-3.3738304970716939
  0
LTYPE
  2
DASHDOT
 70
     0
  3
__ . __ . __ .
 72
    65
 73
     4
 40
13.49532198828677
 49
6.7476609941433887
 49
-3.3738304970716939
 49
0.0
 49
-3.3738304970716939
  0
LTYPE
  2
DASHED
 70
     0
  3
__ __ __ __ __
 72
    65
 73
     2
 40
10.12149149121508
 49
6.7476609941433887
 49
-3.3738304970716939
  0
LTYPE
  2
DIVIDE
 70
     0
  3
__ . . __ . . 
 72
    65
 73
     6
 40
16.86915248535847
 49
6.7476609941433887
 49
-3.3738304970716939
 49
0.0
 49
-3.3738304970716939
 49
0.0
 49
-3.3738304970716939
  0
LTYPE
  2
DOT
 70
     0
  3
..............
 72
    65
 73
     4
 40
6.7476609941433887
 49
0.0
 49
-3.3738304970716939
 49
0.0
 49
-3.3738304970716939
  0
LTYPE
  2
HIDDEN
 70
     0
  3
_ _ _ _ _ _ _
 72
    65
 73
     2
 40
5.0607457456075418
 49
3.3738304970716939
 49
-1.686915248535847
  0
LTYPE
  2
PHANTOM
 70
     0
  3
_____ _ _ _____ _ _ 
 72
    65
 73
     6
 40
33.738304970716939
 49
16.86915248535847
 49
-3.3738304970716939
 49
3.3738304970716939
 49
-3.3738304970716939
 49
3.3738304970716939
 49
-3.3738304970716939
  0
ENDTAB
  0
TABLE
  2
LAYER
 70
     2
  0
LAYER
  2
0
 70
     0
 62
     7
  6
CONTINUOUS
  0
LAYER
  2
1
 70
     0
 62
     7
  6
CONTINUOUS
  0
ENDTAB
  0
TABLE
  2
STYLE
 70
     4
  0
STYLE
  2
STANDARD
 70
     0
 40
0.0
 41
1.0
 50
0.0
 71
     0
 42
3.5
  3
txt
  4

  0
STYLE
  2
SIMPLEX
 70
     0
 40
0.0
 41
1.0
 50
0.0
 71
     0
 42
3.5
  3
simplex
  4

  0
STYLE
  2
COMPLEX
 70
     0
 40
0.0
 41
1.0
 50
0.0
 71
     0
 42
3.5
  3
complex
  4

  0
STYLE
  2
ITALIC
 70
     0
 40
0.0
 41
1.0
 50
0.0
 71
     0
 42
3.5
  3
italic
  4

  0
ENDTAB
  0
TABLE
  2
VIEW
 70
     0
  0
ENDTAB
  0
TABLE
  2
UCS
 70
     0
  0
ENDTAB
  0
TABLE
  2
APPID
 70
     1
  0
APPID
  2
ACAD
 70
     0
  0
ENDTAB
  0
TABLE
  2
DIMSTYLE
 70
     1
  0
DIMSTYLE
  2
STANDARD
 70
     0
  3

  4

  5

  6

  7

 40
1.0
 41
0.18
 42
0.0625
 43
0.38
 44
0.18
 45
0.0
 46
0.0
 47
0.0
 48
0.0
140
0.18
141
0.09
142
0.0
143
25.399999999999999
144
1.0
145
0.0
146
1.0
147
0.09
 71
     0
 72
     0
 73
     1
 74
     1
 75
     0
 76
     0
 77
     0
 78
     0
170
     0
171
     2
172
     0
173
     0
174
     0
175
     0
176
     0
177
     0
178
     0
  0
ENDTAB
  0
ENDSEC
  0
SECTION
  2
BLOCKS
  0
BLOCK
  8
0
  2
$MODEL_SPACE
 70
     0
 10
0.0
 20
0.0
 30
0.0
  3
$MODEL_SPACE
  1

  0
ENDBLK
  5
20
  8
0
  0
BLOCK
 67
     1
  8
0
  2
$PAPER_SPACE
 70
     0
 10
0.0
 20
0.0
 30
0.0
  3
$PAPER_SPACE
  1

  0
ENDBLK
  5
1C
 67
     1
  8
0
  0
ENDSEC
  0
SECTION
  2
ENTITIES
  0
LINE
  5
33
  8
1
 62
     7
 10
-100.4561926635696
 20
192.82899999999981
 30
0.0
 11
-184.4561926635696
 21
192.82899999999981
 31
0.0
  0
LINE
  5
34
  8
1
 62
     7
 10
-98.456192663569723
 20
223.3431482887008
 30
0.0
 11
-98.456192663569723
 21
194.82899999999981
 31
0.0
  0
LINE
  5
35
  8
1
 62
     7
 10
-186.4561926635696
 20
223.3431482887006
 30
0.0
 11
-186.4561926635696
 21
194.82899999999981
 31
0.0
  0
LINE
  5
36
  8
1
 62
     7
 10
-182.9561926635696
 20
218.36648491926621
 30
0.0
 11
-182.9561926635696
 21
194.82899999999961
 31
0.0
  0
LINE
  5
37
  8
1
 62
     7
 10
-101.95619266356969
 20
218.3664849192663
 30
0.0
 11
-101.95619266356969
 21
194.82899999999981
 31
0.0
  0
LINE
  5
38
  8
1
 62
     7
 10
-98.456192663569723
 20
223.3431482887008
 30
0.0
 11
-186.4561926635696
 21
223.3431482887006
 31
0.0
  0
LINE
  5
39
  8
1
 62
     7
 10
-100.4561926635696
 20
218.3664849192663
 30
0.0
 11
-184.4561926635696
 21
218.36648491926621
 31
0.0
  0
LINE
  5
3A
  8
1
 62
     7
 10
-181.45619266356971
 20
227.40602606183811
 30
0.0
 11
-181.45619266356971
 21
223.3431482887006
 31
0.0
  0
LINE
  5
3B
  8
1
 62
     7
 10
-103.4561926635696
 20
227.40602606183839
 30
0.0
 11
-103.4561926635696
 21
223.3431482887008
 31
0.0
  0
LINE
  5
3C
  8
1
 62
     7
 10
-105.4561926635696
 20
229.40602606183839
 30
0.0
 11
-179.4561926635696
 21
229.40602606183811
 31
0.0
  0
LINE
  5
3D
  8
1
 62
     7
 10
-177.9561926635696
 20
31.0
 30
0.0
 11
-106.95619266356969
 21
31.0
 31
0.0
  0
LINE
  5
3E
  8
1
 62
     7
 10
-101.95619266356969
 20
26.0
 30
0.0
 11
-101.95619266356969
 21
-26.0
 31
0.0
  0
LINE
  5
3F
  8
1
 62
     7
 10
-106.95619266356969
 20
-31.0
 30
0.0
 11
-133.75619266356989
 21
-31.0
 31
0.0
  0
LINE
  5
40
  8
1
 62
     7
 10
-182.9561926635696
 20
-26.0
 30
0.0
 11
-182.9561926635696
 21
26.0
 31
0.0
  0
LINE
  5
41
  8
1
 62
     7
 10
-181.45619266356971
 20
35.5
 30
0.0
 11
-103.4561926635696
 21
35.5
 31
0.0
  0
LINE
  5
42
  8
1
 62
     7
 10
-98.456192663569723
 20
30.5
 30
0.0
 11
-98.456192663569723
 21
-30.5
 31
0.0
  0
LINE
  5
43
  8
1
 62
     7
 10
-103.4561926635696
 20
-35.5
 30
0.0
 11
-181.45619266356971
 21
-35.5
 31
0.0
  0
LINE
  5
44
  8
1
 62
     7
 10
-186.4561926635696
 20
-30.5
 30
0.0
 11
-186.4561926635696
 21
30.5
 31
0.0
  0
LINE
  5
45
  8
1
 62
     7
 10
-151.15619266356961
 20
-31.0
 30
0.0
 11
-177.9561926635696
 21
-31.0
 31
0.0
  0
LINE
  5
46
  8
1
 62
     7
 10
128.86604289132791
 20
-58.158266803851213
 30
0.0
 11
128.86604289132791
 21
-50.15826680385122
 31
0.0
  0
LINE
  5
47
  8
1
 62
     7
 10
168.86604289132791
 20
-58.158266803851213
 30
0.0
 11
128.86604289132791
 21
-58.158266803851213
 31
0.0
  0
LINE
  5
48
  8
1
 62
     7
 10
168.86604289132791
 20
-50.15826680385122
 30
0.0
 11
168.86604289132791
 21
-58.158266803851213
 31
0.0
  0
LINE
  5
49
  8
1
 62
     7
 10
128.86604289132791
 20
-50.15826680385122
 30
0.0
 11
168.86604289132791
 21
-50.15826680385122
 31
0.0
  0
LINE
  5
4A
  8
1
 62
     7
 10
-186.4561926635696
 20
-13.37090968035363
 30
0.0
 11
-200.95619266356951
 21
-13.37090968035363
 31
0.0
  0
LINE
  5
4B
  8
1
 62
     7
 10
-186.4561926635696
 20
-27.446646965801278
 30
0.0
 11
-197.9561926635696
 21
-27.446646965801278
 31
0.0
  0
LINE
  5
4C
  8
1
 62
     7
 10
-186.4561926635696
 20
-29.48106423096829
 30
0.0
 11
-200.95619266356951
 21
-29.48106423096829
 31
0.0
  0
LINE
  5
4D
  8
1
 62
     7
 10
-138.45619266356971
 20
-35.5
 30
0.0
 11
-138.45619266356971
 21
-80.0
 31
0.0
  0
LINE
  5
4E
  8
1
 62
     7
 10
-128.45619266356971
 20
-35.5
 30
0.0
 11
-128.45619266356971
 21
-66.0
 31
0.0
  0
LINE
  5
4F
  8
1
 62
     7
 10
-99.207018838560543
 20
-33.135246061538851
 30
0.0
 11
-83.956192663569709
 21
-33.135246061538851
 31
0.0
  0
LINE
  5
50
  8
1
 62
     7
 10
-140.4061926635697
 20
-30.807500000000001
 30
0.0
 11
-140.4061926635697
 21
-30.192499999999988
 31
0.0
  0
LINE
  5
51
  8
1
 62
     7
 10
-142.7636926635696
 20
-32.549999999999947
 30
0.0
 11
-142.14869266356959
 21
-32.549999999999947
 31
0.0
  0
LINE
  5
52
  8
1
 62
     7
 10
-144.50619266356961
 20
-30.192499999999988
 30
0.0
 11
-144.50619266356961
 21
-30.807500000000001
 31
0.0
  0
LINE
  5
53
  8
1
 62
     7
 10
-142.14869266356959
 20
-28.449999999999928
 30
0.0
 11
-142.7636926635696
 21
-28.449999999999928
 31
0.0
  0
LINE
  5
54
  8
1
 62
     7
 10
-280.9561926635696
 20
9.0
 30
0.0
 11
-279.95619266356948
 21
10.0
 31
0.0
  0
LINE
  5
55
  8
1
 62
     7
 10
-279.95619266356948
 20
-10.00000000000011
 30
0.0
 11
-280.9561926635696
 21
-9.0000000000001137
 31
0.0
  0
LINE
  5
56
  8
1
 62
     7
 10
-279.95619266356948
 20
-10.00000000000011
 30
0.0
 11
-279.95619266356948
 21
10.0
 31
0.0
  0
LINE
  5
57
  8
1
 62
     7
 10
-249.9561926635696
 20
12.0
 30
0.0
 11
-249.9561926635696
 21
10.0
 31
0.0
  0
LINE
  5
58
  8
1
 62
     7
 10
-280.9561926635696
 20
12.0
 30
0.0
 11
-249.9561926635696
 21
12.0
 31
0.0
  0
LINE
  5
59
  8
1
 62
     7
 10
-3.956192663569595
 20
12.0
 30
0.0
 11
-3.956192663569595
 21
-9.0000000000001137
 31
0.0
  0
LINE
  5
5A
  8
1
 62
     7
 10
-34.956192663569603
 20
12.0
 30
0.0
 11
-3.956192663569595
 21
12.0
 31
0.0
  0
LINE
  5
5B
  8
1
 62
     7
 10
-34.956192663569603
 20
10.0
 30
0.0
 11
-34.956192663569603
 21
12.0
 31
0.0
  0
LINE
  5
5C
  8
1
 62
     7
 10
-4.9561926635695936
 20
10.0
 30
0.0
 11
-4.9561926635695936
 21
-10.00000000000011
 31
0.0
  0
LINE
  5
5D
  8
1
 62
     7
 10
-208.65619266356961
 20
-4.25
 30
0.0
 11
-208.9561926635696
 21
-3.730384757729325
 31
0.0
  0
LINE
  5
5E
  8
1
 62
     7
 10
-203.95619266356971
 20
-4.25
 30
0.0
 11
-208.65619266356961
 21
-4.25
 31
0.0
  0
LINE
  5
5F
  8
1
 62
     7
 10
-208.9561926635696
 20
-3.730384757729325
 30
0.0
 11
-208.9561926635696
 21
3.7303847577292122
 31
0.0
  0
LINE
  5
60
  8
1
 62
     7
 10
-75.956192663569709
 20
3.730384757729325
 30
0.0
 11
-75.956192663569709
 21
-3.730384757729325
 31
0.0
  0
LINE
  5
61
  8
1
 62
     7
 10
-76.256192663569607
 20
4.25
 30
0.0
 11
-76.256192663569607
 21
-4.25
 31
0.0
  0
LINE
  5
62
  8
1
 62
     7
 10
-76.256192663569607
 20
-4.25
 30
0.0
 11
-80.956192663569709
 21
-4.25
 31
0.0
  0
LINE
  5
63
  8
1
 62
     7
 10
-75.956192663569709
 20
-3.730384757729325
 30
0.0
 11
-76.256192663569607
 21
-4.25
 31
0.0
  0
LINE
  5
64
  8
1
 62
     7
 10
-146.45619266356951
 20
-76.0
 30
0.0
 11
-138.45619266356971
 21
-76.0
 31
0.0
  0
LINE
  5
65
  8
1
 62
     7
 10
-208.95619266356951
 20
63.21985447626399
 30
0.0
 11
-203.9561926635696
 21
63.21985447626399
 31
0.0
  0
LINE
  5
66
  8
1
 62
     7
 10
-241.9561926635696
 20
15.049999999999949
 30
0.0
 11
-243.15619266356961
 21
15.049999999999949
 31
0.0
  0
LINE
  5
67
  8
1
 62
     7
 10
-243.15619266356961
 20
15.049999999999949
 30
0.0
 11
-243.15619266356961
 21
-15.997448713915899
 31
0.0
  0
LINE
  5
68
  8
1
 62
     7
 10
-244.95619266356951
 20
12.5
 30
0.0
 11
-243.15619266356961
 21
12.5
 31
0.0
  0
LINE
  5
69
  8
1
 62
     7
 10
-244.95619266356951
 20
12.5
 30
0.0
 11
-244.95619266356951
 21
-12.50000000000011
 31
0.0
  0
LINE
  5
6A
  8
1
 62
     7
 10
-279.95619266356948
 20
10.0
 30
0.0
 11
-244.95619266356951
 21
10.0
 31
0.0
  0
LINE
  5
6B
  8
1
 62
     7
 10
-279.95619266356948
 20
-10.00000000000011
 30
0.0
 11
-244.95619266356951
 21
-10.00000000000011
 31
0.0
  0
LINE
  5
6C
  8
1
 62
     7
 10
-280.9561926635696
 20
9.0
 30
0.0
 11
-279.95619266356948
 21
10.0
 31
0.0
  0
LINE
  5
6D
  8
1
 62
     7
 10
-279.95619266356948
 20
-10.00000000000011
 30
0.0
 11
-280.9561926635696
 21
-9.0000000000001137
 31
0.0
  0
LINE
  5
6E
  8
1
 62
     7
 10
-241.9561926635696
 20
30.5
 30
0.0
 11
-239.9561926635696
 21
32.5
 31
0.0
  0
LINE
  5
6F
  8
1
 62
     7
 10
-239.9561926635696
 20
-32.5
 30
0.0
 11
-241.9561926635696
 21
-30.5
 31
0.0
  0
LINE
  5
70
  8
1
 62
     7
 10
-241.9561926635696
 20
30.5
 30
0.0
 11
-239.9561926635696
 21
32.5
 31
0.0
  0
LINE
  5
71
  8
1
 62
     7
 10
-205.9561926635696
 20
77.000000000000085
 30
0.0
 11
-78.956192663569709
 21
77.000000000000085
 31
0.0
  0
LINE
  5
72
  8
1
 62
     7
 10
-208.95619266356951
 20
74.000000000000099
 30
0.0
 11
-208.95619266356951
 21
63.21985447626399
 31
0.0
  0
LINE
  5
73
  8
1
 62
     7
 10
-208.95619266356951
 20
63.21985447626399
 30
0.0
 11
-203.9561926635696
 21
63.21985447626399
 31
0.0
  0
LINE
  5
74
  8
1
 62
     7
 10
-243.15619266356961
 20
-15.997448713915899
 30
0.0
 11
-241.9561926635696
 21
-15.997448713915899
 31
0.0
  0
LINE
  5
75
  8
1
 62
     7
 10
-244.95619266356951
 20
-12.50000000000011
 30
0.0
 11
-243.15619266356961
 21
-12.50000000000011
 31
0.0
  0
LINE
  5
76
  8
1
 62
     7
 10
-239.9561926635696
 20
-32.5
 30
0.0
 11
-241.9561926635696
 21
-30.5
 31
0.0
  0
LINE
  5
77
  8
1
 62
     7
 10
-213.46908298520751
 20
-32.5
 30
0.0
 11
-239.9561926635696
 21
-32.5
 31
0.0
  0
LINE
  5
78
  8
1
 62
     7
 10
-206.95619266356951
 20
-42.694173824159279
 30
0.0
 11
-205.45619266356951
 21
-44.194173824159279
 31
0.0
  0
LINE
  5
79
  8
1
 62
     7
 10
-206.95619266356951
 20
-44.194173824159279
 30
0.0
 11
-205.45619266356951
 21
-45.694173824159279
 31
0.0
  0
LINE
  5
7A
  8
1
 62
     7
 10
-206.95619266356951
 20
-38.094173824159277
 30
0.0
 11
-205.45619266356951
 21
-38.094173824159277
 31
0.0
  0
LINE
  5
7B
  8
1
 62
     7
 10
-206.95619266356951
 20
-50.294173824159323
 30
0.0
 11
-206.95619266356951
 21
-38.094173824159277
 31
0.0
  0
LINE
  5
7C
  8
1
 62
     7
 10
-205.45619266356951
 20
-50.294173824159323
 30
0.0
 11
-206.95619266356951
 21
-50.294173824159323
 31
0.0
  0
LINE
  5
7D
  8
1
 62
     7
 10
-205.45619266356951
 20
-38.094173824159277
 30
0.0
 11
-205.45619266356951
 21
-50.294173824159323
 31
0.0
  0
LINE
  5
7E
  8
1
 62
     7
 10
-211.9561926635696
 20
-48.506673824159279
 30
0.0
 11
-211.9561926635696
 21
-39.881673824159279
 31
0.0
  0
LINE
  5
7F
  8
1
 62
     7
 10
-206.95619266356951
 20
-38.444173824159279
 30
0.0
 11
-211.46544493475841
 21
-38.444173824159279
 31
0.0
  0
LINE
  5
80
  8
1
 62
     7
 10
-206.95619266356951
 20
-41.319173824159279
 30
0.0
 11
-211.46544493475841
 21
-41.319173824159279
 31
0.0
  0
LINE
  5
81
  8
1
 62
     7
 10
-206.95619266356951
 20
-47.069173824159279
 30
0.0
 11
-211.46544493475841
 21
-47.069173824159279
 31
0.0
  0
LINE
  5
82
  8
1
 62
     7
 10
-206.95619266356951
 20
-49.944173824159279
 30
0.0
 11
-211.46544493475841
 21
-49.944173824159279
 31
0.0
  0
LINE
  5
83
  8
1
 62
     7
 10
-241.9561926635696
 20
-19.940211576162941
 30
0.0
 11
-203.9561926635696
 21
-36.694173824159279
 31
0.0
  0
LINE
  5
84
  8
1
 62
     7
 10
-203.9561926635696
 20
-19.940211576162941
 30
0.0
 11
-241.9561926635696
 21
-19.940211576162941
 31
0.0
  0
LINE
  5
85
  8
1
 62
     7
 10
-237.95619266356951
 20
-80.0
 30
0.0
 11
-146.45619266356951
 21
-80.0
 31
0.0
  0
LINE
  5
86
  8
1
 62
     7
 10
-237.95619266356951
 20
-70.0
 30
0.0
 11
-237.95619266356951
 21
-80.0
 31
0.0
  0
LINE
  5
87
  8
1
 62
     7
 10
-146.45619266356951
 20
-68.0
 30
0.0
 11
-235.95619266356951
 21
-68.0
 31
0.0
  0
LINE
  5
88
  8
1
  6
DASHDOT
 62
     3
 10
-224.9561926635696
 20
-81.548058064113775
 30
0.0
 11
-224.9561926635696
 21
-66.727380900968555
 31
0.0
  0
LINE
  5
89
  8
1
  6
DASHED
 62
     3
 10
-220.7061926635696
 20
-80.0
 30
0.0
 11
-220.7061926635696
 21
-70.0
 31
0.0
  0
LINE
  5
8A
  8
1
  6
DASHED
 62
     3
 10
-229.2061926635696
 20
-80.0
 30
0.0
 11
-229.2061926635696
 21
-70.0
 31
0.0
  0
LINE
  5
8B
  8
1
  6
DASHED
 62
     3
 10
-233.95619266356951
 20
-70.0
 30
0.0
 11
-233.95619266356951
 21
-68.0
 31
0.0
  0
LINE
  5
8C
  8
1
  6
DASHED
 62
     3
 10
-215.95619266356951
 20
-70.0
 30
0.0
 11
-215.95619266356951
 21
-68.0
 31
0.0
  0
LINE
  5
8D
  8
1
  6
DASHED
 62
     3
 10
-233.95619266356951
 20
-70.0
 30
0.0
 11
-215.95619266356951
 21
-70.0
 31
0.0
  0
LINE
  5
8E
  8
1
 62
     7
 10
-237.01680987304019
 20
-68.30439063019378
 30
0.0
 11
-203.9561926635696
 21
-51.267196929750398
 31
0.0
  0
LINE
  5
8F
  8
1
 62
     7
 10
-212.95619266356951
 20
-41.194173824159279
 30
0.0
 11
-211.9561926635696
 21
-41.194173824159279
 31
0.0
  0
LINE
  5
90
  8
1
 62
     7
 10
-212.95619266356951
 20
-47.194173824159293
 30
0.0
 11
-212.95619266356951
 21
-41.194173824159279
 31
0.0
  0
LINE
  5
91
  8
1
 62
     7
 10
-211.9561926635696
 20
-47.194173824159293
 30
0.0
 11
-212.95619266356951
 21
-47.194173824159293
 31
0.0
  0
LINE
  5
92
  8
1
 62
     3
 10
-213.45619266356951
 20
-46.694173824159279
 30
0.0
 11
-211.9561926635696
 21
-46.694173824159279
 31
0.0
  0
LINE
  5
93
  8
1
 62
     7
 10
-213.45619266356951
 20
-41.694173824159279
 30
0.0
 11
-213.45619266356951
 21
-46.694173824159279
 31
0.0
  0
LINE
  5
94
  8
1
 62
     3
 10
-211.9561926635696
 20
-41.694173824159279
 30
0.0
 11
-213.45619266356951
 21
-41.694173824159279
 31
0.0
  0
LINE
  5
95
  8
1
 62
     7
 10
-213.45619266356951
 20
-41.694173824159279
 30
0.0
 11
-212.95619266356951
 21
-41.194173824159279
 31
0.0
  0
LINE
  5
96
  8
1
 62
     7
 10
-212.95619266356951
 20
-47.194173824159293
 30
0.0
 11
-213.45619266356951
 21
-46.694173824159279
 31
0.0
  0
LINE
  5
97
  8
1
 62
     7
 10
-156.4561926635696
 20
-66.0
 30
0.0
 11
-156.4561926635696
 21
-35.5
 31
0.0
  0
LINE
  5
98
  8
1
 62
     7
 10
-146.45619266356951
 20
-80.0
 30
0.0
 11
-146.45619266356951
 21
-35.5
 31
0.0
  0
LINE
  5
99
  8
1
 62
     7
 10
-199.8289170278961
 20
-56.399708102198588
 30
0.0
 11
-159.76611790780379
 21
-56.399708102198588
 31
0.0
  0
LINE
  5
9A
  8
1
 62
     7
 10
-200.95619266356951
 20
-33.135246061538851
 30
0.0
 11
-185.7051290301475
 21
-33.135246061538851
 31
0.0
  0
LINE
  5
9B
  8
1
 62
     7
 10
-200.95619266356951
 20
-46.339756782707823
 30
0.0
 11
-156.4561926635696
 21
-46.339756782707823
 31
0.0
  0
LINE
  5
9C
  8
1
 62
     7
 10
-199.4561926635696
 20
-25.946646965801278
 30
0.0
 11
-199.4561926635696
 21
-13.37090968035363
 31
0.0
  0
LINE
  5
9D
  8
1
 62
     7
 10
-203.9561926635696
 20
-25.81903538318625
 30
0.0
 11
-199.4561926635696
 21
-25.81903538318625
 31
0.0
  0
LINE
  5
9E
  8
1
 62
     7
 10
-197.9561926635696
 20
-43.330681666947498
 30
0.0
 11
-156.4561926635696
 21
-43.330681666947498
 31
0.0
  0
LINE
  5
9F
  8
1
 62
     7
 10
-199.4561926635696
 20
-41.830681666947498
 30
0.0
 11
-199.4561926635696
 21
-33.135246061538851
 31
0.0
  0
LINE
  5
A0
  8
1
 62
     7
 10
-203.9561926635696
 20
-40.923421574339272
 30
0.0
 11
-199.4561926635696
 21
-40.923421574339272
 31
0.0
  0
LINE
  5
A1
  8
1
 62
     7
 10
-48.956192663569603
 20
-68.0
 30
0.0
 11
-138.45619266356971
 21
-68.0
 31
0.0
  0
LINE
  5
A2
  8
1
 62
     7
 10
-125.1462674193354
 20
-56.399708102198588
 30
0.0
 11
-85.083468299243108
 21
-56.399708102198588
 31
0.0
  0
LINE
  5
A3
  8
1
 62
     7
 10
-85.456192663569695
 20
-40.923421574339272
 30
0.0
 11
-80.956192663569709
 21
-40.923421574339272
 31
0.0
  0
LINE
  5
A4
  8
1
 62
     7
 10
-85.456192663569695
 20
-33.135246061538851
 30
0.0
 11
-85.456192663569695
 21
-41.830681666947498
 31
0.0
  0
LINE
  5
A5
  8
1
 62
     7
 10
-128.45619266356971
 20
-43.330681666947498
 30
0.0
 11
-86.956192663569695
 21
-43.330681666947498
 31
0.0
  0
LINE
  5
A6
  8
1
 62
     7
 10
-85.456192663569695
 20
-25.81903538318625
 30
0.0
 11
-80.956192663569709
 21
-25.81903538318625
 31
0.0
  0
LINE
  5
A7
  8
1
 62
     7
 10
-85.456192663569695
 20
-13.37090968035363
 30
0.0
 11
-85.456192663569695
 21
-25.946646965801278
 31
0.0
  0
LINE
  5
A8
  8
1
 62
     7
 10
-80.956192663569709
 20
63.21985447626399
 30
0.0
 11
-80.956192663569709
 21
-65.999999999999972
 31
0.0
  0
LINE
  5
A9
  8
1
 62
     7
 10
-98.415476790725847
 20
-13.37090968035363
 30
0.0
 11
-83.956192663569709
 21
-13.37090968035363
 31
0.0
  0
LINE
  5
AA
  8
1
 62
     7
 10
-86.956192663569695
 20
-27.446646965801278
 30
0.0
 11
-98.456192663569723
 21
-27.446646965801278
 31
0.0
  0
LINE
  5
AB
  8
1
 62
     7
 10
-128.45619266356971
 20
-46.339756782707823
 30
0.0
 11
-83.956192663569709
 21
-46.339756782707823
 31
0.0
  0
LINE
  5
AC
  8
1
 62
     7
 10
-98.456192663569723
 20
-29.48106423096829
 30
0.0
 11
-83.956192663569709
 21
-29.48106423096829
 31
0.0
  0
LINE
  5
AD
  8
1
 62
     7
 10
-80.956192663569709
 20
-51.267196929750398
 30
0.0
 11
-47.895575454098989
 21
-68.30439063019378
 31
0.0
  0
LINE
  5
AE
  8
1
 62
     7
 10
-75.956192663569709
 20
63.21985447626399
 30
0.0
 11
-75.956192663569709
 21
74.000000000000099
 31
0.0
  0
LINE
  5
AF
  8
1
 62
     7
 10
-80.956192663569709
 20
63.21985447626399
 30
0.0
 11
-75.956192663569709
 21
63.21985447626399
 31
0.0
  0
LINE
  5
B0
  8
1
  6
DASHED
 62
     3
 10
-68.956192663569709
 20
-70.0
 30
0.0
 11
-50.956192663569603
 21
-70.0
 31
0.0
  0
LINE
  5
B1
  8
1
  6
DASHED
 62
     3
 10
-68.956192663569709
 20
-68.0
 30
0.0
 11
-68.956192663569709
 21
-70.0
 31
0.0
  0
LINE
  5
B2
  8
1
  6
DASHED
 62
     3
 10
-50.956192663569603
 20
-68.0
 30
0.0
 11
-50.956192663569603
 21
-70.0
 31
0.0
  0
LINE
  5
B3
  8
1
  6
DASHED
 62
     3
 10
-55.706192663569603
 20
-70.0
 30
0.0
 11
-55.706192663569603
 21
-80.0
 31
0.0
  0
LINE
  5
B4
  8
1
  6
DASHED
 62
     3
 10
-64.206192663569709
 20
-70.0
 30
0.0
 11
-64.206192663569709
 21
-80.0
 31
0.0
  0
LINE
  5
B5
  8
1
  6
DASHDOT
 62
     3
 10
-59.956192663569709
 20
-66.727380900968555
 30
0.0
 11
-59.956192663569709
 21
-81.548058064113775
 31
0.0
  0
LINE
  5
B6
  8
1
 62
     7
 10
-46.956192663569603
 20
-80.0
 30
0.0
 11
-46.956192663569603
 21
-70.0
 31
0.0
  0
LINE
  5
B7
  8
1
 62
     7
 10
-138.45619266356971
 20
-80.0
 30
0.0
 11
-46.956192663569603
 21
-80.0
 31
0.0
  0
LINE
  5
B8
  8
1
 62
     7
 10
-42.956192663569603
 20
-19.940211576162941
 30
0.0
 11
-80.956192663569709
 21
-19.940211576162941
 31
0.0
  0
LINE
  5
B9
  8
1
 62
     7
 10
-80.956192663569709
 20
-36.694173824159279
 30
0.0
 11
-42.956192663569603
 21
-19.940211576162941
 31
0.0
  0
LINE
  5
BA
  8
1
 62
     7
 10
-79.456192663569695
 20
-38.194173824159279
 30
0.0
 11
-79.456192663569695
 21
-50.194173824159279
 31
0.0
  0
LINE
  5
BB
  8
1
 62
     7
 10
-44.956192663569603
 20
-32.5
 30
0.0
 11
-71.443302341931712
 21
-32.5
 31
0.0
  0
LINE
  5
BC
  8
1
 62
     7
 10
-42.956192663569603
 20
-30.5
 30
0.0
 11
-44.956192663569603
 21
-32.5
 31
0.0
  0
LINE
  5
BD
  8
1
 62
     7
 10
215.83297009615799
 20
-11.808076081351251
 30
0.0
 11
224.6962398732679
 21
-13.37090968035363
 31
0.0
  0
LINE
  5
BE
  8
1
 62
     7
 10
219.99878395906359
 20
-29.48106423096829
 30
0.0
 11
211.77373249984689
 21
-25.81903538318625
 31
0.0
  0
LINE
  5
BF
  8
1
 62
     7
 10
210.14678592754359
 20
-29.473217213756701
 30
0.0
 11
218.37183738676029
 21
-33.135246061538851
 31
0.0
  0
LINE
  5
C0
  8
1
 62
     7
 10
210.3609771649694
 20
-46.339756782707823
 30
0.0
 11
203.17325757454381
 21
-40.923421574339272
 31
0.0
  0
LINE
  5
C1
  8
1
 62
     7
 10
171.0046773944145
 20
-64.295263140753491
 30
0.0
 11
175.0349415013425
 21
-76.0
 31
0.0
  0
LINE
  5
C2
  8
1
 62
     7
 10
155.51518131929811
 20
-76.0
 30
0.0
 11
154.79263339816859
 21
-67.741239470238725
 31
0.0
  0
LINE
  5
C3
  8
1
 62
     7
 10
142.93945238448731
 20
-67.741239470238725
 30
0.0
 11
142.21690446335779
 21
-76.0
 31
0.0
  0
LINE
  5
C4
  8
1
 62
     7
 10
122.6971442813133
 20
-76.0
 30
0.0
 11
126.7274083882412
 21
-64.295263140753491
 31
0.0
  0
LINE
  5
C5
  8
1
 62
     7
 10
94.558828208112075
 20
-40.923421574339272
 30
0.0
 11
87.371108617686389
 21
-46.339756782707823
 31
0.0
  0
LINE
  5
C6
  8
1
 62
     7
 10
79.360248395895496
 20
-33.135246061538851
 30
0.0
 11
87.585299855112154
 21
-29.473217213756701
 31
0.0
  0
LINE
  5
C7
  8
1
 62
     7
 10
85.958353282808957
 20
-25.81903538318625
 30
0.0
 11
77.733301823592399
 21
-29.48106423096829
 31
0.0
  0
LINE
  5
C8
  8
1
 62
     7
 10
73.035845909388001
 20
-13.37090968035363
 30
0.0
 11
81.899115686497794
 21
-11.808076081351251
 31
0.0
  0
LINE
  5
C9
  8
1
 62
     7
 10
157.86604289132791
 20
65.383484153110089
 30
0.0
 11
157.86604289132791
 21
69.419017567234391
 31
0.0
  0
LINE
  5
CA
  8
1
 62
     7
 10
183.86604289132799
 20
60.621778264910738
 30
0.0
 11
181.86604289132799
 21
57.157676649772952
 31
0.0
  0
LINE
  5
CB
  8
1
 62
     7
 10
115.86604289132799
 20
57.157676649772952
 30
0.0
 11
113.86604289132799
 21
60.621778264910738
 31
0.0
  0
LINE
  5
CC
  8
1
 62
     7
 10
139.86604289132799
 20
69.419017567234391
 30
0.0
 11
139.86604289132799
 21
65.383484153110089
 31
0.0
  0
LINE
  5
CD
  8
1
 62
     7
 10
185.36604289132799
 20
63.21985447626399
 30
0.0
 11
187.36604289132799
 21
66.683956091401797
 31
0.0
  0
LINE
  5
CE
  8
1
 62
     7
 10
110.36604289132789
 20
66.683956091401797
 30
0.0
 11
112.36604289132789
 21
63.21985447626399
 31
0.0
  0
LINE
  5
CF
  8
1
 62
     7
 10
226.86604289132791
 20
-70.0
 30
0.0
 11
226.86604289132791
 21
-80.0
 31
0.0
  0
LINE
  5
D0
  8
1
 62
     7
 10
183.86604289132791
 20
-80.0
 30
0.0
 11
226.86604289132791
 21
-80.0
 31
0.0
  0
LINE
  5
D1
  8
1
  6
DASHDOT
 62
     3
 10
213.86604289132791
 20
-82.217282833415865
 30
0.0
 11
213.86604289132791
 21
-65.893249791628719
 31
0.0
  0
LINE
  5
D2
  8
1
  6
DASHED
 62
     3
 10
222.86604289132791
 20
-70.0
 30
0.0
 11
222.86604289132799
 21
-68.0
 31
0.0
  0
LINE
  5
D3
  8
1
  6
DASHED
 62
     3
 10
204.86604289132791
 20
-70.0
 30
0.0
 11
222.86604289132791
 21
-70.0
 31
0.0
  0
LINE
  5
D4
  8
1
  6
DASHED
 62
     3
 10
204.86604289132791
 20
-68.0
 30
0.0
 11
204.86604289132791
 21
-70.0
 31
0.0
  0
LINE
  5
D5
  8
1
  6
DASHED
 62
     3
 10
218.11604289132791
 20
-80.0
 30
0.0
 11
218.11604289132799
 21
-70.0
 31
0.0
  0
LINE
  5
D6
  8
1
  6
DASHED
 62
     3
 10
209.61604289132779
 20
-80.0
 30
0.0
 11
209.61604289132779
 21
-70.0
 31
0.0
  0
LINE
  5
D7
  8
1
 62
     7
 10
180.86604289132791
 20
-76.0
 30
0.0
 11
116.86604289132799
 21
-76.0
 31
0.0
  0
LINE
  5
D8
  8
1
 62
     7
 10
193.86604289132791
 20
-51.233412548641923
 30
0.0
 11
193.86604289132791
 21
-66.0
 31
0.0
  0
LINE
  5
D9
  8
1
 62
     7
 10
185.415045870385
 20
-51.780787943019952
 30
0.0
 11
192.29967605259409
 21
-51.780787943019952
 31
0.0
  0
LINE
  5
DA
  8
1
 62
     7
 10
201.86604289132791
 20
-57.965506984757788
 30
0.0
 11
201.86604289132791
 21
-66.0
 31
0.0
  0
LINE
  5
DB
  8
1
 62
     7
 10
219.20904312980829
 20
-31.3187215168366
 30
0.0
 11
226.86604289132799
 21
-69.319918128670665
 31
0.0
  0
LINE
  5
DC
  8
1
  6
DASHED
 62
     3
 10
88.116042891327993
 20
-70.0
 30
0.0
 11
88.116042891327993
 21
-80.0
 31
0.0
  0
LINE
  5
DD
  8
1
  6
DASHED
 62
     3
 10
79.616042891327979
 20
-70.0
 30
0.0
 11
79.616042891327979
 21
-80.0
 31
0.0
  0
LINE
  5
DE
  8
1
  6
DASHED
 62
     3
 10
92.866042891327993
 20
-70.0
 30
0.0
 11
92.866042891327993
 21
-68.0
 31
0.0
  0
LINE
  5
DF
  8
1
  6
DASHED
 62
     3
 10
74.866042891327979
 20
-70.0
 30
0.0
 11
92.866042891327993
 21
-70.0
 31
0.0
  0
LINE
  5
E0
  8
1
  6
DASHED
 62
     3
 10
74.866042891327979
 20
-68.0
 30
0.0
 11
74.866042891327979
 21
-70.0
 31
0.0
  0
LINE
  5
E1
  8
1
  6
DASHDOT
 62
     3
 10
83.866042891327965
 20
-65.893249791628719
 30
0.0
 11
83.866042891327965
 21
-82.217282833415865
 31
0.0
  0
LINE
  5
E2
  8
1
 62
     7
 10
70.866042891327979
 20
-69.319918128670665
 30
0.0
 11
78.52304265284755
 21
-31.3187215168366
 31
0.0
  0
LINE
  5
E3
  8
1
 62
     7
 10
103.86604289132789
 20
-66.0
 30
0.0
 11
103.86604289132789
 21
-51.233412548641923
 31
0.0
  0
LINE
  5
E4
  8
1
 62
     7
 10
105.43240973006191
 20
-51.780787943019952
 30
0.0
 11
112.3170399122709
 21
-51.780787943019952
 31
0.0
  0
LINE
  5
E5
  8
1
 62
     7
 10
72.866042891327979
 20
-68.0
 30
0.0
 11
111.86604289132789
 21
-68.0
 31
0.0
  0
LINE
  5
E6
  8
1
 62
     7
 10
95.866042891327979
 20
-66.0
 30
0.0
 11
95.866042891327979
 21
-57.965506984757788
 31
0.0
  0
LINE
  5
E7
  8
1
 62
     7
 10
70.866042891327979
 20
-80.0
 30
0.0
 11
113.86604289132799
 21
-80.0
 31
0.0
  0
LINE
  5
E8
  8
1
 62
     7
 10
70.866042891327979
 20
-80.0
 30
0.0
 11
70.866042891327979
 21
-70.0
 31
0.0
  0
LINE
  5
E9
  8
1
 62
     7
 10
146.36604289132791
 20
7.0
 30
0.0
 11
146.36604289132791
 21
12.0
 31
0.0
  0
LINE
  5
EA
  8
1
 62
     7
 10
151.36604289132791
 20
7.0
 30
0.0
 11
146.36604289132791
 21
7.0
 31
0.0
  0
LINE
  5
EB
  8
1
 62
     7
 10
151.36604289132791
 20
12.0
 30
0.0
 11
151.36604289132791
 21
7.0
 31
0.0
  0
LINE
  5
EC
  8
1
 62
     7
 10
146.36604289132791
 20
12.0
 30
0.0
 11
151.36604289132791
 21
12.0
 31
0.0
  0
LINE
  5
ED
  8
1
  6
DASHDOT
 62
     3
 10
148.86604289132791
 20
-4.7999999999999554
 30
0.0
 11
148.86604289132791
 21
4.7999999999999554
 31
0.0
  0
LINE
  5
EE
  8
1
  6
DASHDOT
 62
     3
 10
144.06604289132801
 20
0.0
 30
0.0
 11
153.66604289132789
 21
0.0
 31
0.0
  0
LINE
  5
EF
  8
1
 62
     7
 10
146.36604289132791
 20
-15.997448713915899
 30
0.0
 11
144.36604289132791
 21
-15.997448713915899
 31
0.0
  0
LINE
  5
F0
  8
1
 62
     7
 10
146.36604289132791
 20
-12.247448713915899
 30
0.0
 11
146.36604289132791
 21
-15.997448713915899
 31
0.0
  0
LINE
  5
F1
  8
1
 62
     7
 10
151.36604289132791
 20
-15.997448713915899
 30
0.0
 11
153.36604289132791
 21
-15.997448713915899
 31
0.0
  0
LINE
  5
F2
  8
1
 62
     7
 10
151.36604289132791
 20
-12.247448713915899
 30
0.0
 11
151.36604289132791
 21
-15.997448713915899
 31
0.0
  0
LINE
  5
F3
  8
1
 62
     7
 10
142.36604289132791
 20
-11.76966329517256
 30
0.0
 11
142.36604289132791
 21
-13.997448713915899
 31
0.0
  0
LINE
  5
F4
  8
1
 62
     7
 10
155.36604289132791
 20
-11.76966329517256
 30
0.0
 11
155.36604289132791
 21
-13.997448713915899
 31
0.0
  0
LINE
  5
F5
  8
1
 62
     7
 10
190.0207434297071
 20
-2.0
 30
0.0
 11
191.17544396808671
 21
0.0
 31
0.0
  0
LINE
  5
F6
  8
1
 62
     7
 10
191.17544396808671
 20
0.0
 30
0.0
 11
190.0207434297071
 21
2.0
 31
0.0
  0
LINE
  5
F7
  8
1
 62
     7
 10
190.0207434297071
 20
2.0
 30
0.0
 11
187.71134235294861
 21
2.0
 31
0.0
  0
LINE
  5
F8
  8
1
 62
     7
 10
187.71134235294861
 20
2.0
 30
0.0
 11
186.5566418145695
 21
0.0
 31
0.0
  0
LINE
  5
F9
  8
1
 62
     7
 10
186.5566418145695
 20
0.0
 30
0.0
 11
187.71134235294861
 21
-2.0
 31
0.0
  0
LINE
  5
FA
  8
1
 62
     7
 10
187.71134235294861
 20
-2.0
 30
0.0
 11
190.0207434297071
 21
-2.0
 31
0.0
  0
LINE
  5
FB
  8
1
 62
     7
 10
146.86604289132791
 20
-41.154700538379423
 30
0.0
 11
148.86604289132791
 21
-42.30940107675859
 31
0.0
  0
LINE
  5
FC
  8
1
 62
     7
 10
148.86604289132791
 20
-42.30940107675859
 30
0.0
 11
150.86604289132779
 21
-41.154700538379423
 31
0.0
  0
LINE
  5
FD
  8
1
 62
     7
 10
150.86604289132779
 20
-41.154700538379423
 30
0.0
 11
150.86604289132791
 21
-38.845299461620812
 31
0.0
  0
LINE
  5
FE
  8
1
 62
     7
 10
150.86604289132791
 20
-38.845299461620812
 30
0.0
 11
148.86604289132791
 21
-37.690598923241609
 31
0.0
  0
LINE
  5
FF
  8
1
 62
     7
 10
148.86604289132791
 20
-37.690598923241609
 30
0.0
 11
146.86604289132791
 21
-38.845299461620812
 31
0.0
  0
LINE
  5
100
  8
1
 62
     7
 10
146.86604289132791
 20
-38.845299461620812
 30
0.0
 11
146.86604289132791
 21
-41.154700538379423
 31
0.0
  0
LINE
  5
101
  8
1
 62
     7
 10
107.71134235294851
 20
2.0
 30
0.0
 11
106.5566418145694
 21
0.0
 31
0.0
  0
LINE
  5
102
  8
1
 62
     7
 10
106.5566418145694
 20
0.0
 30
0.0
 11
107.71134235294851
 21
-2.0
 31
0.0
  0
LINE
  5
103
  8
1
 62
     7
 10
107.71134235294851
 20
-2.0
 30
0.0
 11
110.0207434297072
 21
-2.0
 31
0.0
  0
LINE
  5
104
  8
1
 62
     7
 10
110.0207434297072
 20
-2.0
 30
0.0
 11
111.1754439680864
 21
0.0
 31
0.0
  0
LINE
  5
105
  8
1
 62
     7
 10
111.1754439680864
 20
0.0
 30
0.0
 11
110.0207434297072
 21
2.0
 31
0.0
  0
LINE
  5
106
  8
1
 62
     7
 10
110.0207434297072
 20
2.0
 30
0.0
 11
107.71134235294851
 21
2.0
 31
0.0
  0
LINE
  5
107
  8
1
 62
     7
 10
150.86604289132791
 20
38.845299461620698
 30
0.0
 11
150.86604289132791
 21
41.154700538379288
 31
0.0
  0
LINE
  5
108
  8
1
 62
     7
 10
148.86604289132791
 20
37.690598923241502
 30
0.0
 11
150.86604289132791
 21
38.845299461620698
 31
0.0
  0
LINE
  5
109
  8
1
 62
     7
 10
146.86604289132791
 20
38.845299461620698
 30
0.0
 11
148.86604289132791
 21
37.690598923241502
 31
0.0
  0
LINE
  5
10A
  8
1
 62
     7
 10
146.86604289132791
 20
41.154700538379288
 30
0.0
 11
146.86604289132791
 21
38.845299461620698
 31
0.0
  0
LINE
  5
10B
  8
1
 62
     7
 10
148.86604289132791
 20
42.30940107675849
 30
0.0
 11
146.86604289132791
 21
41.154700538379288
 31
0.0
  0
LINE
  5
10C
  8
1
 62
     7
 10
150.86604289132791
 20
41.154700538379288
 30
0.0
 11
148.86604289132791
 21
42.30940107675849
 31
0.0
  0
LINE
  5
10D
  8
1
 62
     7
 10
198.63699207373909
 20
-45.688466277772598
 30
0.0
 11
197.14269962012571
 21
-40.111690919520584
 31
0.0
  0
LINE
  5
10E
  8
1
 62
     7
 10
197.14269962012571
 20
-40.111690919520584
 30
0.0
 11
191.5659242618739
 21
-38.617398465907172
 31
0.0
  0
LINE
  5
10F
  8
1
 62
     7
 10
191.5659242618739
 20
-38.617398465907172
 30
0.0
 11
187.48344135723511
 21
-42.699881370545782
 31
0.0
  0
LINE
  5
110
  8
1
 62
     7
 10
187.48344135723511
 20
-42.699881370545782
 30
0.0
 11
188.97773381084849
 21
-48.276656728797782
 31
0.0
  0
LINE
  5
111
  8
1
 62
     7
 10
188.97773381084849
 20
-48.276656728797782
 30
0.0
 11
194.55450916910061
 21
-49.770949182411179
 31
0.0
  0
LINE
  5
112
  8
1
 62
     7
 10
194.55450916910061
 20
-49.770949182411179
 30
0.0
 11
198.63699207373909
 21
-45.688466277772598
 31
0.0
  0
LINE
  5
113
  8
1
 62
     7
 10
172.30389161762611
 20
-26.266275851044369
 30
0.0
 11
186.8757830324069
 21
-40.838167265825057
 31
0.0
  0
LINE
  5
114
  8
1
 62
     7
 10
175.13231874237229
 20
-23.437848726298171
 30
0.0
 11
189.704210157153
 21
-38.009740141078851
 31
0.0
  0
LINE
  5
115
  8
1
 62
     7
 10
103.1775766135553
 20
-49.7709491824113
 30
0.0
 11
108.7543519718072
 21
-48.276656728797889
 31
0.0
  0
LINE
  5
116
  8
1
 62
     7
 10
108.7543519718072
 20
-48.276656728797889
 30
0.0
 11
110.24864442542069
 21
-42.699881370545882
 31
0.0
  0
LINE
  5
117
  8
1
 62
     7
 10
110.24864442542069
 20
-42.699881370545882
 30
0.0
 11
106.166161520782
 21
-38.617398465907279
 31
0.0
  0
LINE
  5
118
  8
1
 62
     7
 10
106.166161520782
 20
-38.617398465907279
 30
0.0
 11
100.5893861625301
 21
-40.111690919520697
 31
0.0
  0
LINE
  5
119
  8
1
 62
     7
 10
100.5893861625301
 20
-40.111690919520697
 30
0.0
 11
99.095093708916693
 21
-45.688466277772697
 31
0.0
  0
LINE
  5
11A
  8
1
 62
     7
 10
99.095093708916693
 20
-45.688466277772697
 30
0.0
 11
103.1775766135553
 21
-49.7709491824113
 31
0.0
  0
LINE
  5
11B
  8
1
 62
     7
 10
122.5997670402835
 20
-23.437848726298281
 30
0.0
 11
108.0278756255028
 21
-38.009740141078957
 31
0.0
  0
LINE
  5
11C
  8
1
 62
     7
 10
125.42819416502969
 20
-26.266275851044501
 30
0.0
 11
110.856302750249
 21
-40.838167265825177
 31
0.0
  0
LINE
  5
11D
  8
1
 62
     7
 10
110.16100594170349
 20
-41.533464074370599
 30
0.0
 11
110.08608262954181
 21
-41.608387386532392
 31
0.0
  0
LINE
  5
11E
  8
1
 62
     7
 10
99.095093708916693
 20
45.688466277772598
 30
0.0
 11
100.5893861625301
 21
40.111690919520584
 31
0.0
  0
LINE
  5
11F
  8
1
 62
     7
 10
100.5893861625301
 20
40.111690919520584
 30
0.0
 11
106.166161520782
 21
38.617398465907172
 31
0.0
  0
LINE
  5
120
  8
1
 62
     7
 10
106.166161520782
 20
38.617398465907172
 30
0.0
 11
110.24864442542069
 21
42.699881370545782
 31
0.0
  0
LINE
  5
121
  8
1
 62
     7
 10
110.24864442542069
 20
42.699881370545782
 30
0.0
 11
108.7543519718072
 21
48.276656728797782
 31
0.0
  0
LINE
  5
122
  8
1
 62
     7
 10
108.7543519718072
 20
48.276656728797782
 30
0.0
 11
103.1775766135553
 21
49.770949182411179
 31
0.0
  0
LINE
  5
123
  8
1
 62
     7
 10
103.1775766135553
 20
49.770949182411179
 30
0.0
 11
99.095093708916693
 21
45.688466277772598
 31
0.0
  0
LINE
  5
124
  8
1
 62
     7
 10
125.42819416502969
 20
26.266275851044369
 30
0.0
 11
110.856302750249
 21
40.838167265825057
 31
0.0
  0
LINE
  5
125
  8
1
 62
     7
 10
122.5997670402835
 20
23.437848726298171
 30
0.0
 11
108.0278756255028
 21
38.009740141078851
 31
0.0
  0
LINE
  5
126
  8
1
 62
     7
 10
172.30389161762611
 20
26.266275851044369
 30
0.0
 11
186.87578303240679
 21
40.838167265825057
 31
0.0
  0
LINE
  5
127
  8
1
 62
     7
 10
175.13231874237241
 20
23.437848726298171
 30
0.0
 11
189.704210157153
 21
38.009740141078851
 31
0.0
  0
LINE
  5
128
  8
1
 62
     7
 10
198.63699207373909
 20
45.688466277772598
 30
0.0
 11
194.55450916910041
 21
49.770949182411179
 31
0.0
  0
LINE
  5
129
  8
1
 62
     7
 10
197.14269962012551
 20
40.111690919520584
 30
0.0
 11
198.63699207373909
 21
45.688466277772598
 31
0.0
  0
LINE
  5
12A
  8
1
 62
     7
 10
191.5659242618735
 20
38.617398465907172
 30
0.0
 11
197.14269962012551
 21
40.111690919520584
 31
0.0
  0
LINE
  5
12B
  8
1
 62
     7
 10
187.48344135723511
 20
42.699881370545782
 30
0.0
 11
191.5659242618735
 21
38.617398465907172
 31
0.0
  0
LINE
  5
12C
  8
1
 62
     7
 10
188.97773381084841
 20
48.276656728797782
 30
0.0
 11
187.48344135723511
 21
42.699881370545782
 31
0.0
  0
LINE
  5
12D
  8
1
 62
     7
 10
194.55450916910041
 20
49.770949182411179
 30
0.0
 11
188.97773381084841
 21
48.276656728797782
 31
0.0
  0
LINE
  5
12E
  8
1
 62
     7
 10
-44.956192663569603
 20
32.5
 30
0.0
 11
-42.956192663569603
 21
30.5
 31
0.0
  0
LINE
  5
12F
  8
1
 62
     7
 10
-39.956192663569603
 20
-12.50000000000011
 30
0.0
 11
-39.956192663569603
 21
12.5
 31
0.0
  0
LINE
  5
130
  8
1
 62
     7
 10
-3.956192663569595
 20
-9.0000000000001137
 30
0.0
 11
-4.9561926635695936
 21
-10.00000000000011
 31
0.0
  0
LINE
  5
131
  8
1
 62
     7
 10
-4.9561926635695936
 20
10.0
 30
0.0
 11
-3.956192663569595
 21
9.0
 31
0.0
  0
LINE
  5
132
  8
1
 62
     7
 10
-41.75619266356972
 20
-12.50000000000011
 30
0.0
 11
-39.956192663569603
 21
-12.50000000000011
 31
0.0
  0
LINE
  5
133
  8
1
 62
     7
 10
-39.956192663569603
 20
-10.00000000000011
 30
0.0
 11
-4.9561926635695936
 21
-10.00000000000011
 31
0.0
  0
LINE
  5
134
  8
1
 62
     7
 10
-39.956192663569603
 20
10.0
 30
0.0
 11
-4.9561926635695936
 21
10.0
 31
0.0
  0
LINE
  5
135
  8
1
 62
     7
 10
-41.75619266356972
 20
12.5
 30
0.0
 11
-39.956192663569603
 21
12.5
 31
0.0
  0
LINE
  5
136
  8
1
 62
     7
 10
-41.75619266356972
 20
-15.997448713915899
 30
0.0
 11
-41.75619266356972
 21
15.049999999999949
 31
0.0
  0
LINE
  5
137
  8
1
 62
     7
 10
-42.956192663569603
 20
-15.997448713915899
 30
0.0
 11
-41.75619266356972
 21
-15.997448713915899
 31
0.0
  0
LINE
  5
138
  8
1
 62
     7
 10
-41.75619266356972
 20
15.049999999999949
 30
0.0
 11
-42.956192663569603
 21
15.049999999999949
 31
0.0
  0
LINE
  5
139
  8
1
 62
     7
 10
-42.956192663569603
 20
30.5
 30
0.0
 11
-42.956192663569603
 21
-30.5
 31
0.0
  0
LINE
  5
13A
  8
1
 62
     7
 10
-75.456192663569709
 20
-39.881673824159279
 30
0.0
 11
-75.456192663569709
 21
-48.506673824159279
 31
0.0
  0
LINE
  5
13B
  8
1
 62
     7
 10
-75.94694039238091
 20
-38.444173824159279
 30
0.0
 11
-79.456192663569695
 21
-38.444173824159279
 31
0.0
  0
LINE
  5
13C
  8
1
 62
     7
 10
-75.94694039238091
 20
-41.319173824159279
 30
0.0
 11
-79.456192663569695
 21
-41.319173824159279
 31
0.0
  0
LINE
  5
13D
  8
1
 62
     7
 10
-75.94694039238091
 20
-47.069173824159279
 30
0.0
 11
-79.456192663569695
 21
-47.069173824159279
 31
0.0
  0
LINE
  5
13E
  8
1
 62
     7
 10
-75.94694039238091
 20
-49.944173824159279
 30
0.0
 11
-79.456192663569695
 21
-49.944173824159279
 31
0.0
  0
LINE
  5
13F
  8
1
 62
     7
 10
-42.956192663569603
 20
19.940211576162941
 30
0.0
 11
-80.956192663569709
 21
36.694173824159279
 31
0.0
  0
LINE
  5
140
  8
1
 62
     7
 10
-80.956192663569709
 20
19.940211576162941
 30
0.0
 11
-42.956192663569603
 21
19.940211576162941
 31
0.0
  0
LINE
  5
141
  8
1
 62
     7
 10
-79.456192663569695
 20
50.194173824159279
 30
0.0
 11
-79.456192663569695
 21
38.194173824159279
 31
0.0
  0
LINE
  5
142
  8
1
 62
     7
 10
-75.456192663569709
 20
48.506673824159279
 30
0.0
 11
-75.456192663569709
 21
39.881673824159279
 31
0.0
  0
LINE
  5
143
  8
1
 62
     7
 10
-79.456192663569695
 20
38.444173824159279
 30
0.0
 11
-75.94694039238091
 21
38.444173824159279
 31
0.0
  0
LINE
  5
144
  8
1
 62
     7
 10
-79.456192663569695
 20
41.319173824159279
 30
0.0
 11
-75.94694039238091
 21
41.319173824159279
 31
0.0
  0
LINE
  5
145
  8
1
 62
     7
 10
-79.456192663569695
 20
47.069173824159279
 30
0.0
 11
-75.94694039238091
 21
47.069173824159279
 31
0.0
  0
LINE
  5
146
  8
1
 62
     7
 10
-79.456192663569695
 20
49.944173824159279
 30
0.0
 11
-75.94694039238091
 21
49.944173824159279
 31
0.0
  0
LINE
  5
147
  8
1
 62
     7
 10
-71.443302341931712
 20
32.5
 30
0.0
 11
-44.956192663569603
 21
32.5
 31
0.0
  0
LINE
  5
148
  8
1
 62
     7
 10
-80.956192663569709
 20
4.25
 30
0.0
 11
-76.256192663569607
 21
4.25
 31
0.0
  0
LINE
  5
149
  8
1
 62
     7
 10
-76.256192663569607
 20
4.25
 30
0.0
 11
-75.956192663569709
 21
3.730384757729325
 31
0.0
  0
LINE
  5
14A
  8
1
 62
     7
 10
-241.9561926635696
 20
19.94021157616282
 30
0.0
 11
-203.9561926635696
 21
19.94021157616282
 31
0.0
  0
LINE
  5
14B
  8
1
 62
     7
 10
-203.9561926635696
 20
36.694173824159179
 30
0.0
 11
-241.9561926635696
 21
19.94021157616282
 31
0.0
  0
LINE
  5
14C
  8
1
 62
     7
 10
-239.9561926635696
 20
32.5
 30
0.0
 11
-213.46908298520751
 21
32.499999999999893
 31
0.0
  0
LINE
  5
14D
  8
1
 62
     7
 10
-205.45619266356951
 20
44.194173824159179
 30
0.0
 11
-206.95619266356951
 21
42.694173824159179
 31
0.0
  0
LINE
  5
14E
  8
1
 62
     7
 10
-205.45619266356951
 20
45.694173824159179
 30
0.0
 11
-206.95619266356951
 21
44.194173824159179
 31
0.0
  0
LINE
  5
14F
  8
1
 62
     7
 10
-205.45619266356951
 20
38.094173824159149
 30
0.0
 11
-206.95619266356951
 21
38.094173824159149
 31
0.0
  0
LINE
  5
150
  8
1
 62
     7
 10
-206.95619266356951
 20
38.094173824159149
 30
0.0
 11
-206.95619266356951
 21
50.294173824159202
 31
0.0
  0
LINE
  5
151
  8
1
 62
     7
 10
-206.95619266356951
 20
50.294173824159202
 30
0.0
 11
-205.45619266356951
 21
50.294173824159202
 31
0.0
  0
LINE
  5
152
  8
1
 62
     7
 10
-205.45619266356951
 20
50.294173824159202
 30
0.0
 11
-205.45619266356951
 21
38.094173824159149
 31
0.0
  0
LINE
  5
153
  8
1
 62
     7
 10
-211.9561926635696
 20
39.881673824159179
 30
0.0
 11
-211.9561926635696
 21
48.506673824159179
 31
0.0
  0
LINE
  5
154
  8
1
 62
     7
 10
-211.46544493475841
 20
38.444173824159172
 30
0.0
 11
-206.95619266356951
 21
38.444173824159172
 31
0.0
  0
LINE
  5
155
  8
1
 62
     7
 10
-211.46544493475841
 20
41.319173824159179
 30
0.0
 11
-206.95619266356951
 21
41.319173824159179
 31
0.0
  0
LINE
  5
156
  8
1
 62
     7
 10
-211.46544493475841
 20
47.069173824159193
 30
0.0
 11
-206.95619266356951
 21
47.069173824159193
 31
0.0
  0
LINE
  5
157
  8
1
 62
     7
 10
-211.46544493475841
 20
49.944173824159179
 30
0.0
 11
-206.95619266356951
 21
49.944173824159179
 31
0.0
  0
LINE
  5
158
  8
1
 62
     7
 10
-211.9561926635696
 20
41.194173824159172
 30
0.0
 11
-212.95619266356951
 21
41.194173824159172
 31
0.0
  0
LINE
  5
159
  8
1
 62
     7
 10
-212.95619266356951
 20
41.194173824159172
 30
0.0
 11
-212.95619266356951
 21
47.194173824159179
 31
0.0
  0
LINE
  5
15A
  8
1
 62
     7
 10
-212.95619266356951
 20
47.194173824159179
 30
0.0
 11
-211.9561926635696
 21
47.194173824159179
 31
0.0
  0
LINE
  5
15B
  8
1
 62
     3
 10
-211.9561926635696
 20
46.694173824159179
 30
0.0
 11
-213.45619266356951
 21
46.694173824159179
 31
0.0
  0
LINE
  5
15C
  8
1
 62
     7
 10
-213.45619266356951
 20
46.694173824159179
 30
0.0
 11
-213.45619266356951
 21
41.694173824159172
 31
0.0
  0
LINE
  5
15D
  8
1
 62
     3
 10
-213.45619266356951
 20
41.694173824159172
 30
0.0
 11
-211.9561926635696
 21
41.694173824159172
 31
0.0
  0
LINE
  5
15E
  8
1
 62
     7
 10
-212.95619266356951
 20
41.194173824159172
 30
0.0
 11
-213.45619266356951
 21
41.694173824159172
 31
0.0
  0
LINE
  5
15F
  8
1
 62
     7
 10
-213.45619266356951
 20
46.694173824159179
 30
0.0
 11
-212.95619266356951
 21
47.194173824159179
 31
0.0
  0
LINE
  5
160
  8
1
 62
     7
 10
-208.9561926635696
 20
3.7303847577292122
 30
0.0
 11
-208.65619266356961
 21
4.2499999999998863
 31
0.0
  0
LINE
  5
161
  8
1
 62
     7
 10
-208.65619266356961
 20
4.2499999999998863
 30
0.0
 11
-203.95619266356971
 21
4.2499999999998863
 31
0.0
  0
LINE
  5
162
  8
1
 62
     7
 10
-203.95619266356971
 20
4.2499999999998863
 30
0.0
 11
-203.9561926635696
 21
0.0
 31
0.0
  0
LINE
  5
163
  8
1
 62
     7
 10
-208.65619266356961
 20
4.2499999999998863
 30
0.0
 11
-208.65619266356961
 21
-4.25
 31
0.0
  0
LINE
  5
164
  8
1
 62
     7
 10
-241.9561926635696
 20
30.5
 30
0.0
 11
-241.9561926635696
 21
-30.5
 31
0.0
  0
LINE
  5
165
  8
1
 62
     7
 10
-280.9561926635696
 20
308.99999999999977
 30
0.0
 11
-279.95619266356948
 21
309.99999999999977
 31
0.0
  0
LINE
  5
166
  8
1
 62
     7
 10
-280.9561926635696
 20
308.99999999999977
 30
0.0
 11
-280.9561926635696
 21
290.99999999999977
 31
0.0
  0
LINE
  5
167
  8
1
  6
DASHDOT
 62
     3
 10
-285.9561926635696
 20
299.99999999999989
 30
0.0
 11
-280.9561926635696
 21
299.99999999999989
 31
0.0
  0
LINE
  5
168
  8
1
 62
     7
 10
-3.956192663569595
 20
308.99999999999977
 30
0.0
 11
-3.956192663569595
 21
290.99999999999977
 31
0.0
  0
LINE
  5
169
  8
1
 62
     7
 10
-4.9561926635695936
 20
309.99999999999977
 30
0.0
 11
-4.9561926635695936
 21
302.49999999999989
 31
0.0
  0
LINE
  5
16A
  8
1
 62
     7
 10
-241.9561926635696
 20
315.05000000000013
 30
0.0
 11
-243.15619266356961
 21
315.05000000000013
 31
0.0
  0
LINE
  5
16B
  8
1
 62
     7
 10
-243.15619266356961
 20
315.05000000000013
 30
0.0
 11
-243.15619266356961
 21
284.9499999999997
 31
0.0
  0
LINE
  5
16C
  8
1
 62
     7
 10
-244.95619266356951
 20
312.49999999999989
 30
0.0
 11
-243.15619266356961
 21
312.49999999999989
 31
0.0
  0
LINE
  5
16D
  8
1
 62
     7
 10
-244.95619266356951
 20
312.49999999999989
 30
0.0
 11
-244.95619266356951
 21
287.49999999999989
 31
0.0
  0
LINE
  5
16E
  8
1
 62
     7
 10
-279.95619266356948
 20
309.99999999999977
 30
0.0
 11
-244.95619266356951
 21
309.99999999999977
 31
0.0
  0
LINE
  5
16F
  8
1
 62
     7
 10
-280.9561926635696
 20
308.99999999999977
 30
0.0
 11
-279.95619266356948
 21
309.99999999999977
 31
0.0
  0
LINE
  5
170
  8
1
 62
     7
 10
-241.9561926635696
 20
330.50000000000011
 30
0.0
 11
-239.9561926635696
 21
332.50000000000011
 31
0.0
  0
LINE
  5
171
  8
1
 62
     7
 10
-241.9561926635696
 20
330.50000000000011
 30
0.0
 11
-239.9561926635696
 21
332.50000000000011
 31
0.0
  0
LINE
  5
172
  8
1
 62
     7
 10
-200.95619266356951
 20
377.00000000000011
 30
0.0
 11
-83.956192663569709
 21
377.00000000000011
 31
0.0
  0
LINE
  5
173
  8
1
 62
     7
 10
-80.956192663569709
 20
338.50000000000011
 30
0.0
 11
-80.956192663569709
 21
374.00000000000011
 31
0.0
  0
LINE
  5
174
  8
1
 62
     7
 10
-44.956192663569603
 20
332.50000000000011
 30
0.0
 11
-42.956192663569603
 21
330.50000000000011
 31
0.0
  0
LINE
  5
175
  8
1
 62
     7
 10
-39.956192663569603
 20
287.49999999999989
 30
0.0
 11
-39.956192663569603
 21
312.49999999999989
 31
0.0
  0
LINE
  5
176
  8
1
 62
     7
 10
-4.9561926635695936
 20
309.99999999999977
 30
0.0
 11
-3.956192663569595
 21
308.99999999999977
 31
0.0
  0
LINE
  5
177
  8
1
 62
     7
 10
-39.956192663569603
 20
309.99999999999977
 30
0.0
 11
-4.9561926635695936
 21
309.99999999999977
 31
0.0
  0
LINE
  5
178
  8
1
 62
     7
 10
-41.75619266356972
 20
312.49999999999989
 30
0.0
 11
-39.956192663569603
 21
312.49999999999989
 31
0.0
  0
LINE
  5
179
  8
1
 62
     7
 10
-41.75619266356972
 20
315.05000000000013
 30
0.0
 11
-42.956192663569603
 21
315.05000000000013
 31
0.0
  0
LINE
  5
17A
  8
1
 62
     7
 10
-42.956192663569603
 20
319.94021157616311
 30
0.0
 11
-75.956192663569709
 21
334.48970510731812
 31
0.0
  0
LINE
  5
17B
  8
1
 62
     7
 10
-79.456192663569695
 20
350.19417382415901
 30
0.0
 11
-79.456192663569695
 21
338.50000000000011
 31
0.0
  0
LINE
  5
17C
  8
1
 62
     7
 10
-75.456192663569709
 20
348.50667382415901
 30
0.0
 11
-75.456192663569709
 21
339.88167382415912
 31
0.0
  0
LINE
  5
17D
  8
1
 62
     7
 10
-79.456192663569695
 20
341.31917382415912
 30
0.0
 11
-75.94694039238091
 21
341.31917382415912
 31
0.0
  0
LINE
  5
17E
  8
1
 62
     7
 10
-79.456192663569695
 20
347.06917382415901
 30
0.0
 11
-75.94694039238091
 21
347.06917382415901
 31
0.0
  0
LINE
  5
17F
  8
1
 62
     7
 10
-79.456192663569695
 20
349.94417382415901
 30
0.0
 11
-75.94694039238091
 21
349.94417382415901
 31
0.0
  0
LINE
  5
180
  8
1
 62
     7
 10
-71.443302341931712
 20
332.50000000000011
 30
0.0
 11
-44.956192663569603
 21
332.50000000000011
 31
0.0
  0
LINE
  5
181
  8
1
 62
     7
 10
-241.9561926635696
 20
319.94021157616311
 30
0.0
 11
-208.95619266356951
 21
319.94021157616311
 31
0.0
  0
LINE
  5
182
  8
1
 62
     7
 10
-239.9561926635696
 20
332.50000000000011
 30
0.0
 11
-213.46908298520751
 21
332.50000000000011
 31
0.0
  0
LINE
  5
183
  8
1
 62
     7
 10
-205.45619266356951
 20
344.19417382415901
 30
0.0
 11
-206.95619266356951
 21
342.69417382415912
 31
0.0
  0
LINE
  5
184
  8
1
 62
     7
 10
-205.45619266356951
 20
345.69417382415901
 30
0.0
 11
-206.95619266356951
 21
344.19417382415901
 31
0.0
  0
LINE
  5
185
  8
1
 62
     7
 10
-206.95619266356951
 20
350.29417382415897
 30
0.0
 11
-205.45619266356951
 21
350.29417382415897
 31
0.0
  0
LINE
  5
186
  8
1
 62
     7
 10
-205.45619266356951
 20
350.29417382415897
 30
0.0
 11
-205.45619266356951
 21
338.50000000000011
 31
0.0
  0
LINE
  5
187
  8
1
 62
     7
 10
-211.9561926635696
 20
339.88167382415912
 30
0.0
 11
-211.9561926635696
 21
348.50667382415901
 31
0.0
  0
LINE
  5
188
  8
1
 62
     7
 10
-211.46544493475841
 20
338.44417382415912
 30
0.0
 11
-206.95619266356951
 21
338.44417382415912
 31
0.0
  0
LINE
  5
189
  8
1
 62
     7
 10
-211.46544493475841
 20
341.31917382415912
 30
0.0
 11
-206.95619266356951
 21
341.31917382415912
 31
0.0
  0
LINE
  5
18A
  8
1
 62
     7
 10
-211.46544493475841
 20
347.06917382415901
 30
0.0
 11
-206.95619266356951
 21
347.06917382415901
 31
0.0
  0
LINE
  5
18B
  8
1
 62
     7
 10
-211.46544493475841
 20
349.94417382415901
 30
0.0
 11
-206.95619266356951
 21
349.94417382415901
 31
0.0
  0
LINE
  5
18C
  8
1
 62
     7
 10
-211.9561926635696
 20
341.19417382415912
 30
0.0
 11
-212.95619266356951
 21
341.19417382415912
 31
0.0
  0
LINE
  5
18D
  8
1
 62
     7
 10
-212.95619266356951
 20
341.19417382415912
 30
0.0
 11
-212.95619266356951
 21
347.19417382415901
 31
0.0
  0
LINE
  5
18E
  8
1
 62
     7
 10
-212.95619266356951
 20
347.19417382415901
 30
0.0
 11
-211.9561926635696
 21
347.19417382415901
 31
0.0
  0
LINE
  5
18F
  8
1
 62
     3
 10
-211.9561926635696
 20
346.69417382415901
 30
0.0
 11
-213.45619266356951
 21
346.69417382415901
 31
0.0
  0
LINE
  5
190
  8
1
 62
     7
 10
-213.45619266356951
 20
346.69417382415901
 30
0.0
 11
-213.45619266356951
 21
341.69417382415912
 31
0.0
  0
LINE
  5
191
  8
1
 62
     3
 10
-213.45619266356951
 20
341.69417382415912
 30
0.0
 11
-211.9561926635696
 21
341.69417382415912
 31
0.0
  0
LINE
  5
192
  8
1
 62
     7
 10
-212.95619266356951
 20
341.19417382415912
 30
0.0
 11
-213.45619266356951
 21
341.69417382415912
 31
0.0
  0
LINE
  5
193
  8
1
 62
     7
 10
-213.45619266356951
 20
346.69417382415901
 30
0.0
 11
-212.95619266356951
 21
347.19417382415901
 31
0.0
  0
LINE
  5
194
  8
1
 62
     7
 10
-241.9561926635696
 20
330.50000000000011
 30
0.0
 11
-241.9561926635696
 21
269.49999999999989
 31
0.0
  0
LINE
  5
195
  8
1
 62
     7
 10
-203.9561926635696
 20
338.50000000000011
 30
0.0
 11
-205.9561926635696
 21
338.50000000000011
 31
0.0
  0
LINE
  5
196
  8
1
 62
     7
 10
-208.95619266356951
 20
335.50000000000011
 30
0.0
 11
-208.95619266356951
 21
264.49999999999989
 31
0.0
  0
LINE
  5
197
  8
1
 62
     7
 10
-208.95619266356951
 20
334.48970510731812
 30
0.0
 11
-241.9561926635696
 21
319.94021157616311
 31
0.0
  0
LINE
  5
198
  8
1
 62
     7
 10
-80.956192663569709
 20
338.50000000000011
 30
0.0
 11
-78.956192663569709
 21
338.50000000000011
 31
0.0
  0
LINE
  5
199
  8
1
 62
     7
 10
-78.425895086734045
 20
338.44417382415912
 30
0.0
 11
-75.94694039238091
 21
338.44417382415912
 31
0.0
  0
LINE
  5
19A
  8
1
 62
     7
 10
-206.95619266356951
 20
338.3284271247461
 30
0.0
 11
-206.95619266356951
 21
350.29417382415897
 31
0.0
  0
LINE
  5
19B
  8
1
 62
     7
 10
-41.75619266356972
 20
284.9499999999997
 30
0.0
 11
-41.75619266356972
 21
315.05000000000013
 31
0.0
  0
LINE
  5
19C
  8
1
 62
     7
 10
-279.95619266356948
 20
289.99999999999977
 30
0.0
 11
-280.9561926635696
 21
290.99999999999977
 31
0.0
  0
LINE
  5
19D
  8
1
 62
     7
 10
-243.15619266356961
 20
284.9499999999997
 30
0.0
 11
-241.9561926635696
 21
284.9499999999997
 31
0.0
  0
LINE
  5
19E
  8
1
 62
     7
 10
-243.15619266356961
 20
287.49999999999989
 30
0.0
 11
-244.95619266356951
 21
287.49999999999989
 31
0.0
  0
LINE
  5
19F
  8
1
 62
     7
 10
-244.95619266356951
 20
289.99999999999977
 30
0.0
 11
-279.95619266356948
 21
289.99999999999977
 31
0.0
  0
LINE
  5
1A0
  8
1
 62
     7
 10
-279.95619266356948
 20
289.99999999999977
 30
0.0
 11
-280.9561926635696
 21
290.99999999999977
 31
0.0
  0
LINE
  5
1A1
  8
1
 62
     7
 10
-239.9561926635696
 20
267.49999999999989
 30
0.0
 11
-241.9561926635696
 21
269.49999999999989
 31
0.0
  0
LINE
  5
1A2
  8
1
 62
     7
 10
-239.9561926635696
 20
267.49999999999989
 30
0.0
 11
-241.9561926635696
 21
269.49999999999989
 31
0.0
  0
LINE
  5
1A3
  8
1
 62
     7
 10
-83.956192663569709
 20
222.9999999999996
 30
0.0
 11
-98.456192663569723
 21
222.9999999999996
 31
0.0
  0
LINE
  5
1A4
  8
1
 62
     7
 10
-80.956192663569709
 20
225.99999999999969
 30
0.0
 11
-80.956192663569709
 21
261.49999999999989
 31
0.0
  0
LINE
  5
1A5
  8
1
 62
     7
 10
-42.956192663569603
 20
269.49999999999989
 30
0.0
 11
-44.956192663569603
 21
267.49999999999989
 31
0.0
  0
LINE
  5
1A6
  8
1
 62
     7
 10
-3.956192663569595
 20
290.99999999999977
 30
0.0
 11
-4.9561926635695936
 21
289.99999999999977
 31
0.0
  0
LINE
  5
1A7
  8
1
 62
     7
 10
-4.9561926635695936
 20
289.99999999999977
 30
0.0
 11
-39.956192663569603
 21
289.99999999999977
 31
0.0
  0
LINE
  5
1A8
  8
1
 62
     7
 10
-39.956192663569603
 20
287.49999999999989
 30
0.0
 11
-41.75619266356972
 21
287.49999999999989
 31
0.0
  0
LINE
  5
1A9
  8
1
 62
     7
 10
-42.956192663569603
 20
284.9499999999997
 30
0.0
 11
-41.75619266356972
 21
284.9499999999997
 31
0.0
  0
LINE
  5
1AA
  8
1
 62
     7
 10
-75.956192663569709
 20
265.510294892682
 30
0.0
 11
-42.956192663569603
 21
280.05978842383661
 31
0.0
  0
LINE
  5
1AB
  8
1
 62
     7
 10
-42.956192663569603
 20
280.05978842383661
 30
0.0
 11
-75.956192663569709
 21
280.05978842383661
 31
0.0
  0
LINE
  5
1AC
  8
1
 62
     7
 10
-75.456192663569709
 20
260.11832617584042
 30
0.0
 11
-75.456192663569709
 21
251.49332617584039
 31
0.0
  0
LINE
  5
1AD
  8
1
 62
     7
 10
-75.94694039238091
 20
258.68082617584042
 30
0.0
 11
-79.456192663569695
 21
258.68082617584042
 31
0.0
  0
LINE
  5
1AE
  8
1
 62
     7
 10
-75.94694039238091
 20
252.93082617584051
 30
0.0
 11
-79.456192663569695
 21
252.93082617584051
 31
0.0
  0
LINE
  5
1AF
  8
1
 62
     7
 10
-75.94694039238091
 20
250.05582617584051
 30
0.0
 11
-79.456192663569695
 21
250.05582617584051
 31
0.0
  0
LINE
  5
1B0
  8
1
 62
     7
 10
-44.956192663569603
 20
267.49999999999989
 30
0.0
 11
-71.443302341931712
 21
267.49999999999989
 31
0.0
  0
LINE
  5
1B1
  8
1
 62
     7
 10
-213.46908298520751
 20
267.49999999999989
 30
0.0
 11
-239.9561926635696
 21
267.49999999999989
 31
0.0
  0
LINE
  5
1B2
  8
1
 62
     7
 10
-206.95619266356951
 20
257.30582617584042
 30
0.0
 11
-205.45619266356951
 21
255.80582617584039
 31
0.0
  0
LINE
  5
1B3
  8
1
 62
     7
 10
-206.95619266356951
 20
255.80582617584039
 30
0.0
 11
-205.45619266356951
 21
254.30582617584039
 31
0.0
  0
LINE
  5
1B4
  8
1
 62
     7
 10
-205.45619266356951
 20
249.7058261758406
 30
0.0
 11
-206.95619266356951
 21
249.7058261758406
 31
0.0
  0
LINE
  5
1B5
  8
1
 62
     7
 10
-205.45619266356951
 20
261.49999999999989
 30
0.0
 11
-205.45619266356951
 21
249.7058261758406
 31
0.0
  0
LINE
  5
1B6
  8
1
 62
     7
 10
-211.9561926635696
 20
251.49332617584039
 30
0.0
 11
-211.9561926635696
 21
260.11832617584042
 31
0.0
  0
LINE
  5
1B7
  8
1
 62
     7
 10
-206.95619266356951
 20
261.55582617584042
 30
0.0
 11
-211.46544493475841
 21
261.55582617584059
 31
0.0
  0
LINE
  5
1B8
  8
1
 62
     7
 10
-206.95619266356951
 20
258.68082617584042
 30
0.0
 11
-211.46544493475841
 21
258.68082617584042
 31
0.0
  0
LINE
  5
1B9
  8
1
 62
     7
 10
-206.95619266356951
 20
252.93082617584051
 30
0.0
 11
-211.46544493475841
 21
252.93082617584051
 31
0.0
  0
LINE
  5
1BA
  8
1
 62
     7
 10
-206.95619266356951
 20
250.05582617584051
 30
0.0
 11
-211.46544493475841
 21
250.05582617584051
 31
0.0
  0
LINE
  5
1BB
  8
1
 62
     7
 10
-212.95619266356951
 20
258.80582617584071
 30
0.0
 11
-211.9561926635696
 21
258.80582617584071
 31
0.0
  0
LINE
  5
1BC
  8
1
 62
     7
 10
-212.95619266356951
 20
252.80582617584039
 30
0.0
 11
-212.95619266356951
 21
258.80582617584071
 31
0.0
  0
LINE
  5
1BD
  8
1
 62
     7
 10
-211.9561926635696
 20
252.80582617584039
 30
0.0
 11
-212.95619266356951
 21
252.80582617584039
 31
0.0
  0
LINE
  5
1BE
  8
1
 62
     3
 10
-213.45619266356951
 20
253.30582617584039
 30
0.0
 11
-211.9561926635696
 21
253.30582617584039
 31
0.0
  0
LINE
  5
1BF
  8
1
 62
     7
 10
-213.45619266356951
 20
258.30582617584071
 30
0.0
 11
-213.45619266356951
 21
253.30582617584039
 31
0.0
  0
LINE
  5
1C0
  8
1
 62
     3
 10
-211.9561926635696
 20
258.30582617584048
 30
0.0
 11
-213.45619266356951
 21
258.30582617584071
 31
0.0
  0
LINE
  5
1C1
  8
1
 62
     7
 10
-213.45619266356951
 20
258.30582617584071
 30
0.0
 11
-212.95619266356951
 21
258.80582617584071
 31
0.0
  0
LINE
  5
1C2
  8
1
 62
     7
 10
-212.95619266356951
 20
252.80582617584039
 30
0.0
 11
-213.45619266356951
 21
253.30582617584039
 31
0.0
  0
LINE
  5
1C3
  8
1
 62
     7
 10
-205.9561926635696
 20
261.49999999999989
 30
0.0
 11
-203.9561926635696
 21
261.49999999999989
 31
0.0
  0
LINE
  5
1C4
  8
1
 62
     7
 10
-241.9561926635696
 20
280.05978842383689
 30
0.0
 11
-208.95619266356951
 21
265.510294892682
 31
0.0
  0
LINE
  5
1C5
  8
1
 62
     7
 10
-78.956192663569709
 20
261.49999999999989
 30
0.0
 11
-80.956192663569709
 21
261.49999999999989
 31
0.0
  0
LINE
  5
1C6
  8
1
 62
     7
 10
-75.94694039238091
 20
261.55582617584042
 30
0.0
 11
-78.425895086734045
 21
261.55582617584042
 31
0.0
  0
LINE
  5
1C7
  8
1
 62
     7
 10
-206.95619266356951
 20
249.7058261758406
 30
0.0
 11
-206.95619266356951
 21
261.67157287525362
 31
0.0
  0
LINE
  5
1C8
  8
1
 62
     7
 10
-279.95619266356948
 20
289.99999999999977
 30
0.0
 11
-279.95619266356948
 21
297.49999999999977
 31
0.0
  0
LINE
  5
1C9
  8
1
 62
     7
 10
-203.9561926635696
 20
225.99999999999969
 30
0.0
 11
-203.9561926635696
 21
261.49999999999989
 31
0.0
  0
LINE
  5
1CA
  8
1
 62
     7
 10
-208.95619266356951
 20
335.00000000000011
 30
0.0
 11
-232.9561926635696
 21
335.00000000000011
 31
0.0
  0
LINE
  5
1CB
  8
1
 62
     7
 10
-237.95619266356951
 20
340.00000000000011
 30
0.0
 11
-237.95619266356951
 21
373.00000000000011
 31
0.0
  0
LINE
  5
1CC
  8
1
 62
     7
 10
-232.9561926635696
 20
378.00000000000011
 30
0.0
 11
-146.45619266356951
 21
378.00000000000011
 31
0.0
  0
LINE
  5
1CD
  8
1
 62
     7
 10
-146.45619266356951
 20
378.00000000000011
 30
0.0
 11
-146.45619266356951
 21
377.00000000000011
 31
0.0
  0
LINE
  5
1CE
  8
1
 62
     7
 10
-138.45619266356971
 20
377.00000000000011
 30
0.0
 11
-138.45619266356971
 21
378.00000000000011
 31
0.0
  0
LINE
  5
1CF
  8
1
 62
     7
 10
-138.45619266356971
 20
378.00000000000011
 30
0.0
 11
-51.956192663569603
 21
378.00000000000011
 31
0.0
  0
LINE
  5
1D0
  8
1
 62
     7
 10
-46.956192663569603
 20
373.00000000000011
 30
0.0
 11
-46.956192663569603
 21
340.00000000000011
 31
0.0
  0
LINE
  5
1D1
  8
1
 62
     7
 10
-75.956192663569709
 20
335.00000000000011
 30
0.0
 11
-51.956192663569603
 21
335.00000000000011
 31
0.0
  0
LINE
  5
1D2
  8
1
 62
     7
 10
-232.9561926635696
 20
265.0
 30
0.0
 11
-208.95619266356951
 21
265.0
 31
0.0
  0
LINE
  5
1D3
  8
1
 62
     7
 10
-237.95619266356951
 20
227.0
 30
0.0
 11
-237.95619266356951
 21
260.0
 31
0.0
  0
LINE
  5
1D4
  8
1
 62
     7
 10
-51.956192663569603
 20
222.0
 30
0.0
 11
-98.456192663569723
 21
222.0
 31
0.0
  0
LINE
  5
1D5
  8
1
 62
     7
 10
-46.956192663569603
 20
260.0
 30
0.0
 11
-46.956192663569603
 21
227.0
 31
0.0
  0
LINE
  5
1D6
  8
1
 62
     7
 10
-51.956192663569603
 20
265.0
 30
0.0
 11
-75.956192663569709
 21
265.0
 31
0.0
  0
LINE
  5
1D7
  8
1
  6
DASHDOT
 62
     3
 10
-46.70415701495746
 20
365.00000000000011
 30
0.0
 11
-73.20822831218203
 21
365.00000000000011
 31
0.0
  0
LINE
  5
1D8
  8
1
  6
DASHDOT
 62
     3
 10
-59.956192663569709
 20
378.25203564861209
 30
0.0
 11
-59.956192663569709
 21
351.74796435138802
 31
0.0
  0
LINE
  5
1D9
  8
1
  6
DASHDOT
 62
     3
 10
-211.2824612032139
 20
365.00000000000011
 30
0.0
 11
-238.62992412392509
 21
365.00000000000011
 31
0.0
  0
LINE
  5
1DA
  8
1
  6
DASHDOT
 62
     3
 10
-224.9561926635696
 20
378.67373146035487
 30
0.0
 11
-224.9561926635696
 21
351.32626853964399
 31
0.0
  0
LINE
  5
1DB
  8
1
  6
DASHDOT
 62
     3
 10
-73.20822831218203
 20
234.99999999999989
 30
0.0
 11
-46.70415701495746
 21
234.99999999999989
 31
0.0
  0
LINE
  5
1DC
  8
1
  6
DASHDOT
 62
     3
 10
-59.956192663569709
 20
248.25203564861209
 30
0.0
 11
-59.956192663569709
 21
221.74796435138751
 31
0.0
  0
LINE
  5
1DD
  8
1
  6
DASHDOT
 62
     3
 10
-238.62992412392509
 20
234.99999999999989
 30
0.0
 11
-211.2824612032139
 21
234.99999999999989
 31
0.0
  0
LINE
  5
1DE
  8
1
  6
DASHDOT
 62
     3
 10
-224.9561926635696
 20
248.67373146035541
 30
0.0
 11
-224.9561926635696
 21
221.3262685396443
 31
0.0
  0
LINE
  5
1DF
  8
1
 62
     7
 10
-208.95619266356951
 20
280.05978842383689
 30
0.0
 11
-241.9561926635696
 21
280.05978842383689
 31
0.0
  0
LINE
  5
1E0
  8
1
 62
     7
 10
-75.956192663569709
 20
319.94021157616311
 30
0.0
 11
-42.956192663569603
 21
319.94021157616311
 31
0.0
  0
LINE
  5
1E1
  8
1
 62
     7
 10
-3.956192663569595
 20
302.49999999999989
 30
0.0
 11
-32.456192663569603
 21
302.49999999999989
 31
0.0
  0
LINE
  5
1E2
  8
1
 62
     7
 10
-32.456192663569603
 20
297.49999999999977
 30
0.0
 11
-3.956192663569595
 21
297.49999999999977
 31
0.0
  0
LINE
  5
1E3
  8
1
 62
     7
 10
-4.9561926635695936
 20
297.49999999999977
 30
0.0
 11
-4.9561926635695936
 21
289.99999999999977
 31
0.0
  0
LINE
  5
1E4
  8
1
 62
     7
 10
-280.9561926635696
 20
302.49999999999989
 30
0.0
 11
-252.4561926635696
 21
302.49999999999989
 31
0.0
  0
LINE
  5
1E5
  8
1
 62
     7
 10
-252.4561926635696
 20
297.49999999999977
 30
0.0
 11
-280.9561926635696
 21
297.49999999999977
 31
0.0
  0
LINE
  5
1E6
  8
1
 62
     7
 10
-279.95619266356948
 20
302.49999999999989
 30
0.0
 11
-279.95619266356948
 21
309.99999999999977
 31
0.0
  0
LINE
  5
1E7
  8
1
 62
     7
 10
-186.4561926635696
 20
222.9999999999996
 30
0.0
 11
-200.95619266356951
 21
222.9999999999996
 31
0.0
  0
LINE
  5
1E8
  8
1
 62
     7
 10
-186.4561926635696
 20
222.0
 30
0.0
 11
-232.9561926635696
 21
222.0
 31
0.0
  0
LINE
  5
1E9
  8
1
 62
     7
 10
-186.4561926635696
 20
222.0
 30
0.0
 11
-232.9561926635696
 21
222.0
 31
0.0
  0
LINE
  5
1EA
  8
1
 62
     7
 10
-203.9561926635696
 20
338.50000000000011
 30
0.0
 11
-203.9561926635696
 21
374.00000000000011
 31
0.0
  0
LINE
  5
1EB
  8
1
  6
DASHDOT
 62
     3
 10
1.043807336430405
 20
299.99999999999989
 30
0.0
 11
-3.956192663569595
 21
299.99999999999989
 31
0.0
  0
LINE
  5
1EC
  8
1
 62
     7
 10
52.050556572419168
 20
-30.706546709565711
 30
0.0
 11
74.550556572419055
 21
-30.706546709565711
 31
0.0
  0
LINE
  5
1ED
  8
1
 62
     7
 10
51.050556572419168
 20
-36.206546709565707
 30
0.0
 11
51.050556572419168
 21
-31.706546709565711
 31
0.0
  0
LINE
  5
1EE
  8
1
 62
     7
 10
71.936551382091679
 20
31.495157740350461
 30
0.0
 11
75.197604185175805
 21
30.62136127528834
 31
0.0
  0
LINE
  5
1EF
  8
1
 62
     7
 10
67.525692664171459
 20
33.793453290434279
 30
0.0
 11
71.33447179530107
 21
33.793453290434279
 31
0.0
  0
LINE
  5
1F0
  8
1
 62
     7
 10
42.748082831595347
 20
29.293453290434279
 30
0.0
 11
64.521919875667891
 21
29.293453290434279
 31
0.0
  0
LINE
  5
1F1
  8
1
 62
     7
 10
41.74808283159534
 20
-31.606546709565571
 30
0.0
 11
41.74808283159534
 21
28.293453290434279
 31
0.0
  0
LINE
  5
1F2
  8
1
 62
     7
 10
72.277414693498997
 20
32.460498802946631
 30
0.0
 11
47.91341589721695
 21
-36.539501197053369
 31
0.0
  0
LINE
  5
1F3
  8
1
 62
     7
 10
50.050556572419183
 20
-37.206546709565707
 30
0.0
 11
43.161693867889603
 21
-37.206546709565707
 31
0.0
  0
LINE
  5
1F4
  8
1
 62
     7
 10
42.665423368969712
 20
-32.206546709565707
 30
0.0
 11
42.348082831595264
 21
-32.206546709565707
 31
0.0
  0
LINE
  5
1F5
  8
1
 62
     7
 10
66.582749765973674
 20
33.12640777792204
 30
0.0
 11
42.218750969691641
 21
-35.873592222077953
 31
0.0
  0
LINE
  5
1F6
  8
1
 62
     7
 10
224.86604289132791
 20
-68.0
 30
0.0
 11
185.86604289132791
 21
-68.0
 31
0.0
  0
LINE
  5
1F7
  8
1
 62
     7
 10
183.86604289132791
 20
-51.233412548641923
 30
0.0
 11
183.86604289132791
 21
-80.0
 31
0.0
  0
LINE
  5
1F8
  8
1
 62
     7
 10
113.86604289132799
 20
-51.233412548641923
 30
0.0
 11
113.86604289132799
 21
-80.0
 31
0.0
  0
LINE
  5
1F9
  8
1
  6
DASHED
 62
     3
 10
-3.956192663569595
 20
-2.399999999999999
 30
0.0
 11
-20.7561926635696
 21
-2.3999999999999981
 31
0.0
  0
LINE
  5
1FA
  8
1
  6
DASHED
 62
     3
 10
-20.7561926635696
 20
-2.3999999999999981
 30
0.0
 11
-20.7561926635696
 21
2.400000000000003
 31
0.0
  0
LINE
  5
1FB
  8
1
  6
DASHED
 62
     3
 10
-20.7561926635696
 20
2.400000000000003
 30
0.0
 11
-3.956192663569595
 21
2.3999999999999768
 31
0.0
  0
LINE
  5
1FC
  8
1
  6
DASHED
 62
     3
 10
-20.7561926635696
 20
-2.3999999999999981
 30
0.0
 11
-22.488243471138482
 21
0.0000000000000023
 31
0.0
  0
LINE
  5
1FD
  8
1
  6
DASHED
 62
     3
 10
-22.488243471138482
 20
0.0000000000000023
 30
0.0
 11
-20.7561926635696
 21
2.400000000000003
 31
0.0
  0
LINE
  5
1FE
  8
1
  6
DASHED
 62
     3
 10
-3.956192663569595
 20
-3.0
 30
0.0
 11
-15.956192663569601
 21
-3.0
 31
0.0
  0
LINE
  5
1FF
  8
1
  6
DASHED
 62
     3
 10
-15.956192663569601
 20
-3.0
 30
0.0
 11
-15.956192663569601
 21
3.0
 31
0.0
  0
LINE
  5
200
  8
1
  6
DASHED
 62
     3
 10
-15.956192663569601
 20
3.0
 30
0.0
 11
-3.956192663569595
 21
3.0
 31
0.0
  0
LINE
  5
201
  8
1
  6
DASHED
 62
     3
 10
-15.956192663569601
 20
-3.0
 30
0.0
 11
-16.995423148111001
 21
-2.3999999999999768
 31
0.0
  0
LINE
  5
202
  8
1
  6
DASHED
 62
     3
 10
-15.956192663569601
 20
3.0
 30
0.0
 11
-16.995423148111001
 21
2.3999999999999768
 31
0.0
  0
LINE
  5
203
  8
1
  6
DASHDOT
 62
     3
 10
-0.9561926635695948
 20
-0.0000000000000004
 30
0.0
 11
-26.3418333096247
 21
0.0000000000000027
 31
0.0
  0
LINE
  5
204
  8
1
 62
     7
 10
-203.9561926635696
 20
63.21985447626399
 30
0.0
 11
-203.9561926635696
 21
-65.999999999999972
 31
0.0
  0
LINE
  5
205
  8
1
 62
     7
 10
-280.9561926635696
 20
12.0
 30
0.0
 11
-280.9561926635696
 21
-9.0000000000001137
 31
0.0
  0
LINE
  5
206
  8
1
  6
DASHED
 62
     3
 10
-280.9561926635696
 20
2.3999999999999768
 30
0.0
 11
-264.15619266356958
 21
2.3999999999999999
 31
0.0
  0
LINE
  5
207
  8
1
  6
DASHED
 62
     3
 10
-264.15619266356958
 20
2.3999999999999999
 30
0.0
 11
-264.15619266356958
 21
-2.399999999999999
 31
0.0
  0
LINE
  5
208
  8
1
  6
DASHED
 62
     3
 10
-264.15619266356958
 20
-2.399999999999999
 30
0.0
 11
-280.9561926635696
 21
-2.399999999999999
 31
0.0
  0
LINE
  5
209
  8
1
  6
DASHED
 62
     3
 10
-264.15619266356958
 20
2.3999999999999999
 30
0.0
 11
-262.4241418560008
 21
0.0000000000000006
 31
0.0
  0
LINE
  5
20A
  8
1
  6
DASHED
 62
     3
 10
-262.4241418560008
 20
0.0000000000000006
 30
0.0
 11
-264.15619266356958
 21
-2.399999999999999
 31
0.0
  0
LINE
  5
20B
  8
1
  6
DASHED
 62
     3
 10
-280.9561926635696
 20
3.0
 30
0.0
 11
-268.9561926635696
 21
3.0
 31
0.0
  0
LINE
  5
20C
  8
1
  6
DASHED
 62
     3
 10
-268.9561926635696
 20
3.0
 30
0.0
 11
-268.9561926635696
 21
-3.0
 31
0.0
  0
LINE
  5
20D
  8
1
  6
DASHED
 62
     3
 10
-268.9561926635696
 20
-3.0
 30
0.0
 11
-280.9561926635696
 21
-3.0
 31
0.0
  0
LINE
  5
20E
  8
1
  6
DASHED
 62
     3
 10
-268.9561926635696
 20
3.0
 30
0.0
 11
-267.91696217902842
 21
2.3999999999999768
 31
0.0
  0
LINE
  5
20F
  8
1
  6
DASHED
 62
     3
 10
-268.9561926635696
 20
-3.0
 30
0.0
 11
-267.91696217902842
 21
-2.3999999999999768
 31
0.0
  0
LINE
  5
210
  8
1
  6
DASHDOT
 62
     3
 10
-283.9561926635696
 20
0.0000000000000006
 30
0.0
 11
-258.5705520175145
 21
0.0000000000000005
 31
0.0
  0
LINE
  5
211
  8
1
 62
     7
 10
-42.956192663569603
 20
330.50000000000011
 30
0.0
 11
-42.956192663569603
 21
269.49999999999989
 31
0.0
  0
LINE
  5
212
  8
1
 62
     7
 10
-75.956192663569709
 20
264.49999999999989
 30
0.0
 11
-75.956192663569709
 21
335.50000000000011
 31
0.0
  0
LINE
  5
213
  8
1
 62
     7
 10
-79.456192663569695
 20
249.80582617584051
 30
0.0
 11
-79.456192663569695
 21
261.49999999999989
 31
0.0
  0
ARC
  5
214
  8
1
 62
     7
 10
-133.75619266356989
 20
-28.29999999999994
 30
0.0
 40
2.6999999999998181
 50
180.0
 51
270.0
  0
ARC
  5
215
  8
1
 62
     7
 10
-142.4561926635696
 20
-28.29999999999994
 30
0.0
 40
6.0
 50
0.0
 51
180.0
  0
ARC
  5
216
  8
1
 62
     7
 10
-151.15619266356961
 20
-28.29999999999994
 30
0.0
 40
2.700000000000049
 50
270.0
 51
0.0
  0
ARC
  5
217
  8
1
 62
     7
 10
148.86604289132791
 20
0.0
 30
0.0
 40
77.000000000000085
 50
315.01704217218702
 51
224.9829578278131
  0
ARC
  5
218
  8
1
 62
     7
 10
-140.4061926635697
 20
-32.549999999999947
 30
0.0
 40
1.7424999999999451
 50
90.0
 51
180.0
  0
ARC
  5
219
  8
1
 62
     7
 10
-144.50619266356961
 20
-32.549999999999947
 30
0.0
 40
1.7424999999999771
 50
0.0
 51
90.0
  0
ARC
  5
21A
  8
1
 62
     7
 10
-144.50619266356961
 20
-28.449999999999928
 30
0.0
 40
1.7425000000000701
 50
270.0
 51
0.0
  0
ARC
  5
21B
  8
1
 62
     7
 10
-140.4061926635697
 20
-28.449999999999928
 30
0.0
 40
1.7425000000000059
 50
180.0
 51
270.0
  0
ARC
  5
21C
  8
1
 62
     7
 10
-209.60545373205929
 20
-39.881673824159279
 30
0.0
 40
2.350738931510195
 50
142.30124515331809
 51
217.69875484668179
  0
ARC
  5
21D
  8
1
 62
     7
 10
-203.28935853074549
 20
-44.194173824159279
 30
0.0
 40
8.6668341328239951
 50
160.62652945767681
 51
199.37347054232319
  0
ARC
  5
21E
  8
1
 62
     7
 10
-209.60545373205929
 20
-48.506673824159279
 30
0.0
 40
2.350738931510195
 50
142.30124515331809
 51
217.69875484668179
  0
ARC
  5
21F
  8
1
 62
     7
 10
148.86604289132791
 20
0.0
 30
0.0
 40
67.999999999999844
 50
337.68541304022273
 51
350.00000000000011
  0
ARC
  5
220
  8
1
 62
     7
 10
148.86604289132791
 20
0.0
 30
0.0
 40
67.999999999999929
 50
322.99999999999989
 51
334.31458695977722
  0
ARC
  5
221
  8
1
 62
     7
 10
148.86604289132791
 20
0.0
 30
0.0
 40
72.000000000000085
 50
337.59175417658582
 51
349.99999999999977
  0
ARC
  5
222
  8
1
 62
     7
 10
148.86604289132791
 20
0.0
 30
0.0
 40
72.000000000000156
 50
323.00000000000011
 51
334.40824582341412
  0
ARC
  5
223
  8
1
 62
     7
 10
148.86604289132791
 20
0.0
 30
0.0
 40
68.000000000000028
 50
274.99999999999989
 51
289.0
  0
ARC
  5
224
  8
1
 62
     7
 10
148.86604289132791
 20
0.0
 30
0.0
 40
71.999999999999943
 50
274.99999999999989
 51
288.99999999999977
  0
ARC
  5
225
  8
1
 62
     7
 10
148.86604289132791
 20
0.0
 30
0.0
 40
71.999999999999986
 50
250.99999999999989
 51
265.0
  0
ARC
  5
226
  8
1
 62
     7
 10
148.86604289132791
 20
0.0
 30
0.0
 40
71.999999999999929
 50
205.59175417658599
 51
217.0
  0
ARC
  5
227
  8
1
 62
     7
 10
148.86604289132791
 20
0.0
 30
0.0
 40
72.000000000000014
 50
190.0
 51
202.40824582341401
  0
ARC
  5
228
  8
1
 62
     7
 10
148.86604289132791
 20
0.0
 30
0.0
 40
67.999999999999957
 50
250.99999999999989
 51
265.0
  0
ARC
  5
229
  8
1
 62
     7
 10
148.86604289132791
 20
0.0
 30
0.0
 40
67.999999999999986
 50
205.6854130402227
 51
217.0
  0
ARC
  5
22A
  8
1
 62
     7
 10
148.86604289132791
 20
0.0
 30
0.0
 40
68.000000000000043
 50
190.0
 51
202.31458695977719
  0
ARC
  5
22B
  8
1
 62
     7
 10
148.86604289132791
 20
0.0
 30
0.0
 40
66.0
 50
60.0
 51
82.162520236915796
  0
ARC
  5
22C
  8
1
 62
     7
 10
148.86604289132791
 20
0.0
 30
0.0
 40
70.000000000000028
 50
60.000000000000021
 51
82.612951563698374
  0
ARC
  5
22D
  8
1
 62
     7
 10
148.86604289132791
 20
0.0
 30
0.0
 40
65.999999999999986
 50
97.837479763084275
 51
119.9999999999999
  0
ARC
  5
22E
  8
1
 62
     7
 10
148.86604289132791
 20
0.0
 30
0.0
 40
69.999999999999986
 50
97.387048436301725
 51
119.9999999999999
  0
ARC
  5
22F
  8
1
 62
     7
 10
148.86604289132791
 20
0.0
 30
0.0
 40
72.999999999999986
 50
60.0
 51
119.9999999999999
  0
ARC
  5
230
  8
1
 62
     7
 10
148.86604289132791
 20
0.0
 30
0.0
 40
9.999999999999984
 50
104.4775121859299
 51
75.522487814070459
  0
ARC
  5
231
  8
1
 62
     7
 10
148.86604289132791
 20
0.8524999999999636
 30
0.0
 40
14.19749999999998
 50
297.24698173400577
 51
242.7530182659938
  0
ARC
  5
232
  8
1
 62
     7
 10
-77.806931595079902
 20
-39.881673824159279
 30
0.0
 40
2.350738931510195
 50
322.30124515331812
 51
37.698754846681929
  0
ARC
  5
233
  8
1
 62
     7
 10
-84.123026796393717
 20
-44.194173824159279
 30
0.0
 40
8.6668341328240235
 50
340.62652945767678
 51
19.373470542323179
  0
ARC
  5
234
  8
1
 62
     7
 10
-77.806931595079902
 20
-48.506673824159279
 30
0.0
 40
2.350738931510195
 50
322.30124515331812
 51
37.698754846681929
  0
ARC
  5
235
  8
1
 62
     7
 10
-77.806931595079902
 20
39.881673824159279
 30
0.0
 40
2.350738931510195
 50
322.30124515331812
 51
37.698754846681929
  0
ARC
  5
236
  8
1
 62
     7
 10
-84.123026796393717
 20
44.194173824159279
 30
0.0
 40
8.6668341328240235
 50
340.62652945767678
 51
19.373470542323179
  0
ARC
  5
237
  8
1
 62
     7
 10
-77.806931595079902
 20
48.506673824159279
 30
0.0
 40
2.350738931510195
 50
322.30124515331812
 51
37.698754846681929
  0
ARC
  5
238
  8
1
 62
     7
 10
-209.60545373205929
 20
39.881673824159179
 30
0.0
 40
2.350738931510195
 50
142.30124515331809
 51
217.69875484668179
  0
ARC
  5
239
  8
1
 62
     7
 10
-203.28935853074549
 20
44.194173824159179
 30
0.0
 40
8.6668341328239951
 50
160.62652945767681
 51
199.37347054232319
  0
ARC
  5
23A
  8
1
 62
     7
 10
-209.60545373205929
 20
48.506673824159179
 30
0.0
 40
2.350738931510195
 50
142.30124515331809
 51
217.69875484668179
  0
ARC
  5
23B
  8
1
 62
     7
 10
-77.806931595079902
 20
339.88167382415912
 30
0.0
 40
2.350738931510195
 50
322.30124515331812
 51
37.698754846681929
  0
ARC
  5
23C
  8
1
 62
     7
 10
-84.123026796393717
 20
344.19417382415901
 30
0.0
 40
8.6668341328240235
 50
340.62652945767678
 51
19.373470542323179
  0
ARC
  5
23D
  8
1
 62
     7
 10
-77.806931595079902
 20
348.50667382415901
 30
0.0
 40
2.350738931510195
 50
322.30124515331812
 51
37.698754846681929
  0
ARC
  5
23E
  8
1
 62
     7
 10
-209.60545373205929
 20
339.88167382415912
 30
0.0
 40
2.350738931510195
 50
142.30124515331809
 51
217.69875484668179
  0
ARC
  5
23F
  8
1
 62
     7
 10
-203.28935853074549
 20
344.19417382415901
 30
0.0
 40
8.6668341328239951
 50
160.62652945767681
 51
199.37347054232319
  0
ARC
  5
240
  8
1
 62
     7
 10
-209.60545373205929
 20
348.50667382415901
 30
0.0
 40
2.350738931510195
 50
142.30124515331809
 51
217.69875484668179
  0
ARC
  5
241
  8
1
 62
     7
 10
-77.806931595079902
 20
260.11832617584042
 30
0.0
 40
2.350738931510195
 50
322.30124515331812
 51
37.698754846681929
  0
ARC
  5
242
  8
1
 62
     7
 10
-84.123026796393717
 20
255.80582617584039
 30
0.0
 40
8.6668341328240235
 50
340.62652945767678
 51
19.373470542323009
  0
ARC
  5
243
  8
1
 62
     7
 10
-77.806931595079902
 20
251.49332617584039
 30
0.0
 40
2.350738931510195
 50
322.30124515331812
 51
37.698754846681929
  0
ARC
  5
244
  8
1
 62
     7
 10
-209.60545373205929
 20
260.11832617584042
 30
0.0
 40
2.350738931510334
 50
142.3012451533136
 51
217.69875484668179
  0
ARC
  5
245
  8
1
 62
     7
 10
-203.28935853074549
 20
255.80582617584039
 30
0.0
 40
8.6668341328239862
 50
160.62652945767681
 51
199.37347054232319
  0
ARC
  5
246
  8
1
 62
     7
 10
-209.60545373205929
 20
251.49332617584071
 30
0.0
 40
2.3507389315100742
 50
142.30124515332179
 51
217.6987548466858
  0
ARC
  5
247
  8
1
 62
     7
 10
74.550556572419055
 20
28.206546709565711
 30
0.0
 40
2.5000000000000222
 50
334.49217879465778
 51
74.999999999989825
  0
ARC
  5
248
  8
1
 62
     7
 10
74.550556572419055
 20
-28.206546709565711
 30
0.0
 40
2.5
 50
270.0
 51
25.50782120534214
  0
ARC
  5
249
  8
1
 62
     7
 10
-100.4561926635696
 20
194.82899999999981
 30
0.0
 40
2.0
 50
270.0
 51
0.0
  0
ARC
  5
24A
  8
1
 62
     7
 10
-184.4561926635696
 20
194.82899999999981
 30
0.0
 40
2.0
 50
180.0
 51
270.0
  0
ARC
  5
24B
  8
1
 62
     7
 10
-100.4561926635696
 20
220.3664849192663
 30
0.0
 40
2.0
 50
270.0
 51
0.0
  0
ARC
  5
24C
  8
1
 62
     7
 10
-184.4561926635696
 20
220.36648491926621
 30
0.0
 40
2.0
 50
180.0
 51
270.0
  0
ARC
  5
24D
  8
1
 62
     7
 10
-103.95619266356969
 20
194.82899999999981
 30
0.0
 40
2.0
 50
270.0
 51
0.0
  0
ARC
  5
24E
  8
1
 62
     7
 10
-180.9561926635696
 20
194.82899999999961
 30
0.0
 40
2.0
 50
180.0
 51
270.0
  0
ARC
  5
24F
  8
1
 62
     7
 10
-179.4561926635696
 20
227.40602606183811
 30
0.0
 40
2.0
 50
90.0
 51
180.0
  0
ARC
  5
250
  8
1
 62
     7
 10
-105.4561926635696
 20
227.40602606183839
 30
0.0
 40
2.0
 50
0.0
 51
90.0
  0
ARC
  5
251
  8
1
 62
     7
 10
-181.45619266356971
 20
30.5
 30
0.0
 40
5.0
 50
90.0
 51
180.0
  0
ARC
  5
252
  8
1
 62
     7
 10
-177.9561926635696
 20
26.0
 30
0.0
 40
5.0
 50
90.0
 51
180.0
  0
ARC
  5
253
  8
1
 62
     7
 10
-103.4561926635696
 20
30.5
 30
0.0
 40
4.9999999999999858
 50
0.0
 51
90.0
  0
ARC
  5
254
  8
1
 62
     7
 10
-106.95619266356969
 20
26.0
 30
0.0
 40
5.0
 50
0.0
 51
90.0
  0
ARC
  5
255
  8
1
 62
     7
 10
-106.95619266356969
 20
-26.0
 30
0.0
 40
5.0
 50
270.0
 51
0.0
  0
ARC
  5
256
  8
1
 62
     7
 10
-103.4561926635696
 20
-30.5
 30
0.0
 40
5.0
 50
270.0
 51
0.0
  0
ARC
  5
257
  8
1
 62
     7
 10
-177.9561926635696
 20
-26.0
 30
0.0
 40
5.0
 50
180.0
 51
270.0
  0
ARC
  5
258
  8
1
 62
     7
 10
-181.45619266356971
 20
-30.5
 30
0.0
 40
5.0
 50
180.0
 51
270.0
  0
ARC
  5
259
  8
1
 62
     7
 10
-205.9561926635696
 20
74.000000000000099
 30
0.0
 40
3.0
 50
90.0
 51
180.0
  0
ARC
  5
25A
  8
1
 62
     7
 10
-205.45619266356951
 20
-36.694173824159279
 30
0.0
 40
1.5
 50
270.0
 51
0.0
  0
ARC
  5
25B
  8
1
 62
     7
 10
-205.45619266356951
 20
-51.694173824159293
 30
0.0
 40
1.5
 50
0.0
 51
90.0
  0
ARC
  5
25C
  8
1
 62
     7
 10
-235.95619266356951
 20
-70.0
 30
0.0
 40
2.0
 50
90.0
 51
180.0
  0
ARC
  5
25D
  8
1
 62
     7
 10
-205.9561926635696
 20
-66.0
 30
0.0
 40
2.0
 50
270.0
 51
0.0
  0
ARC
  5
25E
  8
1
 62
     7
 10
-197.9561926635696
 20
-25.946646965801278
 30
0.0
 40
1.5
 50
180.0
 51
270.0
  0
ARC
  5
25F
  8
1
 62
     7
 10
-200.95619266356951
 20
-26.481064230968279
 30
0.0
 40
3.0
 50
180.0
 51
270.0
  0
ARC
  5
260
  8
1
 62
     7
 10
-200.95619266356951
 20
-10.37090968035363
 30
0.0
 40
3.0
 50
180.0
 51
270.0
  0
ARC
  5
261
  8
1
 62
     7
 10
-200.95619266356951
 20
-30.135246061538851
 30
0.0
 40
3.0
 50
180.0
 51
270.0
  0
ARC
  5
262
  8
1
 62
     7
 10
-200.95619266356951
 20
-43.339756782707809
 30
0.0
 40
3.0
 50
180.0
 51
270.0
  0
ARC
  5
263
  8
1
 62
     7
 10
-197.9561926635696
 20
-41.830681666947498
 30
0.0
 40
1.5
 50
180.0
 51
270.0
  0
ARC
  5
264
  8
1
 62
     7
 10
-199.8289170278961
 20
-54.399708102198581
 30
0.0
 40
2.0
 50
180.0
 51
270.0
  0
ARC
  5
265
  8
1
 62
     7
 10
-158.4561926635696
 20
-66.0
 30
0.0
 40
2.0
 50
270.0
 51
0.0
  0
ARC
  5
266
  8
1
 62
     7
 10
-126.4561926635696
 20
-66.0
 30
0.0
 40
2.0000000000000142
 50
180.0
 51
270.0
  0
ARC
  5
267
  8
1
 62
     7
 10
-85.083468299243108
 20
-54.399708102198581
 30
0.0
 40
2.0
 50
270.0
 51
0.0
  0
ARC
  5
268
  8
1
 62
     7
 10
-86.956192663569695
 20
-41.830681666947498
 30
0.0
 40
1.5
 50
270.0
 51
0.0
  0
ARC
  5
269
  8
1
 62
     7
 10
-83.956192663569709
 20
-43.339756782707809
 30
0.0
 40
3.0
 50
270.0
 51
0.0
  0
ARC
  5
26A
  8
1
 62
     7
 10
-83.956192663569709
 20
-30.135246061538851
 30
0.0
 40
3.0
 50
270.0
 51
0.0
  0
ARC
  5
26B
  8
1
 62
     7
 10
-83.956192663569709
 20
-10.37090968035363
 30
0.0
 40
3.0
 50
270.0
 51
0.0
  0
ARC
  5
26C
  8
1
 62
     7
 10
-83.956192663569709
 20
-26.481064230968279
 30
0.0
 40
3.0
 50
270.0
 51
0.0
  0
ARC
  5
26D
  8
1
 62
     7
 10
-86.956192663569695
 20
-25.946646965801278
 30
0.0
 40
1.5
 50
270.0
 51
0.0
  0
ARC
  5
26E
  8
1
 62
     7
 10
-78.956192663569709
 20
74.000000000000099
 30
0.0
 40
3.0
 50
0.0
 51
90.0
  0
ARC
  5
26F
  8
1
 62
     7
 10
-78.956192663569709
 20
-66.0
 30
0.0
 40
2.0
 50
180.0
 51
270.0
  0
ARC
  5
270
  8
1
 62
     7
 10
-48.956192663569603
 20
-70.0
 30
0.0
 40
2.0
 50
0.0
 51
90.0
  0
ARC
  5
271
  8
1
 62
     7
 10
-79.456192663569695
 20
-51.694173824159293
 30
0.0
 40
1.5
 50
90.0
 51
180.0
  0
ARC
  5
272
  8
1
 62
     7
 10
-79.456192663569695
 20
-36.694173824159279
 30
0.0
 40
1.5
 50
180.0
 51
270.0
  0
ARC
  5
273
  8
1
 62
     7
 10
206.86604289132791
 20
-57.965506984757788
 30
0.0
 40
4.9999999999998677
 50
135.017042172186
 51
180.0
  0
ARC
  5
274
  8
1
 62
     7
 10
224.86604289132791
 20
-70.0
 30
0.0
 40
2.0
 50
0.0
 51
90.0
  0
ARC
  5
275
  8
1
 62
     7
 10
185.86604289132791
 20
-70.0
 30
0.0
 40
2.0
 50
90.0
 51
180.0
  0
ARC
  5
276
  8
1
 62
     7
 10
203.86604289132799
 20
-66.0
 30
0.0
 40
2.0000000000000839
 50
180.0
 51
270.0
  0
ARC
  5
277
  8
1
 62
     7
 10
195.86604289132791
 20
-66.0
 30
0.0
 40
2.0
 50
180.0
 51
270.0
  0
ARC
  5
278
  8
1
 62
     7
 10
180.86604289132791
 20
-79.0
 30
0.0
 40
3.0
 50
0.0
 51
90.0
  0
ARC
  5
279
  8
1
 62
     7
 10
195.36604289132791
 20
-51.233412548641923
 30
0.0
 40
1.4999999999997959
 50
134.51758303385321
 51
180.0
  0
ARC
  5
27A
  8
1
 62
     7
 10
182.36604289132791
 20
-51.233412548641923
 30
0.0
 40
1.5
 50
0.0
 51
90.0
  0
ARC
  5
27B
  8
1
 62
     7
 10
116.86604289132799
 20
-79.0
 30
0.0
 40
3.0
 50
90.0
 51
180.0
  0
ARC
  5
27C
  8
1
 62
     7
 10
102.36604289132799
 20
-51.233412548641923
 30
0.0
 40
1.5
 50
0.0
 51
45.482416966137947
  0
ARC
  5
27D
  8
1
 62
     7
 10
115.36604289132789
 20
-51.233412548641923
 30
0.0
 40
1.5
 50
90.0
 51
180.0
  0
ARC
  5
27E
  8
1
 62
     7
 10
101.86604289132789
 20
-66.0
 30
0.0
 40
2.0
 50
270.0
 51
0.0
  0
ARC
  5
27F
  8
1
 62
     7
 10
90.866042891327979
 20
-57.965506984757788
 30
0.0
 40
5.0
 50
0.0
 51
44.982957827812847
  0
ARC
  5
280
  8
1
 62
     7
 10
93.866042891327993
 20
-66.0
 30
0.0
 40
2.0
 50
270.0
 51
0.0
  0
ARC
  5
281
  8
1
 62
     7
 10
111.86604289132789
 20
-70.0
 30
0.0
 40
2.0
 50
0.0
 51
90.0
  0
ARC
  5
282
  8
1
 62
     7
 10
72.866042891327979
 20
-70.0
 30
0.0
 40
2.0
 50
90.0
 51
180.0
  0
ARC
  5
283
  8
1
 62
     7
 10
144.36604289132791
 20
-13.997448713915899
 30
0.0
 40
2.0
 50
180.0
 51
270.0
  0
ARC
  5
284
  8
1
 62
     7
 10
153.36604289132791
 20
-13.997448713915899
 30
0.0
 40
2.0
 50
270.0
 51
0.0
  0
ARC
  5
285
  8
1
 62
     7
 10
170.1825712740665
 20
-28.38759619460404
 30
0.0
 40
2.999999999999984
 50
45.000000000000782
 51
126.9032502302051
  0
ARC
  5
286
  8
1
 62
     7
 10
177.25363908593209
 20
-21.316528382738511
 30
0.0
 40
2.999999999999976
 50
143.09674976979539
 51
224.99999999999801
  0
ARC
  5
287
  8
1
 62
     7
 10
185.8151228606271
 20
-41.898827437604837
 30
0.0
 40
1.499999999999946
 50
342.4210749137153
 51
44.999999999996348
  0
ARC
  5
288
  8
1
 62
     7
 10
190.76487032893289
 20
-36.949079969299078
 30
0.0
 40
1.4999999999999309
 50
225.0
 51
287.57892508628032
  0
ARC
  5
289
  8
1
 62
     7
 10
120.47844669672391
 20
-21.316528382738621
 30
0.0
 40
2.9999999999999729
 50
314.99999999999898
 51
36.903250230204939
  0
ARC
  5
28A
  8
1
 62
     7
 10
127.5495145085894
 20
-28.38759619460415
 30
0.0
 40
2.9999999999999392
 50
53.09674976979629
 51
135.0000000000006
  0
ARC
  5
28B
  8
1
 62
     7
 10
106.967215453723
 20
-36.949079969299177
 30
0.0
 40
1.500000000000022
 50
252.42107491371351
 51
314.99999999999829
  0
ARC
  5
28C
  8
1
 62
     7
 10
111.9169629220287
 20
-41.898827437604943
 30
0.0
 40
1.499999999999952
 50
135.0000000000008
 51
197.5789250862849
  0
ARC
  5
28D
  8
1
 62
     7
 10
127.5495145085894
 20
28.38759619460404
 30
0.0
 40
3.0000000000000551
 50
224.99999999999929
 51
306.90325023020432
  0
ARC
  5
28E
  8
1
 62
     7
 10
120.47844669672391
 20
21.316528382738511
 30
0.0
 40
2.9999999999999072
 50
323.09674976979431
 51
45.000000000000959
  0
ARC
  5
28F
  8
1
 62
     7
 10
111.9169629220287
 20
41.898827437604837
 30
0.0
 40
1.499999999999946
 50
162.4210749137153
 51
224.99999999999929
  0
ARC
  5
290
  8
1
 62
     7
 10
106.967215453723
 20
36.949079969299078
 30
0.0
 40
1.4999999999998801
 50
45.000000000001918
 51
107.5789250862845
  0
ARC
  5
291
  8
1
 62
     7
 10
185.8151228606269
 20
41.898827437604837
 30
0.0
 40
1.5000000000000171
 50
315.00000000000279
 51
17.578925086281039
  0
ARC
  5
292
  8
1
 62
     7
 10
190.7648703289328
 20
36.949079969299078
 30
0.0
 40
1.500000000000034
 50
72.421074913713042
 51
135.0000000000008
  0
ARC
  5
293
  8
1
 62
     7
 10
170.18257127406639
 20
28.38759619460404
 30
0.0
 40
2.9999999999999361
 50
233.0967497697963
 51
315.00000000000188
  0
ARC
  5
294
  8
1
 62
     7
 10
177.25363908593201
 20
21.316528382738511
 30
0.0
 40
2.999999999999984
 50
134.9999999999992
 51
216.90325023020421
  0
ARC
  5
295
  8
1
 62
     7
 10
-79.456192663569695
 20
51.694173824159293
 30
0.0
 40
1.5
 50
180.0
 51
270.0
  0
ARC
  5
296
  8
1
 62
     7
 10
-79.456192663569695
 20
36.694173824159279
 30
0.0
 40
1.5
 50
90.0
 51
180.0
  0
ARC
  5
297
  8
1
 62
     7
 10
-205.45619266356951
 20
36.694173824159179
 30
0.0
 40
1.5
 50
0.0
 51
90.0
  0
ARC
  5
298
  8
1
 62
     7
 10
-205.45619266356951
 20
51.694173824159179
 30
0.0
 40
1.5
 50
270.0
 51
0.0
  0
ARC
  5
299
  8
1
 62
     7
 10
-200.95619266356951
 20
374.00000000000011
 30
0.0
 40
3.0
 50
90.0
 51
180.0
  0
ARC
  5
29A
  8
1
 62
     7
 10
-83.956192663569709
 20
374.00000000000011
 30
0.0
 40
3.0
 50
0.0
 51
90.0
  0
ARC
  5
29B
  8
1
 62
     7
 10
-79.456192663569695
 20
351.69417382415901
 30
0.0
 40
1.5
 50
180.0
 51
270.0
  0
ARC
  5
29C
  8
1
 62
     7
 10
-205.45619266356951
 20
351.69417382415901
 30
0.0
 40
1.5
 50
270.0
 51
0.0
  0
ARC
  5
29D
  8
1
 62
     7
 10
-78.956192663569709
 20
335.50000000000011
 30
0.0
 40
3.0
 50
0.0
 51
90.0
  0
ARC
  5
29E
  8
1
 62
     7
 10
-205.9561926635696
 20
335.50000000000011
 30
0.0
 40
3.0
 50
90.0
 51
180.0
  0
ARC
  5
29F
  8
1
 62
     7
 10
-200.95619266356951
 20
225.99999999999969
 30
0.0
 40
3.0
 50
180.0
 51
270.0
  0
ARC
  5
2A0
  8
1
 62
     7
 10
-83.956192663569709
 20
225.99999999999969
 30
0.0
 40
3.0
 50
270.0
 51
0.0
  0
ARC
  5
2A1
  8
1
 62
     7
 10
-79.456192663569695
 20
248.30582617584039
 30
0.0
 40
1.5
 50
90.0
 51
180.0
  0
ARC
  5
2A2
  8
1
 62
     7
 10
-205.45619266356951
 20
248.30582617584039
 30
0.0
 40
1.5
 50
0.0
 51
90.0
  0
ARC
  5
2A3
  8
1
 62
     7
 10
-78.956192663569709
 20
264.49999999999989
 30
0.0
 40
3.0
 50
270.0
 51
0.0
  0
ARC
  5
2A4
  8
1
 62
     7
 10
-205.9561926635696
 20
264.49999999999989
 30
0.0
 40
3.0
 50
180.0
 51
270.0
  0
ARC
  5
2A5
  8
1
 62
     7
 10
-232.9561926635696
 20
340.00000000000011
 30
0.0
 40
5.0
 50
180.0
 51
270.0
  0
ARC
  5
2A6
  8
1
 62
     7
 10
-232.9561926635696
 20
373.00000000000011
 30
0.0
 40
5.0
 50
90.0
 51
180.0
  0
ARC
  5
2A7
  8
1
 62
     7
 10
-51.956192663569603
 20
373.00000000000011
 30
0.0
 40
5.0
 50
0.0
 51
90.0
  0
ARC
  5
2A8
  8
1
 62
     7
 10
-51.956192663569603
 20
340.00000000000011
 30
0.0
 40
5.0
 50
270.0
 51
0.0
  0
ARC
  5
2A9
  8
1
 62
     7
 10
-232.9561926635696
 20
260.0
 30
0.0
 40
5.0
 50
90.0
 51
180.0
  0
ARC
  5
2AA
  8
1
 62
     7
 10
-232.9561926635696
 20
227.0
 30
0.0
 40
5.0
 50
180.0
 51
270.0
  0
ARC
  5
2AB
  8
1
 62
     7
 10
-51.956192663569603
 20
227.0
 30
0.0
 40
5.0
 50
270.0
 51
0.0
  0
ARC
  5
2AC
  8
1
 62
     7
 10
-51.956192663569603
 20
260.0
 30
0.0
 40
5.0
 50
0.0
 51
90.0
  0
ARC
  5
2AD
  8
1
 62
     7
 10
-32.456192663569603
 20
299.99999999999989
 30
0.0
 40
2.5
 50
90.0
 51
270.0
  0
ARC
  5
2AE
  8
1
 62
     7
 10
-252.4561926635696
 20
299.99999999999989
 30
0.0
 40
2.5
 50
270.0
 51
90.0
  0
ARC
  5
2AF
  8
1
 62
     7
 10
52.050556572419168
 20
-31.706546709565711
 30
0.0
 40
1.0
 50
90.0
 51
180.0
  0
ARC
  5
2B0
  8
1
 62
     7
 10
50.050556572419183
 20
-36.206546709565707
 30
0.0
 40
1.0
 50
270.0
 51
0.0
  0
ARC
  5
2B1
  8
1
 62
     7
 10
42.348082831595264
 20
-31.606546709565571
 30
0.0
 40
0.5999999999999162
 50
180.0
 51
270.0
  0
ARC
  5
2B2
  8
1
 62
     7
 10
42.665423368969712
 20
-32.806546709565623
 30
0.0
 40
0.5999999999998553
 50
340.55180070494072
 51
90.0
  0
ARC
  5
2B3
  8
1
 62
     7
 10
43.161693867889603
 20
-36.206546709565707
 30
0.0
 40
1.000000000000095
 50
160.5518007049439
 51
270.0
  0
ARC
  5
2B4
  8
1
 62
     7
 10
46.970472999019179
 20
-36.206546709565707
 30
0.0
 40
1.0
 50
270.0
 51
340.55180070494532
  0
ARC
  5
2B5
  8
1
 62
     7
 10
71.33447179530107
 20
32.793453290434279
 30
0.0
 40
1.0000000000000511
 50
340.55180070494868
 51
90.0
  0
ARC
  5
2B6
  8
1
 62
     7
 10
67.525692664171459
 20
32.793453290434279
 30
0.0
 40
1.0
 50
90.0
 51
160.5518007049404
  0
ARC
  5
2B7
  8
1
 62
     7
 10
42.748082831595347
 20
28.293453290434279
 30
0.0
 40
1.0
 50
90.0
 51
180.0
  0
ARC
  5
2B8
  8
1
 62
     7
 10
64.521919875667891
 20
30.293453290434289
 30
0.0
 40
1.0
 50
270.0
 51
340.55180070494771
  0
CIRCLE
  5
2B9
  8
1
 62
     7
 10
-142.4561926635696
 20
-30.5
 30
0.0
 40
3.5
  0
CIRCLE
  5
2BA
  8
1
 62
     7
 10
193.06021671548709
 20
44.194173824159179
 30
0.0
 40
6.0999999999997954
  0
CIRCLE
  5
2BB
  8
1
 62
     7
 10
193.060216715487
 20
-44.194173824159179
 30
0.0
 40
6.0999999999999091
  0
CIRCLE
  5
2BC
  8
1
 62
     7
 10
104.6718690671687
 20
44.194173824159179
 30
0.0
 40
6.1000000000001906
  0
CIRCLE
  5
2BD
  8
1
 62
     7
 10
104.6718690671687
 20
-44.194173824159279
 30
0.0
 40
6.1000000000001906
  0
CIRCLE
  5
2BE
  8
1
 62
     3
 10
148.86604289132791
 20
0.0
 30
0.0
 40
2.9999999999999138
  0
CIRCLE
  5
2BF
  8
1
 62
     7
 10
148.86604289132791
 20
0.0
 30
0.0
 40
2.3999999999998058
  0
CIRCLE
  5
2C0
  8
1
 62
     7
 10
144.36604289132791
 20
-14.122448713915899
 30
0.0
 40
1.0
  0
CIRCLE
  5
2C1
  8
1
 62
     7
 10
153.36604289132791
 20
-14.122448713915899
 30
0.0
 40
1.0
  0
CIRCLE
  5
2C2
  8
1
 62
     7
 10
148.86604289132791
 20
0.0
 30
0.0
 40
12.49999999999992
  0
CIRCLE
  5
2C3
  8
1
 62
     7
 10
148.86604289132791
 20
0.0
 30
0.0
 40
25.999999999999918
  0
CIRCLE
  5
2C4
  8
1
 62
     7
 10
148.86604289132791
 20
0.0
 30
0.0
 40
12.49999999999992
  0
CIRCLE
  5
2C5
  8
1
 62
     7
 10
188.86604289132791
 20
0.0
 30
0.0
 40
4.25
  0
CIRCLE
  5
2C6
  8
1
 62
     7
 10
148.86604289132791
 20
-40.000000000000099
 30
0.0
 40
4.25
  0
CIRCLE
  5
2C7
  8
1
 62
     7
 10
108.86604289132789
 20
0.0
 30
0.0
 40
4.25
  0
CIRCLE
  5
2C8
  8
1
 62
     7
 10
148.86604289132791
 20
40.0
 30
0.0
 40
4.2499999999999138
  0
CIRCLE
  5
2C9
  8
1
 62
     7
 10
193.060216715487
 20
-44.194173824159179
 30
0.0
 40
5.0
  0
CIRCLE
  5
2CA
  8
1
 62
     7
 10
104.6718690671687
 20
-44.194173824159279
 30
0.0
 40
5.0
  0
CIRCLE
  5
2CB
  8
1
 62
     7
 10
104.6718690671687
 20
44.194173824159179
 30
0.0
 40
5.0
  0
CIRCLE
  5
2CC
  8
1
 62
     7
 10
148.86604289132791
 20
0.0
 30
0.0
 40
32.5
  0
CIRCLE
  5
2CD
  8
1
 62
     7
 10
193.06021671548709
 20
44.194173824159179
 30
0.0
 40
5.0
  0
CIRCLE
  5
2CE
  8
1
 62
     7
 10
-59.956192663569709
 20
365.00000000000011
 30
0.0
 40
9.0
  0
CIRCLE
  5
2CF
  8
1
 62
     7
 10
-59.956192663569709
 20
365.00000000000011
 30
0.0
 40
4.25
  0
CIRCLE
  5
2D0
  8
1
 62
     7
 10
-224.9561926635696
 20
365.00000000000011
 30
0.0
 40
9.0
  0
CIRCLE
  5
2D1
  8
1
 62
     7
 10
-224.9561926635696
 20
365.00000000000011
 30
0.0
 40
4.25
  0
CIRCLE
  5
2D2
  8
1
 62
     7
 10
-59.956192663569709
 20
234.99999999999989
 30
0.0
 40
9.0
  0
CIRCLE
  5
2D3
  8
1
 62
     7
 10
-59.956192663569709
 20
234.99999999999989
 30
0.0
 40
4.25
  0
CIRCLE
  5
2D4
  8
1
 62
     7
 10
-224.9561926635696
 20
234.99999999999989
 30
0.0
 40
9.0
  0
CIRCLE
  5
2D5
  8
1
 62
     7
 10
-224.9561926635696
 20
234.99999999999989
 30
0.0
 40
4.25
  0
TEXT
  5
2D6
  8
1
 62
     7
 10
136.76329289132789
 20
-56.241066334429092
 30
0.0
 40
3.5
  1
I N P U T
 41
0.8910000000000004
  7
SIMPLEX
 72
     1
 11
148.86604289132791
 21
-56.241066334429092
 31
0.0
  0
TEXT
  5
2D7
  8
1
 62
     7
 10
122.53613914505689
 20
299.60428011955889
 30
0.0
 40
7.0
  1
MSU 2.5
 41
0.9
  7
SIMPLEX
  0
ENDSEC
  0
EOF
