  0
SECTION
  2
HEADER
  9
$ACADVER
  1
AC1009
  9
$INSBASE
 10
0.0
 20
0.0
 30
0.0
  9
$EXTMIN
 10
-972.86146681454068
 20
-136.0935251798561
 30
0.0
  9
$EXTMAX
 10
98.165171421478973
 20
683.13082366352421
 30
0.0
  9
$LIMMIN
 10
-972.86146681454068
 20
-136.0935251798561
  9
$LIMMAX
 10
97.336744296732775
 20
680.43843550809913
  9
$ORTHOMODE
 70
     0
  9
$REGENMODE
 70
     1
  9
$FILLMODE
 70
     1
  9
$QTEXTMODE
 70
     0
  9
$MIRRTEXT
 70
     1
  9
$DRAGMODE
 70
     2
  9
$LTSCALE
 40
1.0
  9
$OSMODE
 70
    37
  9
$ATTMODE
 70
     1
  9
$TEXTSIZE
 40
3.5
  9
$TRACEWID
 40
0.5
  9
$TEXTSTYLE
  7
STANDARD
  9
$CLAYER
  8
0
  9
$CELTYPE
  6
BYLAYER
  9
$CECOLOR
 62
   256
  9
$DIMSCALE
 40
1.0
  9
$DIMASZ
 40
0.18
  9
$DIMEXO
 40
0.0625
  9
$DIMDLI
 40
0.38
  9
$DIMRND
 40
0.0
  9
$DIMDLE
 40
0.0
  9
$DIMEXE
 40
0.18
  9
$DIMTP
 40
0.0
  9
$DIMTM
 40
0.0
  9
$DIMTXT
 40
0.18
  9
$DIMCEN
 40
0.09
  9
$DIMTSZ
 40
0.0
  9
$DIMTOL
 70
     0
  9
$DIMLIM
 70
     0
  9
$DIMTIH
 70
     1
  9
$DIMTOH
 70
     1
  9
$DIMSE1
 70
     0
  9
$DIMSE2
 70
     0
  9
$DIMTAD
 70
     0
  9
$DIMZIN
 70
     0
  9
$DIMBLK
  1

  9
$DIMASO
 70
     1
  9
$DIMSHO
 70
     1
  9
$DIMPOST
  1

  9
$DIMAPOST
  1

  9
$DIMALT
 70
     0
  9
$DIMALTD
 70
     2
  9
$DIMALTF
 40
25.399999999999999
  9
$DIMLFAC
 40
1.0
  9
$DIMTOFL
 70
     0
  9
$DIMTVP
 40
0.0
  9
$DIMTIX
 70
     0
  9
$DIMSOXD
 70
     0
  9
$DIMSAH
 70
     0
  9
$DIMBLK1
  1

  9
$DIMBLK2
  1

  9
$DIMSTYLE
  2
STANDARD
  9
$DIMCLRD
 70
     0
  9
$DIMCLRE
 70
     0
  9
$DIMCLRT
 70
     0
  9
$DIMTFAC
 40
1.0
  9
$DIMGAP
 40
0.09
  9
$LUNITS
 70
     2
  9
$LUPREC
 70
     4
  9
$SKETCHINC
 40
0.1
  9
$FILLETRAD
 40
2.0
  9
$AUNITS
 70
     0
  9
$AUPREC
 70
     0
  9
$MENU
  1
ACAD
  9
$ELEVATION
 40
0.0
  9
$PELEVATION
 40
0.0
  9
$THICKNESS
 40
0.0
  9
$LIMCHECK
 70
     0
  9
$BLIPMODE
 70
     0
  9
$CHAMFERA
 40
0.0
  9
$CHAMFERB
 40
0.0
  9
$SKPOLY
 70
     0
  9
$TDCREATE
 40
2452094.8704837961
  9
$TDUPDATE
 40
2452094.871128472
  9
$TDINDWG
 40
0.0006554398
  9
$TDUSRTIMER
 40
0.0006554398
  9
$USRTIMER
 70
     1
  9
$ANGBASE
 50
0.0
  9
$ANGDIR
 70
     0
  9
$PDMODE
 70
     0
  9
$PDSIZE
 40
0.0
  9
$PLINEWID
 40
0.0
  9
$COORDS
 70
     1
  9
$SPLFRAME
 70
     0
  9
$SPLINETYPE
 70
     6
  9
$SPLINESEGS
 70
     8
  9
$ATTDIA
 70
     0
  9
$ATTREQ
 70
     1
  9
$HANDLING
 70
 10241
  9
$HANDSEED
  5
2D7
  9
$SURFTAB1
 70
     6
  9
$SURFTAB2
 70
     6
  9
$SURFTYPE
 70
     6
  9
$SURFU
 70
     6
  9
$SURFV
 70
     6
  9
$UCSNAME
  2

  9
$UCSORG
 10
0.0
 20
0.0
 30
0.0
  9
$UCSXDIR
 10
1.0
 20
0.0
 30
0.0
  9
$UCSYDIR
 10
0.0
 20
1.0
 30
0.0
  9
$PUCSNAME
  2

  9
$PUCSORG
 10
0.0
 20
0.0
 30
0.0
  9
$PUCSXDIR
 10
1.0
 20
0.0
 30
0.0
  9
$PUCSYDIR
 10
0.0
 20
1.0
 30
0.0
  9
$USERI1
 70
     0
  9
$USERI2
 70
     0
  9
$USERI3
 70
     0
  9
$USERI4
 70
     0
  9
$USERI5
 70
     0
  9
$USERR1
 40
0.0
  9
$USERR2
 40
0.0
  9
$USERR3
 40
0.0
  9
$USERR4
 40
0.0
  9
$USERR5
 40
0.0
  9
$WORLDVIEW
 70
     1
  9
$SHADEDGE
 70
     3
  9
$SHADEDIF
 70
    70
  9
$TILEMODE
 70
     1
  9
$MAXACTVP
 70
    64
  9
$PLIMCHECK
 70
     0
  9
$PEXTMIN
 10
1.0000000000000000E+020
 20
1.0000000000000000E+020
 30
1.0000000000000000E+020
  9
$PEXTMAX
 10
-1.0000000000000000E+020
 20
-1.0000000000000000E+020
 30
-1.0000000000000000E+020
  9
$PLIMMIN
 10
0.0
 20
0.0
  9
$PLIMMAX
 10
12.0
 20
9.0
  9
$UNITMODE
 70
     0
  9
$VISRETAIN
 70
     1
  9
$PLINEGEN
 70
     0
  9
$PSLTSCALE
 70
     1
  0
ENDSEC
  0
SECTION
  2
TABLES
  0
TABLE
  2
VPORT
 70
     2
  0
VPORT
  2
*ACTIVE
 70
     0
 10
0.0
 20
0.0
 11
1.0
 21
1.0
 12
-76.490418951805154
 22
507.46303312166168
 13
0.0
 23
0.0
 14
1.0
 24
1.0
 15
0.0
 25
0.0
 16
0.0
 26
0.0
 36
1.0
 17
0.0
 27
0.0
 37
0.0
 40
8.9999997774521194
 41
2.4144144144144142
 42
50.0
 43
0.0
 44
0.0
 50
0.0
 51
0.0
 71
     0
 72
   100
 73
     1
 74
     1
 75
     0
 76
     0
 77
     0
 78
     0
  0
ENDTAB
  0
TABLE
  2
LTYPE
 70
     9
  0
LTYPE
  2
CONTINUOUS
 70
     0
  3
Solid line
 72
    65
 73
     0
 40
0.0
  0
LTYPE
  2
BORDER
 70
     0
  3
__ __ . __ __ .
 72
    65
 73
     6
 40
49.285443932756017
 49
14.08155540935886
 49
-7.0407777046794333
 49
14.08155540935886
 49
-7.0407777046794333
 49
0.0
 49
-7.0407777046794333
  0
LTYPE
  2
CENTER
 70
     0
  3
____ _ ____ _
 72
    65
 73
     4
 40
56.326221637435452
 49
35.20388852339714
 49
-7.0407777046794333
 49
7.0407777046794333
 49
-7.0407777046794333
  0
LTYPE
  2
DASHDOT
 70
     0
  3
__ . __ . __ .
 72
    65
 73
     4
 40
28.16311081871773
 49
14.08155540935886
 49
-7.0407777046794333
 49
0.0
 49
-7.0407777046794333
  0
LTYPE
  2
DASHED
 70
     0
  3
__ __ __ __ __
 72
    65
 73
     2
 40
21.122333114038302
 49
14.08155540935886
 49
-7.0407777046794333
  0
LTYPE
  2
DIVIDE
 70
     0
  3
__ . . __ . . 
 72
    65
 73
     6
 40
35.20388852339714
 49
14.08155540935886
 49
-7.0407777046794333
 49
0.0
 49
-7.0407777046794333
 49
0.0
 49
-7.0407777046794333
  0
LTYPE
  2
DOT
 70
     0
  3
..............
 72
    65
 73
     4
 40
14.08155540935886
 49
0.0
 49
-7.0407777046794333
 49
0.0
 49
-7.0407777046794333
  0
LTYPE
  2
HIDDEN
 70
     0
  3
_ _ _ _ _ _ _
 72
    65
 73
     2
 40
10.561166557019151
 49
7.0407777046794333
 49
-3.5203888523397162
  0
LTYPE
  2
PHANTOM
 70
     0
  3
_____ _ _ _____ _ _ 
 72
    65
 73
     6
 40
70.407777046794308
 49
35.20388852339714
 49
-7.0407777046794333
 49
7.0407777046794333
 49
-7.0407777046794333
 49
7.0407777046794333
 49
-7.0407777046794333
  0
ENDTAB
  0
TABLE
  2
LAYER
 70
     2
  0
LAYER
  2
0
 70
     0
 62
     7
  6
CONTINUOUS
  0
LAYER
  2
1
 70
     0
 62
     7
  6
CONTINUOUS
  0
ENDTAB
  0
TABLE
  2
STYLE
 70
     4
  0
STYLE
  2
STANDARD
 70
     0
 40
0.0
 41
1.0
 50
0.0
 71
     0
 42
3.5
  3
txt
  4

  0
STYLE
  2
SIMPLEX
 70
     0
 40
0.0
 41
1.0
 50
0.0
 71
     0
 42
3.5
  3
simplex
  4

  0
STYLE
  2
COMPLEX
 70
     0
 40
0.0
 41
1.0
 50
0.0
 71
     0
 42
3.5
  3
complex
  4

  0
STYLE
  2
ITALIC
 70
     0
 40
0.0
 41
1.0
 50
0.0
 71
     0
 42
3.5
  3
italic
  4

  0
ENDTAB
  0
TABLE
  2
VIEW
 70
     0
  0
ENDTAB
  0
TABLE
  2
UCS
 70
     0
  0
ENDTAB
  0
TABLE
  2
APPID
 70
     1
  0
APPID
  2
ACAD
 70
     0
  0
ENDTAB
  0
TABLE
  2
DIMSTYLE
 70
     1
  0
DIMSTYLE
  2
STANDARD
 70
     0
  3

  4

  5

  6

  7

 40
1.0
 41
0.18
 42
0.0625
 43
0.38
 44
0.18
 45
0.0
 46
0.0
 47
0.0
 48
0.0
140
0.18
141
0.09
142
0.0
143
25.399999999999999
144
1.0
145
0.0
146
1.0
147
0.09
 71
     0
 72
     0
 73
     1
 74
     1
 75
     0
 76
     0
 77
     0
 78
     0
170
     0
171
     2
172
     0
173
     0
174
     0
175
     0
176
     0
177
     0
178
     0
  0
ENDTAB
  0
ENDSEC
  0
SECTION
  2
BLOCKS
  0
BLOCK
  8
0
  2
$MODEL_SPACE
 70
     0
 10
0.0
 20
0.0
 30
0.0
  3
$MODEL_SPACE
  1

  0
ENDBLK
  5
20
  8
0
  0
BLOCK
 67
     1
  8
0
  2
$PAPER_SPACE
 70
     0
 10
0.0
 20
0.0
 30
0.0
  3
$PAPER_SPACE
  1

  0
ENDBLK
  5
1C
 67
     1
  8
0
  0
ENDSEC
  0
SECTION
  2
ENTITIES
  0
LINE
  5
33
  8
1
 62
     7
 10
-250.77470456845899
 20
80.032882598065925
 30
0.0
 11
-275.13870336474099
 21
11.032882598065919
 31
0.0
  0
LINE
  5
34
  8
1
 62
     7
 10
-274.69203096546312
 20
14.69992811057814
 30
0.0
 11
-275.00937150283733
 21
14.69992811057814
 31
0.0
  0
LINE
  5
35
  8
1
 62
     7
 10
-267.30689776201359
 20
9.6999281105781421
 30
0.0
 11
-274.19576046654322
 21
9.6999281105781421
 31
0.0
  0
LINE
  5
36
  8
1
 62
     7
 10
-245.08003964093371
 20
79.366973623090502
 30
0.0
 11
-269.44403843721568
 21
10.3669736230905
 31
0.0
  0
LINE
  5
37
  8
1
 62
     7
 10
-275.60937150283718
 20
15.29992811057828
 30
0.0
 11
-275.60937150283718
 21
75.199928110578156
 31
0.0
  0
LINE
  5
38
  8
1
 62
     7
 10
-274.60937150283729
 20
76.199928110578156
 30
0.0
 11
-252.8355344587649
 21
76.199928110578156
 31
0.0
  0
LINE
  5
39
  8
1
 62
     7
 10
-249.8317616702611
 20
80.699928110578128
 30
0.0
 11
-246.0229825391317
 21
80.699928110578128
 31
0.0
  0
LINE
  5
3A
  8
1
 62
     7
 10
-245.42090295234101
 20
78.401632560494349
 30
0.0
 11
-242.15985014925701
 21
77.527836095432235
 31
0.0
  0
LINE
  5
3B
  8
1
 62
     7
 10
-266.30689776201348
 20
10.69992811057814
 30
0.0
 11
-266.30689776201348
 21
15.199928110578149
 31
0.0
  0
LINE
  5
3C
  8
1
 62
     7
 10
-265.30689776201359
 20
16.199928110578149
 30
0.0
 11
-242.80689776201359
 21
16.199928110578149
 31
0.0
  0
LINE
  5
3D
  8
1
 62
     7
 10
-697.5539668145401
 20
16.749928110578221
 30
0.0
 11
-698.16896681454011
 21
16.749928110578221
 31
0.0
  0
LINE
  5
3E
  8
1
 62
     7
 10
-699.91146681453995
 20
15.00742811057815
 30
0.0
 11
-699.91146681453995
 21
14.392428110578139
 31
0.0
  0
LINE
  5
3F
  8
1
 62
     7
 10
-698.16896681454011
 20
12.649928110578189
 30
0.0
 11
-697.5539668145401
 21
12.649928110578189
 31
0.0
  0
LINE
  5
40
  8
1
 62
     7
 10
-695.81146681453993
 20
14.392428110578139
 30
0.0
 11
-695.81146681453993
 21
15.00742811057815
 31
0.0
  0
LINE
  5
41
  8
1
 62
     7
 10
-706.56146681453993
 20
14.69992811057814
 30
0.0
 11
-733.36146681454011
 21
14.69992811057814
 31
0.0
  0
LINE
  5
42
  8
1
 62
     7
 10
-741.86146681454011
 20
14.69992811057814
 30
0.0
 11
-741.86146681454011
 21
75.699928110578142
 31
0.0
  0
LINE
  5
43
  8
1
 62
     7
 10
-658.86146681453999
 20
9.6999281105781421
 30
0.0
 11
-736.86146681454011
 21
9.6999281105781421
 31
0.0
  0
LINE
  5
44
  8
1
 62
     7
 10
-653.86146681453999
 20
75.699928110578142
 30
0.0
 11
-653.86146681453999
 21
14.69992811057814
 31
0.0
  0
LINE
  5
45
  8
1
 62
     7
 10
-736.86146681454011
 20
80.699928110578128
 30
0.0
 11
-658.86146681453999
 21
80.699928110578128
 31
0.0
  0
LINE
  5
46
  8
1
 62
     7
 10
-738.36146681453999
 20
19.699928110578139
 30
0.0
 11
-738.36146681453999
 21
71.199928110578142
 31
0.0
  0
LINE
  5
47
  8
1
 62
     7
 10
-662.36146681453999
 20
14.69992811057814
 30
0.0
 11
-689.16146681454018
 21
14.69992811057814
 31
0.0
  0
LINE
  5
48
  8
1
 62
     7
 10
-657.36146681453999
 20
71.199928110578142
 30
0.0
 11
-657.36146681453999
 21
19.699928110578139
 31
0.0
  0
LINE
  5
49
  8
1
 62
     7
 10
-733.36146681454011
 20
76.199928110578142
 30
0.0
 11
-662.36146681453999
 21
76.199928110578142
 31
0.0
  0
LINE
  5
4A
  8
1
 62
     7
 10
-655.86146681454045
 20
306.21776738751402
 30
0.0
 11
-739.86146681454045
 21
306.21776738751402
 31
0.0
  0
LINE
  5
4B
  8
1
 62
     7
 10
-653.86146681454045
 20
336.7319156762149
 30
0.0
 11
-653.86146681454045
 21
308.21776738751402
 31
0.0
  0
LINE
  5
4C
  8
1
 62
     7
 10
-741.86146681454045
 20
336.73191567621478
 30
0.0
 11
-741.86146681454045
 21
308.21776738751402
 31
0.0
  0
LINE
  5
4D
  8
1
 62
     7
 10
-738.36146681454045
 20
331.75525230678028
 30
0.0
 11
-738.36146681454045
 21
308.21776738751379
 31
0.0
  0
LINE
  5
4E
  8
1
 62
     7
 10
-657.36146681454045
 20
331.75525230678051
 30
0.0
 11
-657.36146681454045
 21
308.21776738751402
 31
0.0
  0
LINE
  5
4F
  8
1
 62
     7
 10
-653.86146681454045
 20
336.7319156762149
 30
0.0
 11
-741.86146681454045
 21
336.73191567621478
 31
0.0
  0
LINE
  5
50
  8
1
 62
     7
 10
-655.86146681454045
 20
331.75525230678051
 30
0.0
 11
-739.86146681454045
 21
331.75525230678028
 31
0.0
  0
LINE
  5
51
  8
1
 62
     7
 10
-736.86146681454045
 20
340.79479344935231
 30
0.0
 11
-736.86146681454045
 21
336.73191567621478
 31
0.0
  0
LINE
  5
52
  8
1
 62
     7
 10
-658.86146681454045
 20
340.79479344935243
 30
0.0
 11
-658.86146681454045
 21
336.7319156762149
 31
0.0
  0
LINE
  5
53
  8
1
 62
     7
 10
-660.86146681454045
 20
342.79479344935243
 30
0.0
 11
-734.86146681454056
 21
342.79479344935231
 31
0.0
  0
LINE
  5
54
  8
1
 62
     7
 10
-827.86146681454011
 20
157.20472504515959
 30
0.0
 11
-832.66146681453904
 21
157.20472504515959
 31
0.0
  0
LINE
  5
55
  8
1
 62
     3
 10
-833.8614668145392
 20
146.40472504515981
 30
0.0
 11
-827.86146681454011
 21
146.40472504515981
 31
0.0
  0
LINE
  5
56
  8
1
 62
     3
 10
-833.8614668145392
 20
156.00472504515969
 30
0.0
 11
-827.86146681454011
 21
156.00472504515969
 31
0.0
  0
LINE
  5
57
  8
1
 62
     7
 10
-832.66146681453904
 20
157.20472504515959
 30
0.0
 11
-832.66146681453904
 21
145.20472504515959
 31
0.0
  0
LINE
  5
58
  8
1
 62
     7
 10
-832.66146681453904
 20
145.20472504515959
 30
0.0
 11
-827.86146681454011
 21
145.20472504515959
 31
0.0
  0
LINE
  5
59
  8
1
 62
     7
 10
-833.8614668145392
 20
146.40472504515981
 30
0.0
 11
-832.66146681453904
 21
145.20472504515959
 31
0.0
  0
LINE
  5
5A
  8
1
 62
     7
 10
-833.8614668145392
 20
156.00472504515969
 30
0.0
 11
-833.8614668145392
 21
146.40472504515981
 31
0.0
  0
LINE
  5
5B
  8
1
 62
     7
 10
-832.66146681453904
 20
157.20472504515959
 30
0.0
 11
-833.8614668145392
 21
156.00472504515969
 31
0.0
  0
LINE
  5
5C
  8
1
 62
     7
 10
-819.86146681454011
 20
161.95472504515959
 30
0.0
 11
-816.86146681454011
 21
161.95472504515959
 31
0.0
  0
LINE
  5
5D
  8
1
 62
     7
 10
-816.86146681454011
 20
140.45472504515971
 30
0.0
 11
-819.86146681454011
 21
140.45472504515971
 31
0.0
  0
LINE
  5
5E
  8
1
 62
     7
 10
-816.86146681454011
 20
154.20472504515959
 30
0.0
 11
-819.86146681454011
 21
151.20472504515959
 31
0.0
  0
LINE
  5
5F
  8
1
 62
     7
 10
-816.86146681454011
 20
151.20472504515959
 30
0.0
 11
-819.86146681454011
 21
148.20472504515959
 31
0.0
  0
LINE
  5
60
  8
1
 62
     7
 10
-827.86146681454011
 20
142.99222504515961
 30
0.0
 11
-827.86146681454011
 21
159.4172250451596
 31
0.0
  0
LINE
  5
61
  8
1
 62
     7
 10
-819.86146681454011
 20
162.15472504515981
 30
0.0
 11
-826.73563378962024
 21
162.15472504515981
 31
0.0
  0
LINE
  5
62
  8
1
 62
     7
 10
-819.86146681454011
 20
156.67972504515961
 30
0.0
 11
-826.73563378962024
 21
156.67972504515961
 31
0.0
  0
LINE
  5
63
  8
1
 62
     7
 10
-819.86146681454011
 20
145.7297250451596
 30
0.0
 11
-826.73563378962024
 21
145.7297250451596
 31
0.0
  0
LINE
  5
64
  8
1
 62
     7
 10
-819.86146681454011
 20
140.2547250451598
 30
0.0
 11
-826.73563378962024
 21
140.2547250451598
 31
0.0
  0
LINE
  5
65
  8
1
 62
     7
 10
-819.86146681454011
 20
140.2547250451598
 30
0.0
 11
-819.86146681454011
 21
162.15472504515981
 31
0.0
  0
LINE
  5
66
  8
1
 62
     7
 10
-827.86146681454011
 20
-51.3917754048719
 30
0.0
 11
-832.66146681453904
 21
-51.3917754048719
 31
0.0
  0
LINE
  5
67
  8
1
 62
     3
 10
-833.8614668145392
 20
-62.191775404871848
 30
0.0
 11
-827.86146681454011
 21
-62.191775404871848
 31
0.0
  0
LINE
  5
68
  8
1
 62
     3
 10
-833.8614668145392
 20
-52.591775404871953
 30
0.0
 11
-827.86146681454011
 21
-52.591775404871953
 31
0.0
  0
LINE
  5
69
  8
1
 62
     7
 10
-832.66146681453904
 20
-51.3917754048719
 30
0.0
 11
-832.66146681453904
 21
-63.3917754048719
 31
0.0
  0
LINE
  5
6A
  8
1
 62
     7
 10
-832.66146681453904
 20
-63.3917754048719
 30
0.0
 11
-827.86146681454011
 21
-63.3917754048719
 31
0.0
  0
LINE
  5
6B
  8
1
 62
     7
 10
-833.8614668145392
 20
-62.191775404871848
 30
0.0
 11
-832.66146681453904
 21
-63.3917754048719
 31
0.0
  0
LINE
  5
6C
  8
1
 62
     7
 10
-833.8614668145392
 20
-52.591775404871953
 30
0.0
 11
-833.8614668145392
 21
-62.191775404871848
 31
0.0
  0
LINE
  5
6D
  8
1
 62
     7
 10
-832.66146681453904
 20
-51.3917754048719
 30
0.0
 11
-833.8614668145392
 21
-52.591775404871953
 31
0.0
  0
LINE
  5
6E
  8
1
 62
     7
 10
-819.86146681454011
 20
-46.6417754048719
 30
0.0
 11
-816.86146681454011
 21
-46.6417754048719
 31
0.0
  0
LINE
  5
6F
  8
1
 62
     7
 10
-816.86146681454011
 20
-68.141775404871893
 30
0.0
 11
-819.86146681454011
 21
-68.141775404871893
 31
0.0
  0
LINE
  5
70
  8
1
 62
     7
 10
-816.86146681454011
 20
-54.3917754048719
 30
0.0
 11
-819.86146681454011
 21
-57.3917754048719
 31
0.0
  0
LINE
  5
71
  8
1
 62
     7
 10
-816.86146681454011
 20
-57.391775404871943
 30
0.0
 11
-819.86146681454011
 21
-60.3917754048719
 31
0.0
  0
LINE
  5
72
  8
1
 62
     7
 10
-827.86146681454011
 20
-65.604275404871885
 30
0.0
 11
-827.86146681454011
 21
-49.17927540487193
 31
0.0
  0
LINE
  5
73
  8
1
 62
     7
 10
-819.86146681454011
 20
-46.441775404871848
 30
0.0
 11
-826.73563378962024
 21
-46.441775404871848
 31
0.0
  0
LINE
  5
74
  8
1
 62
     7
 10
-819.86146681454011
 20
-51.916775404871878
 30
0.0
 11
-826.73563378962024
 21
-51.916775404871878
 31
0.0
  0
LINE
  5
75
  8
1
 62
     7
 10
-819.86146681454011
 20
-62.86677540487193
 30
0.0
 11
-826.73563378962024
 21
-62.86677540487193
 31
0.0
  0
LINE
  5
76
  8
1
 62
     7
 10
-819.86146681454011
 20
-68.341775404871839
 30
0.0
 11
-826.73563378962024
 21
-68.341775404871839
 31
0.0
  0
LINE
  5
77
  8
1
 62
     7
 10
-819.86146681454011
 20
-68.341775404871839
 30
0.0
 11
-819.86146681454011
 21
-46.441775404871848
 31
0.0
  0
LINE
  5
78
  8
1
 62
     7
 10
-827.86146681454079
 20
412.1401852830831
 30
0.0
 11
-832.66146681454006
 21
412.1401852830831
 31
0.0
  0
LINE
  5
79
  8
1
 62
     3
 10
-833.86146681454011
 20
401.34018528308297
 30
0.0
 11
-827.86146681454079
 21
401.34018528308297
 31
0.0
  0
LINE
  5
7A
  8
1
 62
     3
 10
-833.86146681454011
 20
410.940185283083
 30
0.0
 11
-827.86146681454079
 21
410.940185283083
 31
0.0
  0
LINE
  5
7B
  8
1
 62
     7
 10
-832.66146681454006
 20
412.1401852830831
 30
0.0
 11
-832.66146681454006
 21
400.1401852830831
 31
0.0
  0
LINE
  5
7C
  8
1
 62
     7
 10
-832.66146681454006
 20
400.1401852830831
 30
0.0
 11
-827.86146681454079
 21
400.1401852830831
 31
0.0
  0
LINE
  5
7D
  8
1
 62
     7
 10
-833.86146681454011
 20
401.34018528308297
 30
0.0
 11
-832.66146681454006
 21
400.1401852830831
 31
0.0
  0
LINE
  5
7E
  8
1
 62
     7
 10
-833.86146681454011
 20
410.940185283083
 30
0.0
 11
-833.86146681454011
 21
401.34018528308297
 31
0.0
  0
LINE
  5
7F
  8
1
 62
     7
 10
-832.66146681454006
 20
412.1401852830831
 30
0.0
 11
-833.86146681454011
 21
410.940185283083
 31
0.0
  0
LINE
  5
80
  8
1
 62
     7
 10
-819.86146681454079
 20
416.89018528308299
 30
0.0
 11
-816.8614668145409
 21
416.89018528308299
 31
0.0
  0
LINE
  5
81
  8
1
 62
     7
 10
-816.8614668145409
 20
395.39018528308299
 30
0.0
 11
-819.86146681454079
 21
395.39018528308299
 31
0.0
  0
LINE
  5
82
  8
1
 62
     7
 10
-816.8614668145409
 20
409.1401852830831
 30
0.0
 11
-819.86146681454079
 21
406.14018528308299
 31
0.0
  0
LINE
  5
83
  8
1
 62
     7
 10
-816.8614668145409
 20
406.14018528308299
 30
0.0
 11
-819.86146681454079
 21
403.14018528308299
 31
0.0
  0
LINE
  5
84
  8
1
 62
     7
 10
-827.86146681454079
 20
397.92768528308312
 30
0.0
 11
-827.86146681454079
 21
414.35268528308308
 31
0.0
  0
LINE
  5
85
  8
1
 62
     7
 10
-819.86146681454079
 20
417.09018528308297
 30
0.0
 11
-826.73563378962126
 21
417.09018528308297
 31
0.0
  0
LINE
  5
86
  8
1
 62
     7
 10
-819.86146681454079
 20
411.61518528308312
 30
0.0
 11
-826.73563378962126
 21
411.61518528308312
 31
0.0
  0
LINE
  5
87
  8
1
 62
     7
 10
-819.86146681454079
 20
400.66518528308308
 30
0.0
 11
-826.73563378962126
 21
400.66518528308308
 31
0.0
  0
LINE
  5
88
  8
1
 62
     7
 10
-819.86146681454079
 20
395.19018528308311
 30
0.0
 11
-826.73563378962126
 21
395.19018528308311
 31
0.0
  0
LINE
  5
89
  8
1
 62
     7
 10
-819.86146681454079
 20
395.19018528308311
 30
0.0
 11
-819.86146681454079
 21
417.09018528308297
 31
0.0
  0
LINE
  5
8A
  8
1
 62
     7
 10
-827.86146681454079
 20
620.73668573311465
 30
0.0
 11
-832.66146681454006
 21
620.73668573311465
 31
0.0
  0
LINE
  5
8B
  8
1
 62
     3
 10
-833.86146681454011
 20
609.93668573311481
 30
0.0
 11
-827.86146681454079
 21
609.93668573311481
 31
0.0
  0
LINE
  5
8C
  8
1
 62
     3
 10
-833.86146681454011
 20
619.53668573311472
 30
0.0
 11
-827.86146681454079
 21
619.53668573311472
 31
0.0
  0
LINE
  5
8D
  8
1
 62
     7
 10
-832.66146681454006
 20
620.73668573311465
 30
0.0
 11
-832.66146681454006
 21
608.73668573311465
 31
0.0
  0
LINE
  5
8E
  8
1
 62
     7
 10
-832.66146681454006
 20
608.73668573311465
 30
0.0
 11
-827.86146681454079
 21
608.73668573311465
 31
0.0
  0
LINE
  5
8F
  8
1
 62
     7
 10
-833.86146681454011
 20
609.93668573311481
 30
0.0
 11
-832.66146681454006
 21
608.73668573311465
 31
0.0
  0
LINE
  5
90
  8
1
 62
     7
 10
-833.86146681454011
 20
619.53668573311472
 30
0.0
 11
-833.86146681454011
 21
609.93668573311481
 31
0.0
  0
LINE
  5
91
  8
1
 62
     7
 10
-832.66146681454006
 20
620.73668573311465
 30
0.0
 11
-833.86146681454011
 21
619.53668573311472
 31
0.0
  0
LINE
  5
92
  8
1
 62
     7
 10
-819.86146681454079
 20
625.48668573311477
 30
0.0
 11
-816.8614668145409
 21
625.48668573311477
 31
0.0
  0
LINE
  5
93
  8
1
 62
     7
 10
-816.8614668145409
 20
603.98668573311477
 30
0.0
 11
-819.86146681454079
 21
603.98668573311477
 31
0.0
  0
LINE
  5
94
  8
1
 62
     7
 10
-816.8614668145409
 20
617.73668573311465
 30
0.0
 11
-819.86146681454079
 21
614.73668573311477
 31
0.0
  0
LINE
  5
95
  8
1
 62
     7
 10
-816.8614668145409
 20
614.73668573311477
 30
0.0
 11
-819.86146681454079
 21
611.73668573311465
 31
0.0
  0
LINE
  5
96
  8
1
 62
     7
 10
-162.6632557032672
 20
-133.0935251798561
 30
0.0
 11
-242.66325570326711
 21
-133.0935251798561
 31
0.0
  0
LINE
  5
97
  8
1
 62
     7
 10
-242.66325570326711
 20
-133.0935251798561
 30
0.0
 11
-242.66325570326711
 21
-112.093525179856
 31
0.0
  0
LINE
  5
98
  8
1
 62
     7
 10
-223.338841914135
 20
20.33830363710355
 30
0.0
 11
-240.0805737153425
 21
17.386284616765732
 31
0.0
  0
LINE
  5
99
  8
1
 62
     7
 10
-214.39473793333281
 20
-10.7232652874481
 30
0.0
 11
-229.93247972456481
 21
-17.641113637821832
 31
0.0
  0
LINE
  5
9A
  8
1
 62
     7
 10
-210.32737150257481
 20
-19.858719863874128
 30
0.0
 11
-225.86511329380679
 21
-26.776568214247849
 31
0.0
  0
LINE
  5
9B
  8
1
 62
     7
 10
-194.85448874050289
 20
-45.171223722119493
 30
0.0
 11
-208.431292411307
 21
-55.402079115704304
 31
0.0
  0
LINE
  5
9C
  8
1
 62
     7
 10
94.754062308808159
 20
17.386284616765732
 30
0.0
 11
78.012330507600595
 21
20.33830363710355
 31
0.0
  0
LINE
  5
9D
  8
1
 62
     7
 10
84.605968318030392
 20
-17.641113637821832
 30
0.0
 11
69.068226526798384
 21
-10.7232652874481
 31
0.0
  0
LINE
  5
9E
  8
1
 62
     7
 10
80.538601887272407
 20
-26.776568214247849
 30
0.0
 11
65.000860096040384
 21
-19.858719863874128
 31
0.0
  0
LINE
  5
9F
  8
1
 62
     7
 10
63.104781004772583
 20
-55.402079115704304
 30
0.0
 11
49.5279773339686
 21
-45.171223722119493
 31
0.0
  0
LINE
  5
A0
  8
1
 62
     7
 10
-197.66325570326711
 20
-72.152334177762683
 30
0.0
 11
-197.66325570326711
 21
-104.093525179856
 31
0.0
  0
LINE
  5
A1
  8
1
 62
     7
 10
-180.66325570326711
 20
-104.093525179856
 30
0.0
 11
-180.66325570326711
 21
-70.811408408553376
 31
0.0
  0
LINE
  5
A2
  8
1
 62
     7
 10
23.878277002935182
 20
143.44800752634629
 30
0.0
 11
34.474150183614093
 21
140.60885186448081
 31
0.0
  0
LINE
  5
A3
  8
1
 62
     7
 10
34.474150183614093
 20
140.60885186448081
 30
0.0
 11
42.230867702427467
 21
148.365569383294
 31
0.0
  0
LINE
  5
A4
  8
1
 62
     7
 10
42.230867702427467
 20
148.365569383294
 30
0.0
 11
39.39171204056197
 21
158.96144256397301
 31
0.0
  0
LINE
  5
A5
  8
1
 62
     7
 10
39.39171204056197
 20
158.96144256397301
 30
0.0
 11
28.79583885988308
 21
161.80059822583851
 31
0.0
  0
LINE
  5
A6
  8
1
 62
     7
 10
28.79583885988308
 20
161.80059822583851
 30
0.0
 11
21.039121341069691
 21
154.0438807070251
 31
0.0
  0
LINE
  5
A7
  8
1
 62
     7
 10
21.039121341069691
 20
154.0438807070251
 30
0.0
 11
23.878277002935182
 21
143.44800752634629
 31
0.0
  0
LINE
  5
A8
  8
1
 62
     7
 10
26.198349205218111
 20
138.6970119167637
 30
0.0
 11
-15.40970805892449
 21
97.088954652621112
 31
0.0
  0
LINE
  5
A9
  8
1
 62
     7
 10
19.127281393352661
 20
145.76807972862909
 30
0.0
 11
-22.480775870789959
 21
104.1600224644866
 31
0.0
  0
LINE
  5
AA
  8
1
 62
     7
 10
-169.2047884094695
 20
143.44800752634629
 30
0.0
 11
-166.36563274760411
 21
154.0438807070251
 31
0.0
  0
LINE
  5
AB
  8
1
 62
     7
 10
-166.36563274760411
 20
154.0438807070251
 30
0.0
 11
-174.1223502664173
 21
161.8005982258386
 31
0.0
  0
LINE
  5
AC
  8
1
 62
     7
 10
-174.1223502664173
 20
161.8005982258386
 30
0.0
 11
-184.71822344709631
 21
158.96144256397301
 31
0.0
  0
LINE
  5
AD
  8
1
 62
     7
 10
-184.71822344709631
 20
158.96144256397301
 30
0.0
 11
-187.55737910896181
 21
148.36556938329409
 31
0.0
  0
LINE
  5
AE
  8
1
 62
     7
 10
-187.55737910896181
 20
148.36556938329409
 30
0.0
 11
-179.80066159014851
 21
140.60885186448081
 31
0.0
  0
LINE
  5
AF
  8
1
 62
     7
 10
-179.80066159014851
 20
140.60885186448081
 30
0.0
 11
-169.2047884094695
 21
143.44800752634629
 31
0.0
  0
LINE
  5
B0
  8
1
 62
     7
 10
-169.2047884094695
 20
-49.635057886058433
 30
0.0
 11
-179.80066159014851
 21
-46.795902224192929
 31
0.0
  0
LINE
  5
B1
  8
1
 62
     7
 10
-179.80066159014851
 20
-46.795902224192929
 30
0.0
 11
-187.5573791089619
 21
-54.552619743006332
 31
0.0
  0
LINE
  5
B2
  8
1
 62
     7
 10
-187.5573791089619
 20
-54.552619743006332
 30
0.0
 11
-184.71822344709631
 21
-65.148492923685225
 31
0.0
  0
LINE
  5
B3
  8
1
 62
     7
 10
-184.71822344709631
 20
-65.148492923685225
 30
0.0
 11
-174.12235026641741
 21
-67.98764858555073
 31
0.0
  0
LINE
  5
B4
  8
1
 62
     7
 10
-174.12235026641741
 20
-67.98764858555073
 30
0.0
 11
-166.36563274760411
 21
-60.230931066737327
 31
0.0
  0
LINE
  5
B5
  8
1
 62
     7
 10
-166.36563274760411
 20
-60.230931066737327
 30
0.0
 11
-169.2047884094695
 21
-49.635057886058433
 31
0.0
  0
LINE
  5
B6
  8
1
 62
     7
 10
23.878277002935139
 20
-49.635057886058497
 30
0.0
 11
21.039121341069631
 21
-60.230931066737398
 31
0.0
  0
LINE
  5
B7
  8
1
 62
     7
 10
21.039121341069631
 20
-60.230931066737398
 30
0.0
 11
28.795838859883009
 21
-67.987648585550787
 31
0.0
  0
LINE
  5
B8
  8
1
 62
     7
 10
28.795838859883009
 20
-67.987648585550787
 30
0.0
 11
39.391712040561899
 21
-65.148492923685282
 31
0.0
  0
LINE
  5
B9
  8
1
 62
     7
 10
39.391712040561899
 20
-65.148492923685282
 30
0.0
 11
42.23086770242741
 21
-54.552619743006389
 31
0.0
  0
LINE
  5
BA
  8
1
 62
     7
 10
42.23086770242741
 20
-54.552619743006389
 30
0.0
 11
34.474150183614022
 21
-46.795902224193
 31
0.0
  0
LINE
  5
BB
  8
1
 62
     7
 10
34.474150183614022
 20
-46.795902224193
 30
0.0
 11
23.878277002935139
 21
-49.635057886058497
 31
0.0
  0
LINE
  5
BC
  8
1
 62
     7
 10
-171.52486061175239
 20
138.69701191676381
 30
0.0
 11
-129.91680334760991
 21
97.088954652621112
 31
0.0
  0
LINE
  5
BD
  8
1
 62
     7
 10
-164.453792799887
 20
-51.95513008834137
 30
0.0
 11
-122.8457355357444
 21
-10.34707282419877
 31
0.0
  0
LINE
  5
BE
  8
1
 62
     7
 10
26.198349205218069
 20
-44.884062276475973
 30
0.0
 11
-15.409708058924521
 21
-3.2760050123333331
 31
0.0
  0
LINE
  5
BF
  8
1
 62
     7
 10
-164.453792799887
 20
145.76807972862909
 30
0.0
 11
-122.8457355357444
 21
104.1600224644866
 31
0.0
  0
LINE
  5
C0
  8
1
 62
     7
 10
-171.52486061175239
 20
-44.884062276475902
 30
0.0
 11
-129.91680334760991
 21
-3.2760050123333011
 31
0.0
  0
LINE
  5
C1
  8
1
 62
     7
 10
19.1272813933526
 20
-51.95513008834142
 30
0.0
 11
-22.480775870790001
 21
-10.347072824198809
 31
0.0
  0
LINE
  5
C2
  8
1
 62
     7
 10
-179.4756981777451
 20
-71.811408408553376
 30
0.0
 11
-164.08751883440749
 21
-71.811408408553376
 31
0.0
  0
LINE
  5
C3
  8
1
 62
     7
 10
-238.66325570326711
 20
-108.093525179856
 30
0.0
 11
-166.6632557032672
 21
-108.093525179856
 31
0.0
  0
LINE
  5
C4
  8
1
 62
     7
 10
-242.6060936807302
 20
-111.38173123823969
 30
0.0
 11
-226.926495373817
 21
-24.527780872391219
 31
0.0
  0
LINE
  5
C5
  8
1
 62
     7
 10
7.3367442967327738
 20
-123.0935251798561
 30
0.0
 11
-152.66325570326711
 21
-123.0935251798561
 31
0.0
  0
LINE
  5
C6
  8
1
 62
     7
 10
81.599983967282668
 20
-24.527780872391219
 30
0.0
 11
97.279582274195917
 21
-111.38173123823969
 31
0.0
  0
LINE
  5
C7
  8
1
 62
     7
 10
97.336744296732775
 20
-112.093525179856
 30
0.0
 11
97.336744296732775
 21
-133.0935251798561
 31
0.0
  0
LINE
  5
C8
  8
1
 62
     7
 10
97.336744296732775
 20
-133.0935251798561
 30
0.0
 11
17.336744296732761
 21
-133.0935251798561
 31
0.0
  0
LINE
  5
C9
  8
1
 62
     7
 10
21.3367442967328
 20
-108.093525179856
 30
0.0
 11
93.336744296732775
 21
-108.093525179856
 31
0.0
  0
LINE
  5
CA
  8
1
 62
     7
 10
97.336744296732775
 20
-133.0935251798561
 30
0.0
 11
17.336744296732761
 21
-133.0935251798561
 31
0.0
  0
LINE
  5
CB
  8
1
 62
     7
 10
52.336744296732768
 20
-104.093525179856
 30
0.0
 11
52.336744296732768
 21
-72.152334177762683
 31
0.0
  0
LINE
  5
CC
  8
1
 62
     7
 10
35.336744296732768
 20
-70.811408408553376
 30
0.0
 11
35.336744296732768
 21
-104.093525179856
 31
0.0
  0
LINE
  5
CD
  8
1
 62
     7
 10
18.761007427873182
 20
-71.811408408553376
 30
0.0
 11
34.14918677121068
 21
-71.811408408553376
 31
0.0
  0
LINE
  5
CE
  8
1
 62
     7
 10
12.33674429673283
 20
194.13079346349841
 30
0.0
 11
6.3367442967328316
 21
183.73848861808511
 31
0.0
  0
LINE
  5
CF
  8
1
 62
     7
 10
5.3367442967328316
 20
182.0064378105163
 30
0.0
 11
0.3367442967328316
 21
173.34618377267179
 31
0.0
  0
LINE
  5
D0
  8
1
 62
     7
 10
-61.663255703267197
 20
202.51817103864801
 30
0.0
 11
-61.663255703267197
 21
192.49150152275499
 31
0.0
  0
LINE
  5
D1
  8
1
 62
     7
 10
-83.663255703267197
 20
192.49150152275499
 30
0.0
 11
-83.663255703267197
 21
202.51817103864801
 31
0.0
  0
LINE
  5
D2
  8
1
 62
     7
 10
-145.66325570326711
 20
173.34618377267191
 30
0.0
 11
-150.6632557032672
 21
182.0064378105163
 31
0.0
  0
LINE
  5
D3
  8
1
 62
     7
 10
-151.66325570326711
 20
183.73848861808511
 30
0.0
 11
-157.6632557032672
 21
194.13079346349841
 31
0.0
  0
LINE
  5
D4
  8
1
 62
     7
 10
-122.47518333521219
 20
-97.757867246551569
 30
0.0
 11
-131.19894996251031
 21
-123.0935251798561
 31
0.0
  0
LINE
  5
D5
  8
1
 62
     7
 10
-85.998084343658874
 20
-105.5113139878931
 30
0.0
 11
-87.536328502674266
 21
-123.0935251798561
 31
0.0
  0
LINE
  5
D6
  8
1
 62
     7
 10
-14.12756144402411
 20
-123.0935251798561
 30
0.0
 11
-22.851328071322229
 21
-97.757867246551569
 31
0.0
  0
LINE
  5
D7
  8
1
 62
     7
 10
-57.790182903860142
 20
-123.0935251798561
 30
0.0
 11
-59.328427062875512
 21
-105.5113139878931
 31
0.0
  0
LINE
  5
D8
  8
1
 62
     7
 10
-162.6632557032672
 20
-133.0935251798561
 30
0.0
 11
-162.6632557032672
 21
-70.811408408553376
 31
0.0
  0
LINE
  5
D9
  8
1
 62
     7
 10
17.336744296732761
 20
-133.0935251798561
 30
0.0
 11
17.336744296732761
 21
-70.811408408553376
 31
0.0
  0
LINE
  5
DA
  8
1
 62
     7
 10
-116.6632557032672
 20
-67.402111528105706
 30
0.0
 11
-28.66325570326719
 21
-67.402111528105706
 31
0.0
  0
LINE
  5
DB
  8
1
 62
     7
 10
-28.66325570326719
 20
-67.402111528105706
 30
0.0
 11
-28.66325570326719
 21
-83.402111528105706
 31
0.0
  0
LINE
  5
DC
  8
1
 62
     7
 10
-28.66325570326719
 20
-83.402111528105706
 30
0.0
 11
-116.6632557032672
 21
-83.402111528105706
 31
0.0
  0
LINE
  5
DD
  8
1
 62
     7
 10
-116.6632557032672
 20
-83.402111528105706
 30
0.0
 11
-116.6632557032672
 21
-67.402111528105706
 31
0.0
  0
LINE
  5
DE
  8
1
 62
     7
 10
-80.163255703267197
 20
76.906474820143913
 30
0.0
 11
-65.163255703267197
 21
76.906474820143913
 31
0.0
  0
LINE
  5
DF
  8
1
 62
     7
 10
-65.163255703267197
 20
76.906474820143913
 30
0.0
 11
-65.163255703267197
 21
66.906474820143899
 31
0.0
  0
LINE
  5
E0
  8
1
 62
     7
 10
-65.163255703267197
 20
66.906474820143899
 30
0.0
 11
-80.163255703267197
 21
66.906474820143899
 31
0.0
  0
LINE
  5
E1
  8
1
 62
     7
 10
-80.163255703267197
 20
66.906474820143899
 30
0.0
 11
-80.163255703267197
 21
76.906474820143913
 31
0.0
  0
LINE
  5
E2
  8
1
  6
DASHDOT
 62
     3
 10
-64.663255703267197
 20
46.906474820143899
 30
0.0
 11
-80.663255703267197
 21
46.906474820143899
 31
0.0
  0
LINE
  5
E3
  8
1
  6
DASHDOT
 62
     3
 10
-72.663255703267197
 20
54.906474820143899
 30
0.0
 11
-72.663255703267197
 21
38.906474820143899
 31
0.0
  0
LINE
  5
E4
  8
1
 62
     7
 10
-62.163255703267197
 20
16.962087649528939
 30
0.0
 11
-62.163255703267197
 21
18.101545645276691
 31
0.0
  0
LINE
  5
E5
  8
1
 62
     7
 10
-83.163255703267197
 20
16.962087649528939
 30
0.0
 11
-83.163255703267197
 21
18.101545645276691
 31
0.0
  0
LINE
  5
E6
  8
1
 62
     7
 10
-67.163255703267197
 20
19.962087649528939
 30
0.0
 11
-67.163255703267197
 21
14.462087649528939
 31
0.0
  0
LINE
  5
E7
  8
1
 62
     7
 10
-67.163255703267197
 20
14.462087649528939
 30
0.0
 11
-64.663255703267197
 21
14.462087649528939
 31
0.0
  0
LINE
  5
E8
  8
1
 62
     7
 10
-78.163255703267197
 20
19.962087649528939
 30
0.0
 11
-78.163255703267197
 21
14.462087649528939
 31
0.0
  0
LINE
  5
E9
  8
1
 62
     7
 10
-78.163255703267197
 20
14.462087649528939
 30
0.0
 11
-80.663255703267197
 21
14.462087649528939
 31
0.0
  0
LINE
  5
EA
  8
1
 62
     7
 10
33.955546450249813
 20
46.906474820143899
 30
0.0
 11
31.64614537349129
 21
50.906474820143892
 31
0.0
  0
LINE
  5
EB
  8
1
 62
     7
 10
31.64614537349129
 20
50.906474820143892
 30
0.0
 11
27.027343219974298
 21
50.906474820143892
 31
0.0
  0
LINE
  5
EC
  8
1
 62
     7
 10
27.027343219974298
 20
50.906474820143892
 30
0.0
 11
24.71794214321579
 21
46.906474820143899
 31
0.0
  0
LINE
  5
ED
  8
1
 62
     7
 10
24.71794214321579
 20
46.906474820143899
 30
0.0
 11
27.027343219974298
 21
42.906474820143899
 31
0.0
  0
LINE
  5
EE
  8
1
 62
     7
 10
27.027343219974298
 20
42.906474820143899
 30
0.0
 11
31.64614537349129
 21
42.906474820143899
 31
0.0
  0
LINE
  5
EF
  8
1
 62
     7
 10
31.64614537349129
 20
42.906474820143899
 30
0.0
 11
33.955546450249813
 21
46.906474820143899
 31
0.0
  0
LINE
  5
F0
  8
1
 62
     7
 10
-72.663255703267197
 20
153.52527697366091
 30
0.0
 11
-76.663255703267197
 21
151.21587589690239
 31
0.0
  0
LINE
  5
F1
  8
1
 62
     7
 10
-76.663255703267197
 20
151.21587589690239
 30
0.0
 11
-76.663255703267197
 21
146.59707374338541
 31
0.0
  0
LINE
  5
F2
  8
1
 62
     7
 10
-76.663255703267197
 20
146.59707374338541
 30
0.0
 11
-72.663255703267197
 21
144.28767266662689
 31
0.0
  0
LINE
  5
F3
  8
1
 62
     7
 10
-72.663255703267197
 20
144.28767266662689
 30
0.0
 11
-68.663255703267197
 21
146.59707374338541
 31
0.0
  0
LINE
  5
F4
  8
1
 62
     7
 10
-68.663255703267197
 20
146.59707374338541
 30
0.0
 11
-68.663255703267197
 21
151.21587589690239
 31
0.0
  0
LINE
  5
F5
  8
1
 62
     7
 10
-68.663255703267197
 20
151.21587589690239
 30
0.0
 11
-72.663255703267197
 21
153.52527697366091
 31
0.0
  0
LINE
  5
F6
  8
1
 62
     7
 10
-179.28205785678409
 20
46.90647482014392
 30
0.0
 11
-176.9726567800256
 21
42.90647482014392
 31
0.0
  0
LINE
  5
F7
  8
1
 62
     7
 10
-176.9726567800256
 20
42.90647482014392
 30
0.0
 11
-172.35385462650859
 21
42.90647482014392
 31
0.0
  0
LINE
  5
F8
  8
1
 62
     7
 10
-172.35385462650859
 20
42.90647482014392
 30
0.0
 11
-170.0444535497501
 21
46.90647482014392
 31
0.0
  0
LINE
  5
F9
  8
1
 62
     7
 10
-170.0444535497501
 20
46.90647482014392
 30
0.0
 11
-172.35385462650859
 21
50.90647482014392
 31
0.0
  0
LINE
  5
FA
  8
1
 62
     7
 10
-172.35385462650859
 20
50.90647482014392
 30
0.0
 11
-176.9726567800256
 21
50.90647482014392
 31
0.0
  0
LINE
  5
FB
  8
1
 62
     7
 10
-176.9726567800256
 20
50.90647482014392
 30
0.0
 11
-179.28205785678409
 21
46.90647482014392
 31
0.0
  0
LINE
  5
FC
  8
1
 62
     7
 10
-72.663255703267225
 20
-59.712327333373089
 30
0.0
 11
-68.663255703267225
 21
-57.40292625661457
 31
0.0
  0
LINE
  5
FD
  8
1
 62
     7
 10
-68.663255703267225
 20
-57.40292625661457
 30
0.0
 11
-68.663255703267225
 21
-52.784124103097597
 31
0.0
  0
LINE
  5
FE
  8
1
 62
     7
 10
-68.663255703267225
 20
-52.784124103097597
 30
0.0
 11
-72.663255703267225
 21
-50.474723026339092
 31
0.0
  0
LINE
  5
FF
  8
1
 62
     7
 10
-72.663255703267225
 20
-50.474723026339092
 30
0.0
 11
-76.663255703267225
 21
-52.784124103097597
 31
0.0
  0
LINE
  5
100
  8
1
 62
     7
 10
-76.663255703267225
 20
-52.784124103097597
 30
0.0
 11
-76.663255703267225
 21
-57.40292625661457
 31
0.0
  0
LINE
  5
101
  8
1
 62
     7
 10
-76.663255703267225
 20
-57.40292625661457
 30
0.0
 11
-72.663255703267225
 21
-59.712327333373089
 31
0.0
  0
LINE
  5
102
  8
1
  6
DASHED
 62
     3
 10
-226.16325570326711
 20
-133.0935251798561
 30
0.0
 11
-226.16325570326711
 21
-111.093525179856
 31
0.0
  0
LINE
  5
103
  8
1
  6
DASHDOT
 62
     3
 10
-217.66325570326711
 20
-105.093525179856
 30
0.0
 11
-217.66325570326711
 21
-136.0935251798561
 31
0.0
  0
LINE
  5
104
  8
1
  6
DASHED
 62
     3
 10
-236.16325570326711
 20
-108.093525179856
 30
0.0
 11
-236.16325570326711
 21
-111.093525179856
 31
0.0
  0
LINE
  5
105
  8
1
  6
DASHED
 62
     3
 10
-199.16325570326711
 20
-108.093525179856
 30
0.0
 11
-199.16325570326711
 21
-111.093525179856
 31
0.0
  0
LINE
  5
106
  8
1
  6
DASHED
 62
     3
 10
-236.16325570326711
 20
-111.093525179856
 30
0.0
 11
-199.16325570326711
 21
-111.093525179856
 31
0.0
  0
LINE
  5
107
  8
1
  6
DASHED
 62
     3
 10
-209.16325570326711
 20
-111.093525179856
 30
0.0
 11
-209.16325570326711
 21
-133.0935251798561
 31
0.0
  0
LINE
  5
108
  8
1
  6
DASHED
 62
     3
 10
80.836744296732775
 20
-111.093525179856
 30
0.0
 11
80.836744296732775
 21
-133.0935251798561
 31
0.0
  0
LINE
  5
109
  8
1
  6
DASHED
 62
     3
 10
63.836744296732803
 20
-133.0935251798561
 30
0.0
 11
63.836744296732803
 21
-111.093525179856
 31
0.0
  0
LINE
  5
10A
  8
1
  6
DASHED
 62
     3
 10
53.836744296732803
 20
-111.093525179856
 30
0.0
 11
53.836744296732803
 21
-108.093525179856
 31
0.0
  0
LINE
  5
10B
  8
1
  6
DASHED
 62
     3
 10
53.836744296732803
 20
-111.093525179856
 30
0.0
 11
90.836744296732775
 21
-111.093525179856
 31
0.0
  0
LINE
  5
10C
  8
1
  6
DASHDOT
 62
     3
 10
72.336744296732803
 20
-136.0935251798561
 30
0.0
 11
72.336744296732803
 21
-105.093525179856
 31
0.0
  0
LINE
  5
10D
  8
1
  6
DASHED
 62
     3
 10
90.836744296732775
 20
-111.093525179856
 30
0.0
 11
90.836744296732775
 21
-108.093525179856
 31
0.0
  0
LINE
  5
10E
  8
1
 62
     7
 10
-571.86146681453988
 20
211.90647482014381
 30
0.0
 11
-571.86146681453988
 21
188.73848861808511
 31
0.0
  0
LINE
  5
10F
  8
1
 62
     7
 10
-576.86146681453988
 20
216.9064748201439
 30
0.0
 11
-818.86146681454011
 21
216.9064748201439
 31
0.0
  0
LINE
  5
110
  8
1
 62
     7
 10
-580.86146681453988
 20
183.73848861808511
 30
0.0
 11
-576.86146681453988
 21
183.73848861808511
 31
0.0
  0
LINE
  5
111
  8
1
 62
     7
 10
-524.86146681453999
 20
98.171716456168639
 30
0.0
 11
-578.86146681453999
 21
139.9135548034055
 31
0.0
  0
LINE
  5
112
  8
1
 62
     7
 10
-524.86146681453999
 20
115.4064748201439
 30
0.0
 11
-524.86146681453999
 21
-21.593525179856151
 31
0.0
  0
LINE
  5
113
  8
1
 62
     7
 10
-581.86146681453988
 20
163.20472504515979
 30
0.0
 11
-578.86146681453999
 21
163.20472504515979
 31
0.0
  0
LINE
  5
114
  8
1
 62
     7
 10
-578.86146681453999
 20
163.20472504515979
 30
0.0
 11
-578.86146681453999
 21
139.20472504515971
 31
0.0
  0
LINE
  5
115
  8
1
 62
     7
 10
-581.86146681453988
 20
139.20472504515971
 30
0.0
 11
-578.86146681453999
 21
139.20472504515971
 31
0.0
  0
LINE
  5
116
  8
1
 62
     7
 10
-570.86146681453999
 20
159.4172250451596
 30
0.0
 11
-570.86146681453999
 21
142.99222504515961
 31
0.0
  0
LINE
  5
117
  8
1
 62
     7
 10
-571.98729983945975
 20
162.15472504515981
 30
0.0
 11
-578.86146681453999
 21
162.15472504515981
 31
0.0
  0
LINE
  5
118
  8
1
 62
     7
 10
-571.98729983945975
 20
156.67972504515961
 30
0.0
 11
-578.86146681453999
 21
156.67972504515961
 31
0.0
  0
LINE
  5
119
  8
1
 62
     7
 10
-571.98729983945975
 20
145.7297250451596
 30
0.0
 11
-578.86146681453999
 21
145.7297250451596
 31
0.0
  0
LINE
  5
11A
  8
1
 62
     7
 10
-571.98729983945975
 20
140.25472504515969
 30
0.0
 11
-578.86146681453999
 21
140.25472504515969
 31
0.0
  0
LINE
  5
11B
  8
1
 62
     7
 10
-552.33215323030868
 20
119.4064748201439
 30
0.0
 11
-528.86146681453999
 21
119.4064748201439
 31
0.0
  0
LINE
  5
11C
  8
1
 62
     7
 10
-581.86146681453988
 20
98.171716456168596
 30
0.0
 11
-524.86146681453999
 21
98.171716456168639
 31
0.0
  0
LINE
  5
11D
  8
1
 62
     7
 10
-688.86146681453999
 20
-133.0935251798561
 30
0.0
 11
-688.86146681453999
 21
-24.527780872391219
 31
0.0
  0
LINE
  5
11E
  8
1
 62
     7
 10
-522.86146681453988
 20
-112.093525179856
 30
0.0
 11
-522.86146681453988
 21
-133.0935251798561
 31
0.0
  0
LINE
  5
11F
  8
1
 62
     7
 10
-668.86146681453988
 20
-24.527780872391219
 30
0.0
 11
-668.86146681453988
 21
-104.093525179856
 31
0.0
  0
LINE
  5
120
  8
1
 62
     7
 10
-664.86146681453988
 20
-108.093525179856
 30
0.0
 11
-526.86146681453988
 21
-108.093525179856
 31
0.0
  0
LINE
  5
121
  8
1
 62
     7
 10
-668.86146681453988
 20
-104.093525179856
 30
0.0
 11
-688.86146681453999
 21
-104.093525179856
 31
0.0
  0
LINE
  5
122
  8
1
 62
     7
 10
-688.86146681453999
 20
-133.0935251798561
 30
0.0
 11
-522.86146681453988
 21
-133.0935251798561
 31
0.0
  0
LINE
  5
123
  8
1
 62
     7
 10
-578.86146681453999
 20
-46.10060516311782
 30
0.0
 11
-524.86146681453999
 21
-4.358766815880827
 31
0.0
  0
LINE
  5
124
  8
1
 62
     7
 10
-578.86146681453999
 20
-69.391775404871964
 30
0.0
 11
-581.86146681453988
 21
-69.391775404871964
 31
0.0
  0
LINE
  5
125
  8
1
 62
     7
 10
-578.86146681453999
 20
-45.391775404871943
 30
0.0
 11
-578.86146681453999
 21
-69.391775404871964
 31
0.0
  0
LINE
  5
126
  8
1
 62
     7
 10
-578.86146681453999
 20
-45.391775404871943
 30
0.0
 11
-581.86146681453988
 21
-45.391775404871943
 31
0.0
  0
LINE
  5
127
  8
1
 62
     7
 10
-570.86146681453999
 20
-49.17927540487193
 30
0.0
 11
-570.86146681453999
 21
-65.604275404871942
 31
0.0
  0
LINE
  5
128
  8
1
 62
     7
 10
-578.86146681453999
 20
-68.341775404871953
 30
0.0
 11
-571.98729983945975
 21
-68.341775404871953
 31
0.0
  0
LINE
  5
129
  8
1
 62
     7
 10
-578.86146681453999
 20
-62.86677540487193
 30
0.0
 11
-571.98729983945975
 21
-62.86677540487193
 31
0.0
  0
LINE
  5
12A
  8
1
 62
     7
 10
-578.86146681453999
 20
-51.916775404871942
 30
0.0
 11
-571.98729983945975
 21
-51.916775404871942
 31
0.0
  0
LINE
  5
12B
  8
1
 62
     7
 10
-578.86146681453999
 20
-46.44177540487194
 30
0.0
 11
-571.98729983945975
 21
-46.44177540487194
 31
0.0
  0
LINE
  5
12C
  8
1
 62
     7
 10
-528.86146681453999
 20
-25.59352517985614
 30
0.0
 11
-552.33215323030868
 21
-25.59352517985614
 31
0.0
  0
LINE
  5
12D
  8
1
 62
     7
 10
-524.86146681453999
 20
-4.358766815880827
 30
0.0
 11
-581.86146681453988
 21
-4.3587668158807826
 31
0.0
  0
LINE
  5
12E
  8
1
 62
     7
 10
-706.86146681454011
 20
-123.0935251798561
 30
0.0
 11
-688.86146681453999
 21
-123.0935251798561
 31
0.0
  0
LINE
  5
12F
  8
1
 62
     7
 10
-581.86146681453988
 20
-108.093525179856
 30
0.0
 11
-581.86146681453988
 21
182.73848861808511
 31
0.0
  0
LINE
  5
130
  8
1
 62
     7
 10
-675.86146681453999
 20
-12.7580009054602
 30
0.0
 11
-584.81348583487772
 21
-12.7580009054602
 31
0.0
  0
LINE
  5
131
  8
1
 62
     7
 10
-675.86146681453999
 20
-17.641113637821832
 30
0.0
 11
-584.81348583487772
 21
-17.641113637821832
 31
0.0
  0
LINE
  5
132
  8
1
 62
     7
 10
-668.86146681453988
 20
-26.432127421844601
 30
0.0
 11
-584.81348583487772
 21
-26.432127421844601
 31
0.0
  0
LINE
  5
133
  8
1
 62
     7
 10
-668.86146681453988
 20
-48.180298837879718
 30
0.0
 11
-584.81348583487772
 21
-48.180298837879718
 31
0.0
  0
LINE
  5
134
  8
1
 62
     7
 10
-668.86146681453988
 20
-55.402079115704304
 30
0.0
 11
-584.81348583487772
 21
-55.402079115704304
 31
0.0
  0
LINE
  5
135
  8
1
 62
     7
 10
-524.62132259597695
 20
-108.7796522372044
 30
0.0
 11
-581.86146681453988
 21
-71.811408408553376
 31
0.0
  0
LINE
  5
136
  8
1
 62
     7
 10
-823.86146681453999
 20
188.73848861808511
 30
0.0
 11
-823.86146681453999
 21
211.90647482014381
 31
0.0
  0
LINE
  5
137
  8
1
 62
     7
 10
-818.86146681454011
 20
183.73848861808511
 30
0.0
 11
-814.86146681454022
 21
183.73848861808511
 31
0.0
  0
LINE
  5
138
  8
1
 62
     7
 10
-816.86146681454011
 20
139.9135548034055
 30
0.0
 11
-870.86146681454011
 21
98.171716456168639
 31
0.0
  0
LINE
  5
139
  8
1
 62
     7
 10
-816.86146681454011
 20
163.20472504515979
 30
0.0
 11
-813.86146681453999
 21
163.20472504515979
 31
0.0
  0
LINE
  5
13A
  8
1
 62
     7
 10
-816.86146681454011
 20
139.20472504515971
 30
0.0
 11
-816.86146681454011
 21
163.20472504515979
 31
0.0
  0
LINE
  5
13B
  8
1
 62
     7
 10
-816.86146681454011
 20
139.20472504515971
 30
0.0
 11
-813.86146681453999
 21
139.20472504515971
 31
0.0
  0
LINE
  5
13C
  8
1
 62
     7
 10
-866.86146681454011
 20
119.4064748201439
 30
0.0
 11
-843.39078039877108
 21
119.4064748201439
 31
0.0
  0
LINE
  5
13D
  8
1
 62
     7
 10
-870.86146681454011
 20
98.171716456168639
 30
0.0
 11
-813.86146681453999
 21
98.171716456168596
 31
0.0
  0
LINE
  5
13E
  8
1
 62
     7
 10
-706.86146681454011
 20
-24.527780872391219
 30
0.0
 11
-706.86146681454011
 21
-133.0935251798561
 31
0.0
  0
LINE
  5
13F
  8
1
 62
     7
 10
-872.86146681453999
 20
-133.0935251798561
 30
0.0
 11
-872.86146681453999
 21
-112.093525179856
 31
0.0
  0
LINE
  5
140
  8
1
 62
     7
 10
-726.86146681454011
 20
-104.093525179856
 30
0.0
 11
-726.86146681454011
 21
-24.527780872391219
 31
0.0
  0
LINE
  5
141
  8
1
 62
     7
 10
-868.86146681454011
 20
-108.093525179856
 30
0.0
 11
-730.86146681454011
 21
-108.093525179856
 31
0.0
  0
LINE
  5
142
  8
1
 62
     7
 10
-706.86146681454011
 20
-104.093525179856
 30
0.0
 11
-726.86146681454011
 21
-104.093525179856
 31
0.0
  0
LINE
  5
143
  8
1
 62
     7
 10
-872.86146681453999
 20
-133.0935251798561
 30
0.0
 11
-706.86146681454011
 21
-133.0935251798561
 31
0.0
  0
LINE
  5
144
  8
1
 62
     7
 10
-870.86146681454011
 20
-4.358766815880827
 30
0.0
 11
-816.86146681454011
 21
-46.10060516311782
 31
0.0
  0
LINE
  5
145
  8
1
 62
     7
 10
-870.86146681454011
 20
-21.59352517985614
 30
0.0
 11
-870.86146681454011
 21
115.406474820144
 31
0.0
  0
LINE
  5
146
  8
1
 62
     7
 10
-813.86146681453999
 20
-69.391775404871964
 30
0.0
 11
-816.86146681454011
 21
-69.391775404871964
 31
0.0
  0
LINE
  5
147
  8
1
 62
     7
 10
-816.86146681454011
 20
-69.391775404871964
 30
0.0
 11
-816.86146681454011
 21
-45.391775404871943
 31
0.0
  0
LINE
  5
148
  8
1
 62
     7
 10
-813.86146681453999
 20
-45.391775404871943
 30
0.0
 11
-816.86146681454011
 21
-45.391775404871943
 31
0.0
  0
LINE
  5
149
  8
1
 62
     7
 10
-843.39078039877108
 20
-25.59352517985614
 30
0.0
 11
-866.86146681454011
 21
-25.59352517985614
 31
0.0
  0
LINE
  5
14A
  8
1
 62
     7
 10
-813.86146681453999
 20
-4.3587668158807826
 30
0.0
 11
-870.86146681454011
 21
-4.358766815880827
 31
0.0
  0
LINE
  5
14B
  8
1
 62
     7
 10
-813.86146681454022
 20
182.73848861808511
 30
0.0
 11
-813.86146681453999
 21
-108.093525179856
 31
0.0
  0
LINE
  5
14C
  8
1
 62
     7
 10
-810.90944779420215
 20
17.386284616765732
 30
0.0
 11
-741.86146681454011
 21
17.386284616765732
 31
0.0
  0
LINE
  5
14D
  8
1
 62
     7
 10
-810.90944779420215
 20
-12.7580009054602
 30
0.0
 11
-719.86146681454011
 21
-12.7580009054602
 31
0.0
  0
LINE
  5
14E
  8
1
 62
     7
 10
-719.86146681454011
 20
-17.641113637821832
 30
0.0
 11
-719.86146681454011
 21
9.6999281105781421
 31
0.0
  0
LINE
  5
14F
  8
1
 62
     7
 10
-810.90944779420215
 20
-17.641113637821832
 30
0.0
 11
-719.86146681454011
 21
-17.641113637821832
 31
0.0
  0
LINE
  5
150
  8
1
 62
     7
 10
-810.90944779420215
 20
-26.432127421844601
 30
0.0
 11
-726.86146681454011
 21
-26.432127421844601
 31
0.0
  0
LINE
  5
151
  8
1
 62
     7
 10
-810.90944779420215
 20
-48.180298837879718
 30
0.0
 11
-726.86146681454011
 21
-48.180298837879718
 31
0.0
  0
LINE
  5
152
  8
1
 62
     7
 10
-810.90944779420215
 20
-55.402079115704304
 30
0.0
 11
-726.86146681454011
 21
-55.402079115704304
 31
0.0
  0
LINE
  5
153
  8
1
 62
     7
 10
-813.86146681453999
 20
-71.811408408553376
 30
0.0
 11
-871.01166464008315
 21
-108.720596287776
 31
0.0
  0
LINE
  5
154
  8
1
 62
     7
 10
-427.86146681453999
 20
76.906474820143913
 30
0.0
 11
-427.86146681453999
 21
22.906474820143899
 31
0.0
  0
LINE
  5
155
  8
1
 62
     7
 10
-517.86146681453988
 20
71.906474820143913
 30
0.0
 11
-428.86146681453999
 21
71.906474820143913
 31
0.0
  0
LINE
  5
156
  8
1
 62
     7
 10
-517.86146681453988
 20
19.406474820143909
 30
0.0
 11
-522.86146681453988
 21
19.406474820143909
 31
0.0
  0
LINE
  5
157
  8
1
 62
     7
 10
-428.86146681453999
 20
21.906474820143899
 30
0.0
 11
-517.86146681453988
 21
21.906474820143899
 31
0.0
  0
LINE
  5
158
  8
1
 62
     7
 10
-427.86146681453999
 20
76.906474820143913
 30
0.0
 11
-507.86146681453999
 21
76.906474820143913
 31
0.0
  0
LINE
  5
159
  8
1
 62
     7
 10
-507.86146681453999
 20
76.906474820143913
 30
0.0
 11
-507.86146681453999
 21
71.906474820143913
 31
0.0
  0
LINE
  5
15A
  8
1
 62
     7
 10
-428.86146681453999
 20
21.906474820143899
 30
0.0
 11
-427.86146681453999
 21
22.906474820143899
 31
0.0
  0
LINE
  5
15B
  8
1
 62
     7
 10
-428.86146681453999
 20
71.906474820143913
 30
0.0
 11
-427.86146681453999
 21
70.906474820143913
 31
0.0
  0
LINE
  5
15C
  8
1
 62
     7
 10
-428.86146681453999
 20
71.906474820143913
 30
0.0
 11
-428.86146681453999
 21
21.906474820143899
 31
0.0
  0
LINE
  5
15D
  8
1
 62
     7
 10
-675.86146681453999
 20
9.6999281105781421
 30
0.0
 11
-675.86146681453999
 21
-17.641113637821832
 31
0.0
  0
LINE
  5
15E
  8
1
 62
     7
 10
-726.86146681454011
 20
-24.527780872391219
 30
0.0
 11
-706.86146681454011
 21
-24.527780872391219
 31
0.0
  0
LINE
  5
15F
  8
1
 62
     7
 10
-688.86146681453999
 20
-24.527780872391219
 30
0.0
 11
-668.86146681453988
 21
-24.527780872391219
 31
0.0
  0
LINE
  5
160
  8
1
  6
DASHED
 62
     3
 10
-556.36146681453988
 20
-133.0935251798561
 30
0.0
 11
-556.36146681453988
 21
-111.093525179856
 31
0.0
  0
LINE
  5
161
  8
1
  6
DASHED
 62
     3
 10
-566.36146681453999
 20
-108.093525179856
 30
0.0
 11
-566.36146681453999
 21
-111.093525179856
 31
0.0
  0
LINE
  5
162
  8
1
  6
DASHED
 62
     3
 10
-529.36146681453999
 20
-108.093525179856
 30
0.0
 11
-529.36146681453999
 21
-111.093525179856
 31
0.0
  0
LINE
  5
163
  8
1
  6
DASHED
 62
     3
 10
-566.36146681453999
 20
-111.093525179856
 30
0.0
 11
-529.36146681453999
 21
-111.093525179856
 31
0.0
  0
LINE
  5
164
  8
1
  6
DASHED
 62
     3
 10
-539.36146681453988
 20
-111.093525179856
 30
0.0
 11
-539.36146681453988
 21
-133.0935251798561
 31
0.0
  0
LINE
  5
165
  8
1
  6
DASHED
 62
     3
 10
-856.36146681454011
 20
-133.0935251798561
 30
0.0
 11
-856.36146681454011
 21
-111.093525179856
 31
0.0
  0
LINE
  5
166
  8
1
  6
DASHED
 62
     3
 10
-866.36146681454011
 20
-108.093525179856
 30
0.0
 11
-866.36146681454011
 21
-111.093525179856
 31
0.0
  0
LINE
  5
167
  8
1
  6
DASHED
 62
     3
 10
-829.36146681454011
 20
-108.093525179856
 30
0.0
 11
-829.36146681454011
 21
-111.093525179856
 31
0.0
  0
LINE
  5
168
  8
1
  6
DASHED
 62
     3
 10
-866.36146681454011
 20
-111.093525179856
 30
0.0
 11
-829.36146681454011
 21
-111.093525179856
 31
0.0
  0
LINE
  5
169
  8
1
  6
DASHED
 62
     3
 10
-839.36146681454011
 20
-111.093525179856
 30
0.0
 11
-839.36146681454011
 21
-133.0935251798561
 31
0.0
  0
LINE
  5
16A
  8
1
  6
DASHDOT
 62
     3
 10
-547.86146681453988
 20
-105.093525179856
 30
0.0
 11
-547.86146681453988
 21
-136.0935251798561
 31
0.0
  0
LINE
  5
16B
  8
1
  6
DASHDOT
 62
     3
 10
-847.86146681453999
 20
-105.093525179856
 30
0.0
 11
-847.86146681453999
 21
-136.0935251798561
 31
0.0
  0
LINE
  5
16C
  8
1
 62
     7
 10
-517.86146681453988
 20
74.406474820143913
 30
0.0
 11
-517.86146681453988
 21
19.406474820143909
 31
0.0
  0
LINE
  5
16D
  8
1
 62
     7
 10
-522.86146681453988
 20
77.906473995061319
 30
0.0
 11
-524.86146681453999
 21
77.906473995061319
 31
0.0
  0
LINE
  5
16E
  8
1
 62
     7
 10
-524.86146681453999
 20
15.906475645226481
 30
0.0
 11
-522.86146681453988
 21
15.906475645226481
 31
0.0
  0
LINE
  5
16F
  8
1
 62
     7
 10
-522.86146681453988
 20
15.906475645226481
 30
0.0
 11
-522.86146681453988
 21
77.906473995061319
 31
0.0
  0
LINE
  5
170
  8
1
 62
     7
 10
-522.86146681453988
 20
74.406474820143913
 30
0.0
 11
-517.86146681453988
 21
74.406474820143913
 31
0.0
  0
LINE
  5
171
  8
1
 62
     7
 10
-966.86146681454011
 20
71.906474820143913
 30
0.0
 11
-877.86146681454011
 21
71.906474820143913
 31
0.0
  0
LINE
  5
172
  8
1
 62
     7
 10
-967.86146681454011
 20
22.906474820143899
 30
0.0
 11
-967.86146681454011
 21
76.906474820143913
 31
0.0
  0
LINE
  5
173
  8
1
 62
     7
 10
-872.86146681453999
 20
19.406474820143909
 30
0.0
 11
-877.86146681454011
 21
19.406474820143909
 31
0.0
  0
LINE
  5
174
  8
1
 62
     7
 10
-877.86146681454011
 20
21.906474820143899
 30
0.0
 11
-966.86146681454011
 21
21.906474820143899
 31
0.0
  0
LINE
  5
175
  8
1
 62
     7
 10
-887.86146681454011
 20
76.906474820143913
 30
0.0
 11
-967.86146681454011
 21
76.906474820143913
 31
0.0
  0
LINE
  5
176
  8
1
 62
     7
 10
-887.86146681454011
 20
71.906474820143913
 30
0.0
 11
-887.86146681454011
 21
76.906474820143913
 31
0.0
  0
LINE
  5
177
  8
1
 62
     7
 10
-967.86146681454011
 20
22.906474820143899
 30
0.0
 11
-966.86146681454011
 21
21.906474820143899
 31
0.0
  0
LINE
  5
178
  8
1
 62
     7
 10
-967.86146681454011
 20
70.906474820143913
 30
0.0
 11
-966.86146681454011
 21
71.906474820143913
 31
0.0
  0
LINE
  5
179
  8
1
 62
     7
 10
-966.86146681454011
 20
21.906474820143899
 30
0.0
 11
-966.86146681454011
 21
71.906474820143913
 31
0.0
  0
LINE
  5
17A
  8
1
 62
     7
 10
-877.86146681454011
 20
19.406474820143909
 30
0.0
 11
-877.86146681454011
 21
74.406474820143913
 31
0.0
  0
LINE
  5
17B
  8
1
 62
     7
 10
-870.86146681454011
 20
77.906473995061319
 30
0.0
 11
-872.86146681453999
 21
77.906473995061319
 31
0.0
  0
LINE
  5
17C
  8
1
 62
     7
 10
-872.86146681453999
 20
15.906475645226481
 30
0.0
 11
-870.86146681454011
 21
15.906475645226481
 31
0.0
  0
LINE
  5
17D
  8
1
 62
     7
 10
-872.86146681453999
 20
77.906473995061319
 30
0.0
 11
-872.86146681453999
 21
15.906475645226481
 31
0.0
  0
LINE
  5
17E
  8
1
 62
     7
 10
-877.86146681454011
 20
74.406474820143913
 30
0.0
 11
-872.86146681453999
 21
74.406474820143913
 31
0.0
  0
LINE
  5
17F
  8
1
 62
     7
 10
-653.86146681453999
 20
17.386284616765732
 30
0.0
 11
-584.81348583487772
 21
17.386284616765732
 31
0.0
  0
LINE
  5
180
  8
1
 62
     7
 10
-581.86146681453988
 20
54.906474820143899
 30
0.0
 11
-572.46146681454002
 21
54.906474820143899
 31
0.0
  0
LINE
  5
181
  8
1
 62
     7
 10
-572.46146681454002
 20
54.906474820143899
 30
0.0
 11
-571.86146681453988
 21
53.867244335602571
 31
0.0
  0
LINE
  5
182
  8
1
 62
     7
 10
-571.86146681453988
 20
53.867244335602571
 30
0.0
 11
-571.86146681453988
 21
39.94570530468522
 31
0.0
  0
LINE
  5
183
  8
1
 62
     7
 10
-571.86146681453988
 20
39.94570530468522
 30
0.0
 11
-572.46146681454002
 21
38.906474820143899
 31
0.0
  0
LINE
  5
184
  8
1
 62
     7
 10
-572.46146681454002
 20
38.906474820143899
 30
0.0
 11
-581.86146681453988
 21
38.906474820143899
 31
0.0
  0
LINE
  5
185
  8
1
 62
     7
 10
-572.46146681454002
 20
54.906474820143899
 30
0.0
 11
-572.46146681454002
 21
38.906474820143899
 31
0.0
  0
LINE
  5
186
  8
1
 62
     7
 10
-813.86146681454022
 20
38.906474820143899
 30
0.0
 11
-823.26146681454009
 21
38.906474820143899
 31
0.0
  0
LINE
  5
187
  8
1
 62
     7
 10
-823.26146681454009
 20
38.906474820143899
 30
0.0
 11
-823.86146681454022
 21
39.94570530468522
 31
0.0
  0
LINE
  5
188
  8
1
 62
     7
 10
-823.86146681454022
 20
39.94570530468522
 30
0.0
 11
-823.86146681454022
 21
53.867244335602571
 31
0.0
  0
LINE
  5
189
  8
1
 62
     7
 10
-823.86146681454022
 20
53.867244335602571
 30
0.0
 11
-823.26146681454009
 21
54.906474820143899
 31
0.0
  0
LINE
  5
18A
  8
1
 62
     7
 10
-823.26146681454009
 20
54.906474820143899
 30
0.0
 11
-813.86146681454022
 21
54.906474820143899
 31
0.0
  0
LINE
  5
18B
  8
1
 62
     7
 10
-823.26146681454009
 20
38.906474820143899
 30
0.0
 11
-823.26146681454009
 21
54.906474820143899
 31
0.0
  0
LINE
  5
18C
  8
1
 62
     7
 10
-427.86146681453999
 20
534.43843550809902
 30
0.0
 11
-427.86146681453999
 21
486.43843550809891
 31
0.0
  0
LINE
  5
18D
  8
1
 62
     7
 10
-517.86146681453988
 20
535.43843550809891
 30
0.0
 11
-428.86146681453999
 21
535.43843550809891
 31
0.0
  0
LINE
  5
18E
  8
1
 62
     7
 10
-517.86146681453988
 20
482.93843550809891
 30
0.0
 11
-522.86146681453988
 21
482.93843550809891
 31
0.0
  0
LINE
  5
18F
  8
1
 62
     7
 10
-428.86146681453999
 20
485.43843550809891
 30
0.0
 11
-517.86146681453988
 21
485.43843550809891
 31
0.0
  0
LINE
  5
190
  8
1
 62
     7
 10
-428.86146681453999
 20
485.43843550809891
 30
0.0
 11
-427.86146681453999
 21
486.43843550809891
 31
0.0
  0
LINE
  5
191
  8
1
 62
     7
 10
-428.86146681453999
 20
535.43843550809891
 30
0.0
 11
-427.86146681453999
 21
534.43843550809902
 31
0.0
  0
LINE
  5
192
  8
1
 62
     7
 10
-428.86146681453999
 20
535.43843550809891
 30
0.0
 11
-428.86146681453999
 21
517.93843550809902
 31
0.0
  0
LINE
  5
193
  8
1
 62
     7
 10
-517.86146681453988
 20
537.93843550809902
 30
0.0
 11
-517.86146681453988
 21
482.93843550809891
 31
0.0
  0
LINE
  5
194
  8
1
 62
     7
 10
-522.86146681453988
 20
541.43843468301623
 30
0.0
 11
-524.86146681453999
 21
541.43843468301623
 31
0.0
  0
LINE
  5
195
  8
1
 62
     7
 10
-524.86146681453999
 20
479.43843633318153
 30
0.0
 11
-522.86146681453988
 21
479.43843633318153
 31
0.0
  0
LINE
  5
196
  8
1
 62
     7
 10
-522.86146681453988
 20
479.43843633318153
 30
0.0
 11
-522.86146681453988
 21
541.43843468301623
 31
0.0
  0
LINE
  5
197
  8
1
 62
     7
 10
-522.86146681453988
 20
537.93843550809902
 30
0.0
 11
-517.86146681453988
 21
537.93843550809902
 31
0.0
  0
LINE
  5
198
  8
1
  6
DASHDOT
 62
     3
 10
-422.86146681453999
 20
510.43843550809891
 30
0.0
 11
-427.86146681453999
 21
510.43843550809891
 31
0.0
  0
LINE
  5
199
  8
1
 62
     7
 10
-427.86146681453999
 20
517.93843550809902
 30
0.0
 11
-500.36146681453988
 21
517.93843550809902
 31
0.0
  0
LINE
  5
19A
  8
1
 62
     7
 10
-500.36146681453988
 20
502.93843550809879
 30
0.0
 11
-427.86146681453999
 21
502.93843550809879
 31
0.0
  0
LINE
  5
19B
  8
1
 62
     7
 10
-428.86146681453999
 20
502.93843550809879
 30
0.0
 11
-428.86146681453999
 21
485.43843550809891
 31
0.0
  0
LINE
  5
19C
  8
1
 62
     7
 10
-524.86146681453999
 20
561.70367714412373
 30
0.0
 11
-578.86146681453999
 21
603.44551549136065
 31
0.0
  0
LINE
  5
19D
  8
1
 62
     7
 10
-524.86146681453999
 20
578.93843550809902
 30
0.0
 11
-524.86146681453999
 21
441.93843550809891
 31
0.0
  0
LINE
  5
19E
  8
1
 62
     7
 10
-581.86146681453988
 20
626.73668573311488
 30
0.0
 11
-578.86146681453999
 21
626.73668573311488
 31
0.0
  0
LINE
  5
19F
  8
1
 62
     7
 10
-578.86146681453999
 20
626.73668573311488
 30
0.0
 11
-578.86146681453999
 21
602.73668573311477
 31
0.0
  0
LINE
  5
1A0
  8
1
 62
     7
 10
-581.86146681453988
 20
602.73668573311477
 30
0.0
 11
-578.86146681453999
 21
602.73668573311477
 31
0.0
  0
LINE
  5
1A1
  8
1
 62
     7
 10
-570.86146681453999
 20
622.94918573311475
 30
0.0
 11
-570.86146681453999
 21
606.52418573311468
 31
0.0
  0
LINE
  5
1A2
  8
1
 62
     7
 10
-571.98729983945975
 20
625.6866857331147
 30
0.0
 11
-578.86146681453999
 21
625.6866857331147
 31
0.0
  0
LINE
  5
1A3
  8
1
 62
     7
 10
-571.98729983945975
 20
620.21168573311479
 30
0.0
 11
-578.86146681453999
 21
620.21168573311479
 31
0.0
  0
LINE
  5
1A4
  8
1
 62
     7
 10
-571.98729983945975
 20
609.26168573311475
 30
0.0
 11
-578.86146681453999
 21
609.26168573311475
 31
0.0
  0
LINE
  5
1A5
  8
1
 62
     7
 10
-571.98729983945975
 20
603.78668573311472
 30
0.0
 11
-578.86146681453999
 21
603.78668573311472
 31
0.0
  0
LINE
  5
1A6
  8
1
 62
     7
 10
-552.33215323030868
 20
582.93843550809902
 30
0.0
 11
-528.86146681453999
 21
582.93843550809902
 31
0.0
  0
LINE
  5
1A7
  8
1
 62
     7
 10
-578.86146681453999
 20
417.43135552483727
 30
0.0
 11
-524.86146681453999
 21
459.17319387207431
 31
0.0
  0
LINE
  5
1A8
  8
1
 62
     7
 10
-578.86146681453999
 20
394.1401852830831
 30
0.0
 11
-581.86146681453988
 21
394.1401852830831
 31
0.0
  0
LINE
  5
1A9
  8
1
 62
     7
 10
-578.86146681453999
 20
418.1401852830831
 30
0.0
 11
-578.86146681453999
 21
394.1401852830831
 31
0.0
  0
LINE
  5
1AA
  8
1
 62
     7
 10
-578.86146681453999
 20
418.1401852830831
 30
0.0
 11
-581.86146681453988
 21
418.1401852830831
 31
0.0
  0
LINE
  5
1AB
  8
1
 62
     7
 10
-570.86146681453999
 20
414.35268528308308
 30
0.0
 11
-570.86146681453999
 21
397.92768528308312
 31
0.0
  0
LINE
  5
1AC
  8
1
 62
     7
 10
-578.86146681453999
 20
395.19018528308311
 30
0.0
 11
-571.98729983945975
 21
395.19018528308311
 31
0.0
  0
LINE
  5
1AD
  8
1
 62
     7
 10
-578.86146681453999
 20
400.66518528308308
 30
0.0
 11
-571.98729983945975
 21
400.66518528308308
 31
0.0
  0
LINE
  5
1AE
  8
1
 62
     7
 10
-578.86146681453999
 20
411.61518528308312
 30
0.0
 11
-571.98729983945975
 21
411.61518528308312
 31
0.0
  0
LINE
  5
1AF
  8
1
 62
     7
 10
-578.86146681453999
 20
417.09018528308297
 30
0.0
 11
-571.98729983945975
 21
417.09018528308297
 31
0.0
  0
LINE
  5
1B0
  8
1
 62
     7
 10
-528.86146681453999
 20
437.93843550809891
 30
0.0
 11
-552.33215323030868
 21
437.93843550809891
 31
0.0
  0
LINE
  5
1B1
  8
1
 62
     7
 10
-524.86146681453999
 20
459.17319387207431
 30
0.0
 11
-571.86146681453988
 21
459.17319387207431
 31
0.0
  0
LINE
  5
1B2
  8
1
 62
     7
 10
-577.86146681453999
 20
595.43843550809902
 30
0.0
 11
-575.86146681453999
 21
595.43843550809902
 31
0.0
  0
LINE
  5
1B3
  8
1
 62
     7
 10
-577.86146681453999
 20
425.43843550809891
 30
0.0
 11
-575.86146681453999
 21
425.43843550809891
 31
0.0
  0
LINE
  5
1B4
  8
1
 62
     7
 10
-571.86146681453988
 20
591.43843550809902
 30
0.0
 11
-571.86146681453988
 21
429.43843550809891
 31
0.0
  0
LINE
  5
1B5
  8
1
 62
     7
 10
-581.86146681453988
 20
675.43843550809913
 30
0.0
 11
-581.86146681453988
 21
599.43843550809902
 31
0.0
  0
LINE
  5
1B6
  8
1
 62
     7
 10
-571.86146681453988
 20
561.7036771441235
 30
0.0
 11
-524.86146681453999
 21
561.70367714412373
 31
0.0
  0
LINE
  5
1B7
  8
1
 62
     7
 10
-581.86146681453988
 20
421.43843550809891
 30
0.0
 11
-581.86146681453988
 21
345.43843550809891
 31
0.0
  0
LINE
  5
1B8
  8
1
 62
     7
 10
-859.86146681454079
 20
680.43843550809913
 30
0.0
 11
-535.86146681453988
 21
680.43843550809913
 31
0.0
  0
LINE
  5
1B9
  8
1
 62
     7
 10
-574.97130946820278
 20
600.43843550809902
 30
0.0
 11
-535.86146681453988
 21
600.43843550809902
 31
0.0
  0
LINE
  5
1BA
  8
1
 62
     7
 10
-522.86146681453988
 20
667.43843550809913
 30
0.0
 11
-522.86146681453988
 21
613.43843550809902
 31
0.0
  0
LINE
  5
1BB
  8
1
  6
DASHDOT
 62
     3
 10
-524.366860261228
 20
655.43843550809902
 30
0.0
 11
-571.35607336785188
 21
655.43843550809902
 31
0.0
  0
LINE
  5
1BC
  8
1
  6
DASHDOT
 62
     3
 10
-547.86146681453988
 20
678.93304206141102
 30
0.0
 11
-547.86146681453988
 21
631.94382895478702
 31
0.0
  0
LINE
  5
1BD
  8
1
 62
     7
 10
-535.86146681453988
 20
420.43843550809879
 30
0.0
 11
-574.97130946820278
 21
420.43843550809879
 31
0.0
  0
LINE
  5
1BE
  8
1
 62
     7
 10
-535.86146681453988
 20
340.43843550809862
 30
0.0
 11
-658.86146681454045
 21
340.43843550809879
 31
0.0
  0
LINE
  5
1BF
  8
1
 62
     7
 10
-522.86146681453988
 20
407.43843550809879
 30
0.0
 11
-522.86146681453988
 21
353.43843550809868
 31
0.0
  0
LINE
  5
1C0
  8
1
  6
DASHDOT
 62
     3
 10
-547.86146681453988
 20
388.93304206141079
 30
0.0
 11
-547.86146681453988
 21
341.9438289547868
 31
0.0
  0
LINE
  5
1C1
  8
1
  6
DASHDOT
 62
     3
 10
-571.35607336785188
 20
365.43843550809879
 30
0.0
 11
-524.366860261228
 21
365.43843550809879
 31
0.0
  0
LINE
  5
1C2
  8
1
 62
     7
 10
-967.86146681454068
 20
486.43843550809891
 30
0.0
 11
-967.86146681454068
 21
534.43843550809902
 31
0.0
  0
LINE
  5
1C3
  8
1
 62
     7
 10
-966.86146681454068
 20
535.43843550809891
 30
0.0
 11
-877.86146681454079
 21
535.43843550809891
 31
0.0
  0
LINE
  5
1C4
  8
1
 62
     7
 10
-872.8614668145409
 20
482.93843550809891
 30
0.0
 11
-877.86146681454079
 21
482.93843550809891
 31
0.0
  0
LINE
  5
1C5
  8
1
 62
     7
 10
-877.86146681454079
 20
485.43843550809891
 30
0.0
 11
-966.86146681454068
 21
485.43843550809891
 31
0.0
  0
LINE
  5
1C6
  8
1
 62
     7
 10
-967.86146681454068
 20
486.43843550809891
 30
0.0
 11
-966.86146681454068
 21
485.43843550809891
 31
0.0
  0
LINE
  5
1C7
  8
1
 62
     7
 10
-967.86146681454068
 20
534.43843550809902
 30
0.0
 11
-966.86146681454068
 21
535.43843550809891
 31
0.0
  0
LINE
  5
1C8
  8
1
 62
     7
 10
-966.86146681454068
 20
517.93843550809902
 30
0.0
 11
-966.86146681454068
 21
535.43843550809891
 31
0.0
  0
LINE
  5
1C9
  8
1
 62
     7
 10
-877.86146681454079
 20
482.93843550809891
 30
0.0
 11
-877.86146681454079
 21
537.93843550809902
 31
0.0
  0
LINE
  5
1CA
  8
1
 62
     7
 10
-870.8614668145409
 20
541.43843468301623
 30
0.0
 11
-872.8614668145409
 21
541.43843468301623
 31
0.0
  0
LINE
  5
1CB
  8
1
 62
     7
 10
-872.8614668145409
 20
479.43843633318153
 30
0.0
 11
-870.8614668145409
 21
479.43843633318153
 31
0.0
  0
LINE
  5
1CC
  8
1
 62
     7
 10
-872.8614668145409
 20
541.43843468301623
 30
0.0
 11
-872.8614668145409
 21
479.43843633318153
 31
0.0
  0
LINE
  5
1CD
  8
1
 62
     7
 10
-877.86146681454079
 20
537.93843550809902
 30
0.0
 11
-872.8614668145409
 21
537.93843550809902
 31
0.0
  0
LINE
  5
1CE
  8
1
  6
DASHDOT
 62
     3
 10
-967.86146681454068
 20
510.43843550809891
 30
0.0
 11
-972.86146681454068
 21
510.43843550809891
 31
0.0
  0
LINE
  5
1CF
  8
1
 62
     7
 10
-895.36146681454102
 20
517.93843550809902
 30
0.0
 11
-967.86146681454068
 21
517.93843550809902
 31
0.0
  0
LINE
  5
1D0
  8
1
 62
     7
 10
-967.86146681454068
 20
502.93843550809879
 30
0.0
 11
-895.36146681454102
 21
502.93843550809879
 31
0.0
  0
LINE
  5
1D1
  8
1
 62
     7
 10
-966.86146681454068
 20
485.43843550809891
 30
0.0
 11
-966.86146681454068
 21
502.93843550809879
 31
0.0
  0
LINE
  5
1D2
  8
1
 62
     7
 10
-816.8614668145409
 20
603.44551549136065
 30
0.0
 11
-870.8614668145409
 21
561.70367714412373
 31
0.0
  0
LINE
  5
1D3
  8
1
 62
     7
 10
-870.8614668145409
 20
441.93843550809891
 30
0.0
 11
-870.8614668145409
 21
578.93843550809902
 31
0.0
  0
LINE
  5
1D4
  8
1
 62
     7
 10
-816.8614668145409
 20
626.73668573311488
 30
0.0
 11
-813.8614668145409
 21
626.73668573311488
 31
0.0
  0
LINE
  5
1D5
  8
1
 62
     7
 10
-816.8614668145409
 20
602.73668573311477
 30
0.0
 11
-816.8614668145409
 21
626.73668573311488
 31
0.0
  0
LINE
  5
1D6
  8
1
 62
     7
 10
-816.8614668145409
 20
602.73668573311477
 30
0.0
 11
-813.8614668145409
 21
602.73668573311477
 31
0.0
  0
LINE
  5
1D7
  8
1
 62
     7
 10
-827.86146681454079
 20
606.52418573311468
 30
0.0
 11
-827.86146681454079
 21
622.94918573311475
 31
0.0
  0
LINE
  5
1D8
  8
1
 62
     7
 10
-819.86146681454079
 20
625.6866857331147
 30
0.0
 11
-826.73563378962126
 21
625.6866857331147
 31
0.0
  0
LINE
  5
1D9
  8
1
 62
     7
 10
-819.86146681454079
 20
620.21168573311479
 30
0.0
 11
-826.73563378962126
 21
620.21168573311479
 31
0.0
  0
LINE
  5
1DA
  8
1
 62
     7
 10
-819.86146681454079
 20
609.26168573311475
 30
0.0
 11
-826.73563378962126
 21
609.26168573311475
 31
0.0
  0
LINE
  5
1DB
  8
1
 62
     7
 10
-819.86146681454079
 20
603.78668573311472
 30
0.0
 11
-826.73563378962126
 21
603.78668573311472
 31
0.0
  0
LINE
  5
1DC
  8
1
 62
     7
 10
-819.86146681454079
 20
603.78668573311472
 30
0.0
 11
-819.86146681454079
 21
625.6866857331147
 31
0.0
  0
LINE
  5
1DD
  8
1
 62
     7
 10
-866.8614668145409
 20
582.93843550809902
 30
0.0
 11
-843.39078039877199
 21
582.93843550809902
 31
0.0
  0
LINE
  5
1DE
  8
1
 62
     7
 10
-870.8614668145409
 20
459.17319387207431
 30
0.0
 11
-816.8614668145409
 21
417.43135552483727
 31
0.0
  0
LINE
  5
1DF
  8
1
 62
     7
 10
-813.8614668145409
 20
394.1401852830831
 30
0.0
 11
-816.8614668145409
 21
394.1401852830831
 31
0.0
  0
LINE
  5
1E0
  8
1
 62
     7
 10
-816.8614668145409
 20
394.1401852830831
 30
0.0
 11
-816.8614668145409
 21
418.1401852830831
 31
0.0
  0
LINE
  5
1E1
  8
1
 62
     7
 10
-813.8614668145409
 20
418.1401852830831
 30
0.0
 11
-816.8614668145409
 21
418.1401852830831
 31
0.0
  0
LINE
  5
1E2
  8
1
 62
     7
 10
-843.39078039877199
 20
437.93843550809891
 30
0.0
 11
-866.8614668145409
 21
437.93843550809891
 31
0.0
  0
LINE
  5
1E3
  8
1
 62
     7
 10
-823.8614668145409
 20
459.17319387207431
 30
0.0
 11
-870.8614668145409
 21
459.17319387207431
 31
0.0
  0
LINE
  5
1E4
  8
1
 62
     7
 10
-819.86146681454079
 20
595.43843550809902
 30
0.0
 11
-817.86146681454079
 21
595.43843550809902
 31
0.0
  0
LINE
  5
1E5
  8
1
 62
     7
 10
-819.86146681454079
 20
425.43843550809891
 30
0.0
 11
-817.86146681454079
 21
425.43843550809891
 31
0.0
  0
LINE
  5
1E6
  8
1
 62
     7
 10
-823.8614668145409
 20
429.43843550809891
 30
0.0
 11
-823.8614668145409
 21
591.43843550809902
 31
0.0
  0
LINE
  5
1E7
  8
1
 62
     7
 10
-813.8614668145409
 20
599.43843550809902
 30
0.0
 11
-813.8614668145409
 21
675.43843550809913
 31
0.0
  0
LINE
  5
1E8
  8
1
 62
     7
 10
-870.8614668145409
 20
561.70367714412373
 30
0.0
 11
-823.8614668145409
 21
561.7036771441235
 31
0.0
  0
LINE
  5
1E9
  8
1
 62
     7
 10
-813.8614668145409
 20
345.43843550809891
 30
0.0
 11
-813.8614668145409
 21
421.43843550809891
 31
0.0
  0
LINE
  5
1EA
  8
1
 62
     7
 10
-808.86146681454079
 20
340.43843550809879
 30
0.0
 11
-736.86146681454045
 21
340.43843550809879
 31
0.0
  0
LINE
  5
1EB
  8
1
 62
     7
 10
-859.86146681454079
 20
600.43843550809902
 30
0.0
 11
-820.75162416087824
 21
600.43843550809902
 31
0.0
  0
LINE
  5
1EC
  8
1
 62
     7
 10
-872.8614668145409
 20
613.43843550809902
 30
0.0
 11
-872.8614668145409
 21
667.43843550809913
 31
0.0
  0
LINE
  5
1ED
  8
1
  6
DASHDOT
 62
     3
 10
-824.36686026122879
 20
655.43843550809902
 30
0.0
 11
-871.35607336785279
 21
655.43843550809902
 31
0.0
  0
LINE
  5
1EE
  8
1
  6
DASHDOT
 62
     3
 10
-847.8614668145409
 20
631.94382895478702
 30
0.0
 11
-847.8614668145409
 21
678.93304206141102
 31
0.0
  0
LINE
  5
1EF
  8
1
 62
     7
 10
-820.75162416087824
 20
420.43843550809879
 30
0.0
 11
-859.86146681454079
 21
420.43843550809879
 31
0.0
  0
LINE
  5
1F0
  8
1
 62
     7
 10
-809.31902016665208
 20
340.43843550809879
 30
0.0
 11
-859.86146681454079
 21
340.43843550809862
 31
0.0
  0
LINE
  5
1F1
  8
1
 62
     7
 10
-872.8614668145409
 20
353.43843550809868
 30
0.0
 11
-872.8614668145409
 21
407.43843550809879
 31
0.0
  0
LINE
  5
1F2
  8
1
  6
DASHDOT
 62
     3
 10
-847.8614668145409
 20
341.9438289547868
 30
0.0
 11
-847.8614668145409
 21
388.93304206141079
 31
0.0
  0
LINE
  5
1F3
  8
1
  6
DASHDOT
 62
     3
 10
-871.35607336785279
 20
365.43843550809879
 30
0.0
 11
-824.36686026122879
 21
365.43843550809879
 31
0.0
  0
LINE
  5
1F4
  8
1
  6
DASHED
 62
     3
 10
-427.86146681453999
 20
42.906474820143899
 30
0.0
 11
-455.86146681453999
 21
42.906474820143899
 31
0.0
  0
LINE
  5
1F5
  8
1
  6
DASHED
 62
     3
 10
-455.86146681453999
 20
42.906474820143899
 30
0.0
 11
-455.86146681453999
 21
50.906474820143892
 31
0.0
  0
LINE
  5
1F6
  8
1
  6
DASHED
 62
     3
 10
-455.86146681453999
 20
50.906474820143892
 30
0.0
 11
-427.86146681453999
 21
50.906474820143892
 31
0.0
  0
LINE
  5
1F7
  8
1
  6
DASHED
 62
     3
 10
-455.86146681453999
 20
42.906474820143899
 30
0.0
 11
-458.74821816048808
 21
46.906474820143899
 31
0.0
  0
LINE
  5
1F8
  8
1
  6
DASHED
 62
     3
 10
-458.74821816048808
 20
46.906474820143899
 30
0.0
 11
-455.86146681453999
 21
50.906474820143892
 31
0.0
  0
LINE
  5
1F9
  8
1
  6
DASHED
 62
     3
 10
-427.86146681453999
 20
41.906474820143899
 30
0.0
 11
-447.86146681453999
 21
41.906474820143899
 31
0.0
  0
LINE
  5
1FA
  8
1
  6
DASHED
 62
     3
 10
-447.86146681453999
 20
41.906474820143899
 30
0.0
 11
-447.86146681453999
 21
51.906474820143899
 31
0.0
  0
LINE
  5
1FB
  8
1
  6
DASHED
 62
     3
 10
-447.86146681453999
 20
51.906474820143899
 30
0.0
 11
-427.86146681453999
 21
51.906474820143899
 31
0.0
  0
LINE
  5
1FC
  8
1
  6
DASHED
 62
     3
 10
-447.86146681453999
 20
41.906474820143899
 30
0.0
 11
-449.59351762210878
 21
42.906474820143899
 31
0.0
  0
LINE
  5
1FD
  8
1
  6
DASHED
 62
     3
 10
-447.86146681453999
 20
51.906474820143899
 30
0.0
 11
-449.59351762210878
 21
50.906474820143892
 31
0.0
  0
LINE
  5
1FE
  8
1
  6
DASHDOT
 62
     3
 10
-424.86146681453999
 20
46.906474820143899
 30
0.0
 11
-463.17086789129849
 21
46.906474820143899
 31
0.0
  0
LINE
  5
1FF
  8
1
  6
DASHED
 62
     3
 10
-967.86146681454011
 20
50.906474820143892
 30
0.0
 11
-939.86146681453999
 21
50.906474820143892
 31
0.0
  0
LINE
  5
200
  8
1
  6
DASHED
 62
     3
 10
-939.86146681453999
 20
50.906474820143892
 30
0.0
 11
-939.86146681453999
 21
42.906474820143899
 31
0.0
  0
LINE
  5
201
  8
1
  6
DASHED
 62
     3
 10
-939.86146681453999
 20
42.906474820143899
 30
0.0
 11
-967.86146681454011
 21
42.906474820143899
 31
0.0
  0
LINE
  5
202
  8
1
  6
DASHED
 62
     3
 10
-939.86146681453999
 20
50.906474820143892
 30
0.0
 11
-936.97471546859208
 21
46.906474820143899
 31
0.0
  0
LINE
  5
203
  8
1
  6
DASHED
 62
     3
 10
-936.97471546859208
 20
46.906474820143899
 30
0.0
 11
-939.86146681453999
 21
42.906474820143899
 31
0.0
  0
LINE
  5
204
  8
1
  6
DASHED
 62
     3
 10
-967.86146681454011
 20
51.906474820143899
 30
0.0
 11
-947.86146681453999
 21
51.906474820143899
 31
0.0
  0
LINE
  5
205
  8
1
  6
DASHED
 62
     3
 10
-947.86146681453999
 20
51.906474820143899
 30
0.0
 11
-947.86146681453999
 21
41.906474820143899
 31
0.0
  0
LINE
  5
206
  8
1
  6
DASHED
 62
     3
 10
-947.86146681453999
 20
41.906474820143899
 30
0.0
 11
-967.86146681454011
 21
41.906474820143899
 31
0.0
  0
LINE
  5
207
  8
1
  6
DASHED
 62
     3
 10
-947.86146681453999
 20
51.906474820143899
 30
0.0
 11
-946.12941600697116
 21
50.906474820143892
 31
0.0
  0
LINE
  5
208
  8
1
  6
DASHED
 62
     3
 10
-947.86146681453999
 20
41.906474820143899
 30
0.0
 11
-946.12941600697116
 21
42.906474820143899
 31
0.0
  0
LINE
  5
209
  8
1
  6
DASHDOT
 62
     3
 10
-970.86146681454011
 20
46.906474820143899
 30
0.0
 11
-932.55206573778173
 21
46.906474820143899
 31
0.0
  0
ARC
  5
20A
  8
1
 62
     7
 10
-242.80689776201359
 20
18.699928110578139
 30
0.0
 40
2.5
 50
270.0
 51
25.507821205343749
  0
ARC
  5
20B
  8
1
 62
     7
 10
-242.80689776201359
 20
75.113021529709641
 30
0.0
 40
2.5000000000000151
 50
334.49217879465658
 51
74.999999999993392
  0
ARC
  5
20C
  8
1
 62
     7
 10
-695.81146681453993
 20
16.749928110578221
 30
0.0
 40
1.7425000000000641
 50
180.0
 51
270.0
  0
ARC
  5
20D
  8
1
 62
     7
 10
-699.91146681453995
 20
16.749928110578221
 30
0.0
 40
1.7425000000000701
 50
270.0
 51
0.0
  0
ARC
  5
20E
  8
1
 62
     7
 10
-699.91146681453995
 20
12.649928110578189
 30
0.0
 40
1.7424999999999491
 50
0.0
 51
90.0
  0
ARC
  5
20F
  8
1
 62
     7
 10
-695.81146681453993
 20
12.649928110578189
 30
0.0
 40
1.7424999999999491
 50
90.0
 51
180.0
  0
ARC
  5
210
  8
1
 62
     7
 10
-706.56146681453993
 20
17.399928110578191
 30
0.0
 40
2.700000000000061
 50
270.0
 51
0.0
  0
ARC
  5
211
  8
1
 62
     7
 10
-697.86146681454011
 20
17.399928110578191
 30
0.0
 40
6.0
 50
0.0
 51
180.0
  0
ARC
  5
212
  8
1
 62
     7
 10
-689.16146681454018
 20
17.399928110578191
 30
0.0
 40
2.6999999999998181
 50
180.0
 51
270.0
  0
ARC
  5
213
  8
1
 62
     7
 10
-823.97038969383436
 20
159.4172250451596
 30
0.0
 40
3.891077120705674
 50
135.28887516807509
 51
224.71112483192411
  0
ARC
  5
214
  8
1
 62
     7
 10
-813.98590786909745
 20
151.20472504515959
 30
0.0
 40
13.875558945442551
 50
156.76029879429581
 51
203.23970120570411
  0
ARC
  5
215
  8
1
 62
     7
 10
-823.97038969383436
 20
142.99222504515961
 30
0.0
 40
3.8910771207055328
 50
135.28887516807481
 51
224.71112483192411
  0
ARC
  5
216
  8
1
 62
     7
 10
-823.97038969383436
 20
-49.17927540487193
 30
0.0
 40
3.891077120705654
 50
135.28887516807541
 51
224.71112483192331
  0
ARC
  5
217
  8
1
 62
     7
 10
-813.98590786909745
 20
-57.3917754048719
 30
0.0
 40
13.87555894544256
 50
156.76029879429561
 51
203.23970120570419
  0
ARC
  5
218
  8
1
 62
     7
 10
-823.97038969383436
 20
-65.604275404871885
 30
0.0
 40
3.8910771207054942
 50
135.28887516807541
 51
224.71112483192451
  0
ARC
  5
219
  8
1
 62
     7
 10
-823.97038969383527
 20
414.35268528308308
 30
0.0
 40
3.891077120705615
 50
135.288875168076
 51
224.7111248319234
  0
ARC
  5
21A
  8
1
 62
     7
 10
-813.98590786909836
 20
406.14018528308299
 30
0.0
 40
13.87555894544256
 50
156.76029879429561
 51
203.23970120570419
  0
ARC
  5
21B
  8
1
 62
     7
 10
-823.9703896938355
 20
397.92768528308312
 30
0.0
 40
3.8910771207054942
 50
135.28887516807541
 51
224.71112483192411
  0
ARC
  5
21C
  8
1
 62
     7
 10
-72.663255703267197
 20
46.906474820143899
 30
0.0
 40
153.0
 50
190.0
 51
202.12725546618091
  0
ARC
  5
21D
  8
1
 62
     7
 10
-72.663255703267197
 20
46.906474820143899
 30
0.0
 40
158.0
 50
190.0
 51
202.186539655296
  0
ARC
  5
21E
  8
1
 62
     7
 10
-72.663255703267197
 20
46.906474820143899
 30
0.0
 40
153.0
 50
205.87274453381909
 51
217.0
  0
ARC
  5
21F
  8
1
 62
     7
 10
-72.663255703267197
 20
46.906474820143899
 30
0.0
 40
158.0
 50
205.81346034470391
 51
217.0
  0
ARC
  5
220
  8
1
 62
     7
 10
-72.663255703267197
 20
46.906474820143899
 30
0.0
 40
153.0
 50
337.87274453381912
 51
350.00000000000011
  0
ARC
  5
221
  8
1
 62
     7
 10
-72.663255703267197
 20
46.906474820143899
 30
0.0
 40
158.0
 50
337.8134603447038
 51
349.99999999999977
  0
ARC
  5
222
  8
1
 62
     7
 10
-72.663255703267197
 20
46.906474820143899
 30
0.0
 40
153.0
 50
323.0
 51
334.12725546618088
  0
ARC
  5
223
  8
1
 62
     7
 10
-72.663255703267197
 20
46.906474820143899
 30
0.0
 40
158.0
 50
323.0
 51
334.18653965529592
  0
ARC
  5
224
  8
1
 62
     7
 10
-12.581280934178301
 20
94.260527527874928
 30
0.0
 40
3.9999999999999898
 50
134.99999999999989
 51
218.2436729694121
  0
ARC
  5
225
  8
1
 62
     7
 10
-25.30920299553614
 20
106.9884495892327
 30
0.0
 40
4.0
 50
231.7563270305877
 51
314.99999999999977
  0
ARC
  5
226
  8
1
 62
     7
 10
28.319669548777739
 20
136.5756915732041
 30
0.0
 40
2.9999999999999911
 50
77.230952635501694
 51
135.00000000000031
  0
ARC
  5
227
  8
1
 62
     7
 10
17.005961049793029
 20
147.88940007218869
 30
0.0
 40
2.9999999999999631
 50
315.00000000000028
 51
12.76904736449843
  0
ARC
  5
228
  8
1
 62
     7
 10
-162.33247245632739
 20
147.88940007218869
 30
0.0
 40
2.9999999999999911
 50
167.23095263550161
 51
225.0
  0
ARC
  5
229
  8
1
 62
     7
 10
-173.64618095531199
 20
136.5756915732041
 30
0.0
 40
3.0000000000000231
 50
45.000000000001521
 51
102.7690473644988
  0
ARC
  5
22A
  8
1
 62
     7
 10
-173.64618095531199
 20
-42.762741932916278
 30
0.0
 40
2.9999999999999978
 50
257.23095263550113
 51
314.99999999999972
  0
ARC
  5
22B
  8
1
 62
     7
 10
-162.33247245632739
 20
-54.076450431901023
 30
0.0
 40
3.0000000000000551
 50
135.00000000000099
 51
192.76904736449811
  0
ARC
  5
22C
  8
1
 62
     7
 10
17.005961049792969
 20
-54.076450431901037
 30
0.0
 40
2.9999999999999951
 50
347.23095263550158
 51
45.0
  0
ARC
  5
22D
  8
1
 62
     7
 10
28.319669548777711
 20
-42.762741932916349
 30
0.0
 40
2.999999999999984
 50
225.0
 51
282.76904736449831
  0
ARC
  5
22E
  8
1
 62
     7
 10
-120.0173084109982
 20
106.9884495892327
 30
0.0
 40
4.0000000000000107
 50
225.0
 51
308.24367296941182
  0
ARC
  5
22F
  8
1
 62
     7
 10
-132.74523047235601
 20
94.260527527874942
 30
0.0
 40
3.9999999999999858
 50
321.75632703058761
 51
45.0
  0
ARC
  5
230
  8
1
 62
     7
 10
-132.74523047235601
 20
-0.4475778875871158
 30
0.0
 40
3.9999999999999929
 50
315.0
 51
38.24367296941243
  0
ARC
  5
231
  8
1
 62
     7
 10
-120.0173084109982
 20
-13.17549994894496
 30
0.0
 40
3.9999999999999809
 50
51.756327030588338
 51
135.0000000000002
  0
ARC
  5
232
  8
1
 62
     7
 10
-25.309202995536172
 20
-13.17549994894499
 30
0.0
 40
3.999999999999984
 50
45.000000000000028
 51
128.24367296941219
  0
ARC
  5
233
  8
1
 62
     7
 10
-12.58128093417834
 20
-0.4475778875871497
 30
0.0
 40
4.000000000000008
 50
141.75632703058781
 51
225.00000000000011
  0
ARC
  5
234
  8
1
 62
     7
 10
-72.663255703267197
 20
46.906474820143899
 30
0.0
 40
170.0
 50
318.59037789072909
 51
221.40962210927091
  0
ARC
  5
235
  8
1
 62
     7
 10
-183.66325570326711
 20
-70.811408408553376
 30
0.0
 40
3.0
 50
0.0
 51
63.462508475302961
  0
ARC
  5
236
  8
1
 62
     7
 10
-159.6632557032672
 20
-70.811408408553376
 30
0.0
 40
2.999999999999988
 50
116.5374915246972
 51
180.0
  0
ARC
  5
237
  8
1
 62
     7
 10
14.336744296732769
 20
-70.811408408553376
 30
0.0
 40
3.0000000000000009
 50
0.0
 51
63.462508475301682
  0
ARC
  5
238
  8
1
 62
     7
 10
38.336744296732768
 20
-70.811408408553376
 30
0.0
 40
2.9999999999999951
 50
116.5374915246974
 51
180.0
  0
ARC
  5
239
  8
1
 62
     7
 10
-72.663255703267197
 20
46.906474820143899
 30
0.0
 40
145.99999999999989
 50
94.320899821842801
 51
119.9999999999999
  0
ARC
  5
23A
  8
1
 62
     7
 10
-72.663255703267197
 20
46.906474820143899
 30
0.0
 40
156.0
 50
94.043442454324918
 51
119.9999999999999
  0
ARC
  5
23B
  8
1
 62
     7
 10
-72.663255703267197
 20
46.906474820143899
 30
0.0
 40
158.0
 50
60.0
 51
119.9999999999999
  0
ARC
  5
23C
  8
1
 62
     7
 10
-72.663255703267197
 20
46.906474820143899
 30
0.0
 40
146.0
 50
60.0
 51
85.679100178157185
  0
ARC
  5
23D
  8
1
 62
     7
 10
-72.663255703267197
 20
46.906474820143899
 30
0.0
 40
156.0
 50
60.0
 51
85.956557545675068
  0
ARC
  5
23E
  8
1
 62
     7
 10
-72.663255703267197
 20
46.906474820143899
 30
0.0
 40
153.0
 50
251.0
 51
265.0
  0
ARC
  5
23F
  8
1
 62
     7
 10
-72.663255703267197
 20
46.906474820143899
 30
0.0
 40
158.0
 50
251.0
 51
265.0
  0
ARC
  5
240
  8
1
 62
     7
 10
-72.663255703267197
 20
46.906474820143899
 30
0.0
 40
153.0
 50
275.0
 51
289.0
  0
ARC
  5
241
  8
1
 62
     7
 10
-72.663255703267197
 20
46.906474820143899
 30
0.0
 40
158.0
 50
275.0
 51
289.0
  0
ARC
  5
242
  8
1
 62
     7
 10
-72.663255703267197
 20
46.906474820143899
 30
0.0
 40
25.0
 50
107.45760312372209
 51
72.54239687627792
  0
ARC
  5
243
  8
1
 62
     7
 10
-72.663255703267197
 20
46.906474820143899
 30
0.0
 40
27.5
 50
105.8266201318722
 51
74.173379868127682
  0
ARC
  5
244
  8
1
 62
     7
 10
-72.663255703267197
 20
48.281474820143899
 30
0.0
 40
29.625
 50
295.27518690666551
 51
244.72481309333449
  0
ARC
  5
245
  8
1
 62
     7
 10
-574.75254393524563
 20
159.4172250451596
 30
0.0
 40
3.891077120705615
 50
315.288875168076
 51
44.711124831924927
  0
ARC
  5
246
  8
1
 62
     7
 10
-584.73702575998254
 20
151.20472504515959
 30
0.0
 40
13.875558945442551
 50
336.76029879429581
 51
23.23970120570419
  0
ARC
  5
247
  8
1
 62
     7
 10
-574.75254393524551
 20
142.99222504515961
 30
0.0
 40
3.8910771207055328
 50
315.28887516807481
 51
44.711124831925218
  0
ARC
  5
248
  8
1
 62
     7
 10
-574.75254393524563
 20
-65.604275404871942
 30
0.0
 40
3.891077120705615
 50
315.288875168076
 51
44.711124831924032
  0
ARC
  5
249
  8
1
 62
     7
 10
-584.73702575998254
 20
-57.391775404871943
 30
0.0
 40
13.875558945442529
 50
336.76029879429581
 51
23.239701205704211
  0
ARC
  5
24A
  8
1
 62
     7
 10
-574.75254393524551
 20
-49.17927540487193
 30
0.0
 40
3.8910771207055328
 50
315.28887516807481
 51
44.711124831924927
  0
ARC
  5
24B
  8
1
 62
     7
 10
-584.81348583487772
 20
20.33830363710355
 30
0.0
 40
2.952019020337822
 50
270.0
 51
0.0
  0
ARC
  5
24C
  8
1
 62
     7
 10
-584.81348583487772
 20
-9.8059818851224012
 30
0.0
 40
2.9520190203378109
 50
270.0
 51
0.0
  0
ARC
  5
24D
  8
1
 62
     7
 10
-584.81348583487772
 20
-14.68909461748402
 30
0.0
 40
2.952019020337818
 50
270.0
 51
0.0
  0
ARC
  5
24E
  8
1
 62
     7
 10
-584.81348583487772
 20
-23.480108401506779
 30
0.0
 40
2.952019020337822
 50
270.0
 51
0.0
  0
ARC
  5
24F
  8
1
 62
     7
 10
-584.81348583487772
 20
-45.228279817541903
 30
0.0
 40
2.952019020337822
 50
270.0
 51
0.0
  0
ARC
  5
250
  8
1
 62
     7
 10
-584.81348583487772
 20
-52.450060095366482
 30
0.0
 40
2.952019020337814
 50
270.0
 51
0.0
  0
ARC
  5
251
  8
1
 62
     7
 10
-810.90944779420215
 20
20.33830363710355
 30
0.0
 40
2.9520190203377301
 50
180.0
 51
270.0
  0
ARC
  5
252
  8
1
 62
     7
 10
-810.90944779420215
 20
-9.8059818851224012
 30
0.0
 40
2.9520190203377301
 50
180.0
 51
270.0
  0
ARC
  5
253
  8
1
 62
     7
 10
-810.90944779420215
 20
-14.68909461748402
 30
0.0
 40
2.9520190203377301
 50
180.0
 51
270.0
  0
ARC
  5
254
  8
1
 62
     7
 10
-810.90944779420215
 20
-23.480108401506779
 30
0.0
 40
2.9520190203377301
 50
180.0
 51
270.0
  0
ARC
  5
255
  8
1
 62
     7
 10
-810.90944779420215
 20
-45.228279817541903
 30
0.0
 40
2.9520190203377301
 50
180.0
 51
270.0
  0
ARC
  5
256
  8
1
 62
     7
 10
-810.90944779420215
 20
-52.450060095366482
 30
0.0
 40
2.9520190203377301
 50
180.0
 51
270.0
  0
ARC
  5
257
  8
1
 62
     7
 10
-500.36146681453988
 20
510.43843550809891
 30
0.0
 40
7.5
 50
90.0
 51
270.0
  0
ARC
  5
258
  8
1
 62
     7
 10
-574.75254393524563
 20
622.94918573311475
 30
0.0
 40
3.891077120705575
 50
315.28887516807657
 51
44.711124831924622
  0
ARC
  5
259
  8
1
 62
     7
 10
-584.73702575998254
 20
614.73668573311477
 30
0.0
 40
13.87555894544256
 50
336.76029879429581
 51
23.2397012057043
  0
ARC
  5
25A
  8
1
 62
     7
 10
-574.75254393524551
 20
606.52418573311468
 30
0.0
 40
3.8910771207054942
 50
315.28887516807532
 51
44.711124831924622
  0
ARC
  5
25B
  8
1
 62
     7
 10
-574.75254393524563
 20
397.92768528308312
 30
0.0
 40
3.891077120705615
 50
315.288875168076
 51
44.711124831923428
  0
ARC
  5
25C
  8
1
 62
     7
 10
-584.73702575998254
 20
406.1401852830831
 30
0.0
 40
13.8755589454426
 50
336.76029879429518
 51
23.23970120570387
  0
ARC
  5
25D
  8
1
 62
     7
 10
-574.75254393524551
 20
414.35268528308308
 30
0.0
 40
3.8910771207054942
 50
315.28887516807532
 51
44.711124831925218
  0
ARC
  5
25E
  8
1
 62
     7
 10
-895.36146681454102
 20
510.43843550809891
 30
0.0
 40
7.5000000000002274
 50
270.0
 51
90.0
  0
ARC
  5
25F
  8
1
 62
     7
 10
-823.97038969383527
 20
622.94918573311475
 30
0.0
 40
3.891077120705654
 50
135.28887516807541
 51
224.7111248319234
  0
ARC
  5
260
  8
1
 62
     7
 10
-813.98590786909836
 20
614.73668573311477
 30
0.0
 40
13.87555894544256
 50
156.76029879429561
 51
203.23970120570419
  0
ARC
  5
261
  8
1
 62
     7
 10
-823.9703896938355
 20
606.52418573311468
 30
0.0
 40
3.8910771207054942
 50
135.28887516807541
 51
224.71112483192451
  0
ARC
  5
262
  8
1
 62
     7
 10
-252.8355344587649
 20
77.199928110578156
 30
0.0
 40
1.0
 50
270.0
 51
340.55180070494788
  0
ARC
  5
263
  8
1
 62
     7
 10
-274.60937150283729
 20
75.199928110578156
 30
0.0
 40
1.0
 50
90.0
 51
180.0
  0
ARC
  5
264
  8
1
 62
     7
 10
-249.8317616702611
 20
79.699928110578142
 30
0.0
 40
1.0
 50
90.0
 51
160.55180070494151
  0
ARC
  5
265
  8
1
 62
     7
 10
-246.0229825391317
 20
79.699928110578142
 30
0.0
 40
1.0000000000000171
 50
340.55180070494907
 51
90.0
  0
ARC
  5
266
  8
1
 62
     7
 10
-270.38698133541351
 20
10.69992811057814
 30
0.0
 40
0.9999999999999982
 50
270.0
 51
340.55180070494771
  0
ARC
  5
267
  8
1
 62
     7
 10
-274.19576046654322
 20
10.69992811057814
 30
0.0
 40
1.0000000000000371
 50
160.55180070494109
 51
270.0
  0
ARC
  5
268
  8
1
 62
     7
 10
-274.69203096546312
 20
14.099928110578251
 30
0.0
 40
0.6000000000000179
 50
340.55180070494578
 51
90.0
  0
ARC
  5
269
  8
1
 62
     7
 10
-275.00937150283733
 20
15.29992811057828
 30
0.0
 40
0.5999999999999091
 50
180.0
 51
270.0
  0
ARC
  5
26A
  8
1
 62
     7
 10
-267.30689776201359
 20
10.69992811057814
 30
0.0
 40
0.9999999999999982
 50
270.0
 51
0.0
  0
ARC
  5
26B
  8
1
 62
     7
 10
-265.30689776201359
 20
15.199928110578149
 30
0.0
 40
1.0
 50
90.0
 51
180.0
  0
ARC
  5
26C
  8
1
 62
     7
 10
-736.86146681454011
 20
14.69992811057814
 30
0.0
 40
5.0
 50
180.0
 51
270.0
  0
ARC
  5
26D
  8
1
 62
     7
 10
-733.36146681454011
 20
19.699928110578139
 30
0.0
 40
5.0
 50
180.0
 51
270.0
  0
ARC
  5
26E
  8
1
 62
     7
 10
-658.86146681453999
 20
14.69992811057814
 30
0.0
 40
4.9999999999999982
 50
270.0
 51
0.0
  0
ARC
  5
26F
  8
1
 62
     7
 10
-662.36146681453999
 20
19.699928110578139
 30
0.0
 40
4.9999999999999982
 50
270.0
 51
0.0
  0
ARC
  5
270
  8
1
 62
     7
 10
-662.36146681453999
 20
71.199928110578142
 30
0.0
 40
5.0
 50
0.0
 51
90.0
  0
ARC
  5
271
  8
1
 62
     7
 10
-658.86146681453999
 20
75.699928110578142
 30
0.0
 40
5.0
 50
0.0
 51
90.0
  0
ARC
  5
272
  8
1
 62
     7
 10
-733.36146681454011
 20
71.199928110578142
 30
0.0
 40
5.0
 50
90.0
 51
180.0
  0
ARC
  5
273
  8
1
 62
     7
 10
-736.86146681454011
 20
75.699928110578142
 30
0.0
 40
5.0
 50
90.0
 51
180.0
  0
ARC
  5
274
  8
1
 62
     7
 10
-655.86146681454045
 20
308.21776738751402
 30
0.0
 40
2.0
 50
270.0
 51
0.0
  0
ARC
  5
275
  8
1
 62
     7
 10
-739.86146681454045
 20
308.21776738751402
 30
0.0
 40
2.0
 50
180.0
 51
270.0
  0
ARC
  5
276
  8
1
 62
     7
 10
-655.86146681454045
 20
333.75525230678051
 30
0.0
 40
2.0
 50
270.0
 51
0.0
  0
ARC
  5
277
  8
1
 62
     7
 10
-739.86146681454045
 20
333.75525230678028
 30
0.0
 40
2.0
 50
180.0
 51
270.0
  0
ARC
  5
278
  8
1
 62
     7
 10
-659.36146681454045
 20
308.21776738751402
 30
0.0
 40
2.0
 50
270.0
 51
0.0
  0
ARC
  5
279
  8
1
 62
     7
 10
-736.36146681454045
 20
308.21776738751379
 30
0.0
 40
2.0
 50
180.0
 51
270.0
  0
ARC
  5
27A
  8
1
 62
     7
 10
-734.86146681454056
 20
340.79479344935231
 30
0.0
 40
2.0
 50
90.0
 51
180.0
  0
ARC
  5
27B
  8
1
 62
     7
 10
-660.86146681454045
 20
340.79479344935243
 30
0.0
 40
2.0
 50
0.0
 51
90.0
  0
ARC
  5
27C
  8
1
 62
     7
 10
-868.86146681454011
 20
-112.093525179856
 30
0.0
 40
4.0
 50
90.0
 51
180.0
  0
ARC
  5
27D
  8
1
 62
     7
 10
-526.86146681454011
 20
-112.093525179856
 30
0.0
 40
4.0000000000001128
 50
0.0
 51
90.0
  0
ARC
  5
27E
  8
1
 62
     7
 10
-207.66325570326711
 20
-72.152334177762683
 30
0.0
 40
10.0
 50
0.0
 51
41.40962210927016
  0
ARC
  5
27F
  8
1
 62
     7
 10
-238.66325570326711
 20
-112.093525179856
 30
0.0
 40
4.0
 50
90.0
 51
180.0
  0
ARC
  5
280
  8
1
 62
     7
 10
-166.6632557032672
 20
-112.093525179856
 30
0.0
 40
4.0
 50
0.0
 51
90.0
  0
ARC
  5
281
  8
1
 62
     7
 10
-201.66325570326711
 20
-104.093525179856
 30
0.0
 40
4.0
 50
270.0
 51
0.0
  0
ARC
  5
282
  8
1
 62
     7
 10
-184.66325570326711
 20
-104.093525179856
 30
0.0
 40
4.0
 50
270.0
 51
0.0
  0
ARC
  5
283
  8
1
 62
     7
 10
93.336744296732775
 20
-112.093525179856
 30
0.0
 40
4.0
 50
0.0
 51
90.0
  0
ARC
  5
284
  8
1
 62
     7
 10
21.3367442967328
 20
-112.093525179856
 30
0.0
 40
4.0
 50
90.0
 51
180.0
  0
ARC
  5
285
  8
1
 62
     7
 10
56.336744296732768
 20
-104.093525179856
 30
0.0
 40
4.0
 50
180.0
 51
270.0
  0
ARC
  5
286
  8
1
 62
     7
 10
39.336744296732768
 20
-104.093525179856
 30
0.0
 40
4.0
 50
180.0
 51
270.0
  0
ARC
  5
287
  8
1
 62
     7
 10
62.336744296732768
 20
-72.152334177762683
 30
0.0
 40
9.9999999999999751
 50
138.59037789073051
 51
180.0
  0
ARC
  5
288
  8
1
 62
     7
 10
-152.66325570326711
 20
-133.0935251798561
 30
0.0
 40
10.0
 50
90.0
 51
180.0
  0
ARC
  5
289
  8
1
 62
     7
 10
7.3367442967327738
 20
-133.0935251798561
 30
0.0
 40
9.9999999999999964
 50
0.0
 51
90.0
  0
ARC
  5
28A
  8
1
 62
     7
 10
-64.663255703267197
 20
16.962087649528939
 30
0.0
 40
2.5
 50
270.0
 51
0.0
  0
ARC
  5
28B
  8
1
 62
     7
 10
-80.663255703267197
 20
16.962087649528939
 30
0.0
 40
2.5
 50
180.0
 51
270.0
  0
ARC
  5
28C
  8
1
 62
     7
 10
-58.413255703267197
 20
18.101545645276691
 30
0.0
 40
3.7500000000000009
 50
115.2751869066654
 51
180.0
  0
ARC
  5
28D
  8
1
 62
     7
 10
-86.913255703267211
 20
18.101545645276691
 30
0.0
 40
3.75
 50
0.0
 51
64.724813093334873
  0
ARC
  5
28E
  8
1
 62
     7
 10
-664.86146681453988
 20
-104.093525179856
 30
0.0
 40
4.0
 50
180.0
 51
270.0
  0
ARC
  5
28F
  8
1
 62
     7
 10
-730.86146681454011
 20
-104.093525179856
 30
0.0
 40
4.0
 50
270.0
 51
0.0
  0
ARC
  5
290
  8
1
 62
     7
 10
-535.86146681453988
 20
667.43843550809913
 30
0.0
 40
13.0
 50
0.0
 51
90.0
  0
ARC
  5
291
  8
1
 62
     7
 10
-535.86146681453988
 20
613.43843550809902
 30
0.0
 40
13.0
 50
270.0
 51
0.0
  0
ARC
  5
292
  8
1
 62
     7
 10
-535.86146681453988
 20
353.43843550809868
 30
0.0
 40
13.0
 50
270.0
 51
0.0
  0
ARC
  5
293
  8
1
 62
     7
 10
-535.86146681453988
 20
407.43843550809879
 30
0.0
 40
13.0
 50
0.0
 51
90.0
  0
ARC
  5
294
  8
1
 62
     7
 10
-859.86146681454079
 20
667.43843550809913
 30
0.0
 40
13.0
 50
90.0
 51
180.0
  0
ARC
  5
295
  8
1
 62
     7
 10
-859.86146681454079
 20
613.43843550809902
 30
0.0
 40
13.0
 50
180.0
 51
270.0
  0
ARC
  5
296
  8
1
 62
     7
 10
-859.86146681454079
 20
353.43843550809868
 30
0.0
 40
13.0
 50
180.0
 51
270.0
  0
ARC
  5
297
  8
1
 62
     7
 10
-859.86146681454079
 20
407.43843550809879
 30
0.0
 40
13.0
 50
90.0
 51
180.0
  0
ARC
  5
298
  8
1
 62
     7
 10
-586.86146681453999
 20
675.43843550809913
 30
0.0
 40
5.0
 50
0.0
 51
90.0
  0
ARC
  5
299
  8
1
 62
     7
 10
-586.86146681453999
 20
345.43843550809891
 30
0.0
 40
5.0
 50
270.0
 51
0.0
  0
ARC
  5
29A
  8
1
 62
     7
 10
-808.86146681454079
 20
675.43843550809913
 30
0.0
 40
5.0
 50
90.0
 51
180.0
  0
ARC
  5
29B
  8
1
 62
     7
 10
-808.86146681454079
 20
345.43843550809891
 30
0.0
 40
5.0
 50
180.0
 51
270.0
  0
ARC
  5
29C
  8
1
 62
     7
 10
-576.86146681453988
 20
211.90647482014381
 30
0.0
 40
5.0
 50
0.0
 51
90.0
  0
ARC
  5
29D
  8
1
 62
     7
 10
-818.86146681454011
 20
211.90647482014381
 30
0.0
 40
5.0
 50
90.0
 51
180.0
  0
ARC
  5
29E
  8
1
 62
     7
 10
-818.86146681454011
 20
188.73848861808511
 30
0.0
 40
5.0
 50
180.0
 51
270.0
  0
ARC
  5
29F
  8
1
 62
     7
 10
-576.86146681453988
 20
188.73848861808511
 30
0.0
 40
5.0
 50
270.0
 51
0.0
  0
ARC
  5
2A0
  8
1
 62
     7
 10
-580.86146681453988
 20
182.73848861808511
 30
0.0
 40
1.0
 50
90.0
 51
180.0
  0
ARC
  5
2A1
  8
1
 62
     7
 10
-814.86146681454022
 20
182.73848861808511
 30
0.0
 40
1.0
 50
0.0
 51
90.0
  0
ARC
  5
2A2
  8
1
 62
     7
 10
-528.86146681453999
 20
115.4064748201439
 30
0.0
 40
4.0
 50
0.0
 51
90.0
  0
ARC
  5
2A3
  8
1
 62
     7
 10
-528.86146681453999
 20
-21.59352517985614
 30
0.0
 40
4.0
 50
270.0
 51
0.0
  0
ARC
  5
2A4
  8
1
 62
     7
 10
-866.86146681454011
 20
-21.59352517985614
 30
0.0
 40
4.0
 50
180.0
 51
270.0
  0
ARC
  5
2A5
  8
1
 62
     7
 10
-866.86146681454011
 20
115.406474820144
 30
0.0
 40
3.999999999999901
 50
90.0
 51
180.0
  0
ARC
  5
2A6
  8
1
 62
     7
 10
-528.86146681453999
 20
578.93843550809902
 30
0.0
 40
4.0
 50
0.0
 51
90.0
  0
ARC
  5
2A7
  8
1
 62
     7
 10
-528.86146681453999
 20
441.93843550809891
 30
0.0
 40
4.0
 50
270.0
 51
0.0
  0
ARC
  5
2A8
  8
1
 62
     7
 10
-575.86146681453999
 20
429.43843550809891
 30
0.0
 40
4.0
 50
270.0
 51
0.0
  0
ARC
  5
2A9
  8
1
 62
     7
 10
-575.86146681453999
 20
591.43843550809902
 30
0.0
 40
4.0
 50
0.0
 51
90.0
  0
ARC
  5
2AA
  8
1
 62
     7
 10
-577.86146681453999
 20
599.43843550809902
 30
0.0
 40
4.0
 50
180.0
 51
270.0
  0
ARC
  5
2AB
  8
1
 62
     7
 10
-577.86146681453999
 20
421.43843550809891
 30
0.0
 40
4.0
 50
90.0
 51
180.0
  0
ARC
  5
2AC
  8
1
 62
     7
 10
-866.8614668145409
 20
578.93843550809902
 30
0.0
 40
4.0
 50
90.0
 51
180.0
  0
ARC
  5
2AD
  8
1
 62
     7
 10
-866.8614668145409
 20
441.93843550809891
 30
0.0
 40
4.0
 50
180.0
 51
270.0
  0
ARC
  5
2AE
  8
1
 62
     7
 10
-819.86146681454079
 20
591.43843550809902
 30
0.0
 40
4.0
 50
90.0
 51
180.0
  0
ARC
  5
2AF
  8
1
 62
     7
 10
-817.86146681454079
 20
599.43843550809902
 30
0.0
 40
4.0
 50
270.0
 51
0.0
  0
ARC
  5
2B0
  8
1
 62
     7
 10
-819.86146681454079
 20
429.43843550809891
 30
0.0
 40
4.0
 50
180.0
 51
270.0
  0
ARC
  5
2B1
  8
1
 62
     7
 10
-817.86146681454079
 20
421.43843550809891
 30
0.0
 40
4.0
 50
0.0
 51
90.0
  0
CIRCLE
  5
2B2
  8
1
 62
     7
 10
-847.8614668145409
 20
655.43843550809902
 30
0.0
 40
18.5
  0
CIRCLE
  5
2B3
  8
1
 62
     7
 10
-847.8614668145409
 20
365.43843550809879
 30
0.0
 40
18.5
  0
CIRCLE
  5
2B4
  8
1
 62
     7
 10
-547.86146681453988
 20
365.43843550809879
 30
0.0
 40
18.5
  0
CIRCLE
  5
2B5
  8
1
 62
     7
 10
-547.86146681453988
 20
655.43843550809902
 30
0.0
 40
18.5
  0
CIRCLE
  5
2B6
  8
1
 62
     7
 10
-697.86146681454011
 20
14.69992811057814
 30
0.0
 40
3.5
  0
CIRCLE
  5
2B7
  8
1
 62
     7
 10
-72.663255703267197
 20
46.906474820143899
 30
0.0
 40
72.5
  0
CIRCLE
  5
2B8
  8
1
 62
     7
 10
-72.663255703267197
 20
46.906474820143899
 30
0.0
 40
60.0
  0
CIRCLE
  5
2B9
  8
1
 62
     7
 10
31.63499452174857
 20
151.20472504515959
 30
0.0
 40
9.5
  0
CIRCLE
  5
2BA
  8
1
 62
     7
 10
31.63499452174857
 20
151.20472504515959
 30
0.0
 40
12.0
  0
CIRCLE
  5
2BB
  8
1
 62
     7
 10
-176.96150592828289
 20
151.20472504515959
 30
0.0
 40
9.5
  0
CIRCLE
  5
2BC
  8
1
 62
     7
 10
-176.96150592828289
 20
151.20472504515959
 30
0.0
 40
12.0
  0
CIRCLE
  5
2BD
  8
1
 62
     7
 10
-176.961505928283
 20
-57.391775404871829
 30
0.0
 40
9.5
  0
CIRCLE
  5
2BE
  8
1
 62
     7
 10
-176.961505928283
 20
-57.391775404871829
 30
0.0
 40
12.0
  0
CIRCLE
  5
2BF
  8
1
 62
     7
 10
31.634994521748521
 20
-57.391775404871893
 30
0.0
 40
9.4999999999999964
  0
CIRCLE
  5
2C0
  8
1
 62
     7
 10
31.634994521748521
 20
-57.391775404871893
 30
0.0
 40
12.0
  0
CIRCLE
  5
2C1
  8
1
 62
     7
 10
-72.663255703267197
 20
46.906474820143899
 30
0.0
 40
4.0
  0
CIRCLE
  5
2C2
  8
1
 62
     3
 10
-72.663255703267197
 20
46.906474820143899
 30
0.0
 40
5.0
  0
CIRCLE
  5
2C3
  8
1
 62
     7
 10
-64.663255703267197
 20
17.212087649528929
 30
0.0
 40
1.25
  0
CIRCLE
  5
2C4
  8
1
 62
     7
 10
-80.663255703267197
 20
17.212087649528929
 30
0.0
 40
1.25
  0
CIRCLE
  5
2C5
  8
1
 62
     7
 10
29.3367442967328
 20
46.906474820143899
 30
0.0
 40
8.0000000000000036
  0
CIRCLE
  5
2C6
  8
1
 62
     7
 10
-72.663255703267197
 20
148.90647482014381
 30
0.0
 40
8.0
  0
CIRCLE
  5
2C7
  8
1
 62
     7
 10
-174.66325570326711
 20
46.90647482014392
 30
0.0
 40
8.0
  0
CIRCLE
  5
2C8
  8
1
 62
     7
 10
-72.663255703267225
 20
-55.093525179856087
 30
0.0
 40
8.0
  0
CIRCLE
  5
2C9
  8
1
 62
     7
 10
-547.86146681453988
 20
655.43843550809902
 30
0.0
 40
8.5
  0
CIRCLE
  5
2CA
  8
1
 62
     7
 10
-547.86146681453988
 20
365.43843550809879
 30
0.0
 40
8.5
  0
CIRCLE
  5
2CB
  8
1
 62
     7
 10
-847.8614668145409
 20
655.43843550809902
 30
0.0
 40
8.5
  0
CIRCLE
  5
2CC
  8
1
 62
     7
 10
-847.8614668145409
 20
365.43843550809879
 30
0.0
 40
8.5
  0
TEXT
  5
2CD
  8
1
 62
     7
 10
-99.663255703267225
 20
521.06589079905211
 30
0.0
 40
15.0
  1
MSU 40
 41
0.9
  7
SIMPLEX
  0
TEXT
  5
2CF
  8
1
 62
     7
 10
-100.34789856041
 20
-80.402111528105706
 30
0.0
 40
10.0
  1
INPUT
 41
1.3365
  7
SIMPLEX
 72
     1
 11
-72.663255703267197
 21
-80.402111528105706
 31
0.0
  0
ENDSEC
  0
EOF
