  0
SECTION
  2
HEADER
  9
$ACADVER
  1
AC1009
  9
$INSBASE
 10
0.0
 20
0.0
 30
0.0
  9
$EXTMIN
 10
-1510.337417515593
 20
-84.389758817084925
 30
0.0
  9
$EXTMAX
 10
-280.98125810053727
 20
964.45364523401395
 30
0.0
  9
$LIMMIN
 10
-1510.337417515593
 20
-84.389758817084925
  9
$LIMMAX
 10
-281.60257844409699
 20
961.76125707858898
  9
$ORTHOMODE
 70
     0
  9
$REGENMODE
 70
     1
  9
$FILLMODE
 70
     1
  9
$QTEXTMODE
 70
     0
  9
$MIRRTEXT
 70
     1
  9
$DRAGMODE
 70
     2
  9
$LTSCALE
 40
1.0
  9
$OSMODE
 70
    37
  9
$ATTMODE
 70
     1
  9
$TEXTSIZE
 40
3.5
  9
$TRACEWID
 40
0.5
  9
$TEXTSTYLE
  7
STANDARD
  9
$CLAYER
  8
0
  9
$CELTYPE
  6
BYLAYER
  9
$CECOLOR
 62
   256
  9
$DIMSCALE
 40
1.0
  9
$DIMASZ
 40
0.18
  9
$DIMEXO
 40
0.0625
  9
$DIMDLI
 40
0.38
  9
$DIMRND
 40
0.0
  9
$DIMDLE
 40
0.0
  9
$DIMEXE
 40
0.18
  9
$DIMTP
 40
0.0
  9
$DIMTM
 40
0.0
  9
$DIMTXT
 40
0.18
  9
$DIMCEN
 40
0.09
  9
$DIMTSZ
 40
0.0
  9
$DIMTOL
 70
     0
  9
$DIMLIM
 70
     0
  9
$DIMTIH
 70
     1
  9
$DIMTOH
 70
     1
  9
$DIMSE1
 70
     0
  9
$DIMSE2
 70
     0
  9
$DIMTAD
 70
     0
  9
$DIMZIN
 70
     0
  9
$DIMBLK
  1

  9
$DIMASO
 70
     1
  9
$DIMSHO
 70
     1
  9
$DIMPOST
  1

  9
$DIMAPOST
  1

  9
$DIMALT
 70
     0
  9
$DIMALTD
 70
     2
  9
$DIMALTF
 40
25.399999999999999
  9
$DIMLFAC
 40
1.0
  9
$DIMTOFL
 70
     0
  9
$DIMTVP
 40
0.0
  9
$DIMTIX
 70
     0
  9
$DIMSOXD
 70
     0
  9
$DIMSAH
 70
     0
  9
$DIMBLK1
  1

  9
$DIMBLK2
  1

  9
$DIMSTYLE
  2
STANDARD
  9
$DIMCLRD
 70
     0
  9
$DIMCLRE
 70
     0
  9
$DIMCLRT
 70
     0
  9
$DIMTFAC
 40
1.0
  9
$DIMGAP
 40
0.09
  9
$LUNITS
 70
     2
  9
$LUPREC
 70
     4
  9
$SKETCHINC
 40
0.1
  9
$FILLETRAD
 40
2.0
  9
$AUNITS
 70
     0
  9
$AUPREC
 70
     0
  9
$MENU
  1
ACAD
  9
$ELEVATION
 40
0.0
  9
$PELEVATION
 40
0.0
  9
$THICKNESS
 40
0.0
  9
$LIMCHECK
 70
     0
  9
$BLIPMODE
 70
     0
  9
$CHAMFERA
 40
0.0
  9
$CHAMFERB
 40
0.0
  9
$SKPOLY
 70
     0
  9
$TDCREATE
 40
2452094.8719523149
  9
$TDUPDATE
 40
2452094.8735327548
  9
$TDINDWG
 40
0.00159375
  9
$TDUSRTIMER
 40
0.00159375
  9
$USRTIMER
 70
     1
  9
$ANGBASE
 50
0.0
  9
$ANGDIR
 70
     0
  9
$PDMODE
 70
     0
  9
$PDSIZE
 40
0.0
  9
$PLINEWID
 40
0.0
  9
$COORDS
 70
     1
  9
$SPLFRAME
 70
     0
  9
$SPLINETYPE
 70
     6
  9
$SPLINESEGS
 70
     8
  9
$ATTDIA
 70
     0
  9
$ATTREQ
 70
     1
  9
$HANDLING
 70
 10241
  9
$HANDSEED
  5
30E
  9
$SURFTAB1
 70
     6
  9
$SURFTAB2
 70
     6
  9
$SURFTYPE
 70
     6
  9
$SURFU
 70
     6
  9
$SURFV
 70
     6
  9
$UCSNAME
  2

  9
$UCSORG
 10
0.0
 20
0.0
 30
0.0
  9
$UCSXDIR
 10
1.0
 20
0.0
 30
0.0
  9
$UCSYDIR
 10
0.0
 20
1.0
 30
0.0
  9
$PUCSNAME
  2

  9
$PUCSORG
 10
0.0
 20
0.0
 30
0.0
  9
$PUCSXDIR
 10
1.0
 20
0.0
 30
0.0
  9
$PUCSYDIR
 10
0.0
 20
1.0
 30
0.0
  9
$USERI1
 70
     0
  9
$USERI2
 70
     0
  9
$USERI3
 70
     0
  9
$USERI4
 70
     0
  9
$USERI5
 70
     0
  9
$USERR1
 40
0.0
  9
$USERR2
 40
0.0
  9
$USERR3
 40
0.0
  9
$USERR4
 40
0.0
  9
$USERR5
 40
0.0
  9
$WORLDVIEW
 70
     1
  9
$SHADEDGE
 70
     3
  9
$SHADEDIF
 70
    70
  9
$TILEMODE
 70
     1
  9
$MAXACTVP
 70
    64
  9
$PLIMCHECK
 70
     0
  9
$PEXTMIN
 10
1.0000000000000000E+020
 20
1.0000000000000000E+020
 30
1.0000000000000000E+020
  9
$PEXTMAX
 10
-1.0000000000000000E+020
 20
-1.0000000000000000E+020
 30
-1.0000000000000000E+020
  9
$PLIMMIN
 10
0.0
 20
0.0
  9
$PLIMMAX
 10
12.0
 20
9.0
  9
$UNITMODE
 70
     0
  9
$VISRETAIN
 70
     1
  9
$PLINEGEN
 70
     0
  9
$PSLTSCALE
 70
     1
  0
ENDSEC
  0
SECTION
  2
TABLES
  0
TABLE
  2
VPORT
 70
     2
  0
VPORT
  2
*ACTIVE
 70
     0
 10
0.0
 20
0.0
 11
1.0
 21
1.0
 12
-480.37659375183489
 22
746.17409804535578
 13
0.0
 23
0.0
 14
1.0
 24
1.0
 15
0.0
 25
0.0
 16
0.0
 26
0.0
 36
1.0
 17
0.0
 27
0.0
 37
0.0
 40
8.9999997732897992
 41
2.4144144144144142
 42
50.0
 43
0.0
 44
0.0
 50
0.0
 51
0.0
 71
     0
 72
   100
 73
     1
 74
     1
 75
     0
 76
     0
 77
     0
 78
     0
  0
ENDTAB
  0
TABLE
  2
LTYPE
 70
     9
  0
LTYPE
  2
CONTINUOUS
 70
     0
  3
Solid line
 72
    65
 73
     0
 40
0.0
  0
LTYPE
  2
BORDER
 70
     0
  3
__ __ . __ __ .
 72
    65
 73
     6
 40
56.586472851976787
 49
16.167563671993371
 49
-8.0837818359966835
 49
16.167563671993371
 49
-8.0837818359966835
 49
0.0
 49
-8.0837818359966835
  0
LTYPE
  2
CENTER
 70
     0
  3
____ _ ____ _
 72
    65
 73
     4
 40
64.670254687973468
 49
40.418909179983423
 49
-8.0837818359966835
 49
8.0837818359966835
 49
-8.0837818359966835
  0
LTYPE
  2
DASHDOT
 70
     0
  3
__ . __ . __ .
 72
    65
 73
     4
 40
32.33512734398672
 49
16.167563671993371
 49
-8.0837818359966835
 49
0.0
 49
-8.0837818359966835
  0
LTYPE
  2
DASHED
 70
     0
  3
__ __ __ __ __
 72
    65
 73
     2
 40
24.251345507990042
 49
16.167563671993371
 49
-8.0837818359966835
  0
LTYPE
  2
DIVIDE
 70
     0
  3
__ . . __ . . 
 72
    65
 73
     6
 40
40.418909179983423
 49
16.167563671993371
 49
-8.0837818359966835
 49
0.0
 49
-8.0837818359966835
 49
0.0
 49
-8.0837818359966835
  0
LTYPE
  2
DOT
 70
     0
  3
..............
 72
    65
 73
     4
 40
16.167563671993371
 49
0.0
 49
-8.0837818359966835
 49
0.0
 49
-8.0837818359966835
  0
LTYPE
  2
HIDDEN
 70
     0
  3
_ _ _ _ _ _ _
 72
    65
 73
     2
 40
12.12567275399503
 49
8.0837818359966835
 49
-4.0418909179983409
  0
LTYPE
  2
PHANTOM
 70
     0
  3
_____ _ _ _____ _ _ 
 72
    65
 73
     6
 40
80.837818359966832
 49
40.418909179983423
 49
-8.0837818359966835
 49
8.0837818359966835
 49
-8.0837818359966835
 49
8.0837818359966835
 49
-8.0837818359966835
  0
ENDTAB
  0
TABLE
  2
LAYER
 70
     2
  0
LAYER
  2
0
 70
     0
 62
     7
  6
CONTINUOUS
  0
LAYER
  2
1
 70
     0
 62
     7
  6
CONTINUOUS
  0
ENDTAB
  0
TABLE
  2
STYLE
 70
     4
  0
STYLE
  2
STANDARD
 70
     0
 40
0.0
 41
1.0
 50
0.0
 71
     0
 42
3.5
  3
txt
  4

  0
STYLE
  2
SIMPLEX
 70
     0
 40
0.0
 41
1.0
 50
0.0
 71
     0
 42
3.5
  3
simplex
  4

  0
STYLE
  2
COMPLEX
 70
     0
 40
0.0
 41
1.0
 50
0.0
 71
     0
 42
3.5
  3
complex
  4

  0
STYLE
  2
ITALIC
 70
     0
 40
0.0
 41
1.0
 50
0.0
 71
     0
 42
3.5
  3
italic
  4

  0
ENDTAB
  0
TABLE
  2
VIEW
 70
     0
  0
ENDTAB
  0
TABLE
  2
UCS
 70
     0
  0
ENDTAB
  0
TABLE
  2
APPID
 70
     1
  0
APPID
  2
ACAD
 70
     0
  0
ENDTAB
  0
TABLE
  2
DIMSTYLE
 70
     1
  0
DIMSTYLE
  2
STANDARD
 70
     0
  3

  4

  5

  6

  7

 40
1.0
 41
0.18
 42
0.0625
 43
0.38
 44
0.18
 45
0.0
 46
0.0
 47
0.0
 48
0.0
140
0.18
141
0.09
142
0.0
143
25.399999999999999
144
1.0
145
0.0
146
1.0
147
0.09
 71
     0
 72
     0
 73
     1
 74
     1
 75
     0
 76
     0
 77
     0
 78
     0
170
     0
171
     2
172
     0
173
     0
174
     0
175
     0
176
     0
177
     0
178
     0
  0
ENDTAB
  0
ENDSEC
  0
SECTION
  2
BLOCKS
  0
BLOCK
  8
0
  2
$MODEL_SPACE
 70
     0
 10
0.0
 20
0.0
 30
0.0
  3
$MODEL_SPACE
  1

  0
ENDBLK
  5
20
  8
0
  0
BLOCK
 67
     1
  8
0
  2
$PAPER_SPACE
 70
     0
 10
0.0
 20
0.0
 30
0.0
  3
$PAPER_SPACE
  1

  0
ENDBLK
  5
1C
 67
     1
  8
0
  0
ENDSEC
  0
SECTION
  2
ENTITIES
  0
POLYLINE
  5
33
  8
0
 62
     7
 66
     1
 10
0.0
 20
0.0
 30
0.0
 70
     1
  0
VERTEX
  5
308
  8
0
 62
     7
 10
-519.55371828101102
 20
-39.0600028672782
 30
0.0
  0
VERTEX
  5
309
  8
0
 62
     7
 10
-519.55371828101102
 20
-19.0600028672782
 30
0.0
  0
VERTEX
  5
30A
  8
0
 62
     7
 10
-439.35371828101091
 20
-19.0600028672782
 30
0.0
  0
VERTEX
  5
30B
  8
0
 62
     7
 10
-439.35371828101091
 20
-39.0600028672782
 30
0.0
  0
VERTEX
  5
30C
  8
0
 62
     7
 10
-519.55371828101102
 20
-39.0600028672782
 30
0.0
  0
SEQEND
  5
30D
  8
0
 62
     7
  0
LINE
  5
3A
  8
1
 62
     7
 10
-1079.754512219921
 20
326.67692331826782
 30
0.0
 11
-1078.837417515593
 21
318.42307097931689
 31
0.0
  0
LINE
  5
3B
  8
1
 62
     7
 10
-1290.920322811264
 20
326.67692331826782
 30
0.0
 11
-1291.8374175155921
 21
318.42307097931689
 31
0.0
  0
LINE
  5
3C
  8
1
 62
     7
 10
-1051.3374175155921
 20
-41.576929020682996
 30
0.0
 11
-1051.3374175155921
 21
277.90571987186928
 31
0.0
  0
LINE
  5
3D
  8
1
 62
     7
 10
-1336.3374175155921
 20
890.67651666148868
 30
0.0
 11
-1339.7374175155919
 21
890.67651666148868
 31
0.0
  0
LINE
  5
3E
  8
1
 62
     3
 10
-1341.3374175155921
 20
876.27651666148881
 30
0.0
 11
-1336.3374175155921
 21
876.27651666148881
 31
0.0
  0
LINE
  5
3F
  8
1
 62
     3
 10
-1341.3374175155921
 20
889.07651666148865
 30
0.0
 11
-1336.3374175155921
 21
889.07651666148865
 31
0.0
  0
LINE
  5
40
  8
1
 62
     7
 10
-1339.7374175155919
 20
890.67651666148868
 30
0.0
 11
-1339.7374175155919
 21
874.67651666148879
 31
0.0
  0
LINE
  5
41
  8
1
 62
     7
 10
-1339.7374175155919
 20
874.67651666148879
 30
0.0
 11
-1336.3374175155921
 21
874.67651666148879
 31
0.0
  0
LINE
  5
42
  8
1
 62
     7
 10
-1341.3374175155921
 20
876.27651666148881
 30
0.0
 11
-1339.7374175155919
 21
874.67651666148879
 31
0.0
  0
LINE
  5
43
  8
1
 62
     7
 10
-1341.3374175155921
 20
889.07651666148865
 30
0.0
 11
-1341.3374175155921
 21
876.27651666148881
 31
0.0
  0
LINE
  5
44
  8
1
 62
     7
 10
-1339.7374175155919
 20
890.67651666148868
 30
0.0
 11
-1341.3374175155921
 21
889.07651666148865
 31
0.0
  0
LINE
  5
45
  8
1
 62
     7
 10
-1334.9806443829959
 20
896.5265166614887
 30
0.0
 11
-1323.3374175155921
 21
896.5265166614887
 31
0.0
  0
LINE
  5
46
  8
1
 62
     7
 10
-1334.9806443829959
 20
889.60151666148874
 30
0.0
 11
-1323.3374175155921
 21
889.60151666148874
 31
0.0
  0
LINE
  5
47
  8
1
 62
     7
 10
-1334.9806443829959
 20
875.75151666148884
 30
0.0
 11
-1323.3374175155921
 21
875.75151666148884
 31
0.0
  0
LINE
  5
48
  8
1
 62
     7
 10
-1334.9806443829959
 20
868.82651666148877
 30
0.0
 11
-1323.3374175155921
 21
868.82651666148877
 31
0.0
  0
LINE
  5
49
  8
1
 62
     7
 10
-1336.3374175155921
 20
872.28901666148863
 30
0.0
 11
-1336.3374175155921
 21
893.06401666148895
 31
0.0
  0
LINE
  5
4A
  8
1
 62
     7
 10
-1323.3374175155921
 20
896.67651666148868
 30
0.0
 11
-1319.3374175155921
 21
896.67651666148868
 31
0.0
  0
LINE
  5
4B
  8
1
 62
     7
 10
-1323.3374175155921
 20
868.67651666148879
 30
0.0
 11
-1323.3374175155921
 21
896.67651666148868
 31
0.0
  0
LINE
  5
4C
  8
1
 62
     7
 10
-1319.3374175155921
 20
868.67651666148879
 30
0.0
 11
-1323.3374175155921
 21
868.67651666148879
 31
0.0
  0
LINE
  5
4D
  8
1
 62
     7
 10
-1319.3374175155921
 20
886.67651666148879
 30
0.0
 11
-1323.3374175155921
 21
882.67651666148879
 31
0.0
  0
LINE
  5
4E
  8
1
 62
     7
 10
-1319.3374175155921
 20
882.67651666148879
 30
0.0
 11
-1323.3374175155921
 21
878.67651666148879
 31
0.0
  0
LINE
  5
4F
  8
1
 62
     7
 10
-1336.3374175155921
 20
648.84599749568918
 30
0.0
 11
-1339.7374175155919
 21
648.84599749568918
 31
0.0
  0
LINE
  5
50
  8
1
 62
     3
 10
-1341.3374175155921
 20
634.44599749568908
 30
0.0
 11
-1336.3374175155921
 21
634.44599749568908
 31
0.0
  0
LINE
  5
51
  8
1
 62
     3
 10
-1341.3374175155921
 20
647.24599749568927
 30
0.0
 11
-1336.3374175155921
 21
647.24599749568927
 31
0.0
  0
LINE
  5
52
  8
1
 62
     7
 10
-1339.7374175155919
 20
648.84599749568918
 30
0.0
 11
-1339.7374175155919
 21
632.84599749568918
 31
0.0
  0
LINE
  5
53
  8
1
 62
     7
 10
-1339.7374175155919
 20
632.84599749568918
 30
0.0
 11
-1336.3374175155921
 21
632.84599749568918
 31
0.0
  0
LINE
  5
54
  8
1
 62
     7
 10
-1341.3374175155921
 20
634.44599749568908
 30
0.0
 11
-1339.7374175155919
 21
632.84599749568918
 31
0.0
  0
LINE
  5
55
  8
1
 62
     7
 10
-1341.3374175155921
 20
647.24599749568927
 30
0.0
 11
-1341.3374175155921
 21
634.44599749568908
 31
0.0
  0
LINE
  5
56
  8
1
 62
     7
 10
-1339.7374175155919
 20
648.84599749568918
 30
0.0
 11
-1341.3374175155921
 21
647.24599749568927
 31
0.0
  0
LINE
  5
57
  8
1
 62
     7
 10
-1334.9806443829959
 20
654.6959974956892
 30
0.0
 11
-1323.3374175155921
 21
654.6959974956892
 31
0.0
  0
LINE
  5
58
  8
1
 62
     7
 10
-1334.9806443829959
 20
647.77099749568924
 30
0.0
 11
-1323.3374175155921
 21
647.77099749568924
 31
0.0
  0
LINE
  5
59
  8
1
 62
     7
 10
-1334.9806443829959
 20
633.92099749568922
 30
0.0
 11
-1323.3374175155921
 21
633.92099749568922
 31
0.0
  0
LINE
  5
5A
  8
1
 62
     7
 10
-1334.9806443829959
 20
626.99599749568927
 30
0.0
 11
-1323.3374175155921
 21
626.99599749568927
 31
0.0
  0
LINE
  5
5B
  8
1
 62
     7
 10
-1336.3374175155921
 20
630.45849749568936
 30
0.0
 11
-1336.3374175155921
 21
651.23349749568922
 31
0.0
  0
LINE
  5
5C
  8
1
 62
     7
 10
-1323.3374175155921
 20
654.84599749568929
 30
0.0
 11
-1319.3374175155921
 21
654.84599749568929
 31
0.0
  0
LINE
  5
5D
  8
1
 62
     7
 10
-1323.3374175155921
 20
626.84599749568918
 30
0.0
 11
-1323.3374175155921
 21
654.84599749568929
 31
0.0
  0
LINE
  5
5E
  8
1
 62
     7
 10
-1319.3374175155921
 20
626.84599749568918
 30
0.0
 11
-1323.3374175155921
 21
626.84599749568918
 31
0.0
  0
LINE
  5
5F
  8
1
 62
     7
 10
-1319.3374175155921
 20
644.84599749568918
 30
0.0
 11
-1323.3374175155921
 21
640.84599749568918
 31
0.0
  0
LINE
  5
60
  8
1
 62
     7
 10
-1319.3374175155921
 20
640.84599749568918
 30
0.0
 11
-1323.3374175155921
 21
636.84599749568918
 31
0.0
  0
LINE
  5
61
  8
1
 62
     7
 10
-1336.337417515593
 20
10.50781139641745
 30
0.0
 11
-1339.7374175155931
 21
10.50781139641745
 31
0.0
  0
LINE
  5
62
  8
1
 62
     3
 10
-1341.3374175155921
 20
-3.8921886035825528
 30
0.0
 11
-1336.337417515593
 21
-3.8921886035825528
 31
0.0
  0
LINE
  5
63
  8
1
 62
     3
 10
-1341.3374175155921
 20
8.9078113964174577
 30
0.0
 11
-1336.337417515593
 21
8.9078113964174577
 31
0.0
  0
LINE
  5
64
  8
1
 62
     7
 10
-1339.7374175155931
 20
10.50781139641745
 30
0.0
 11
-1339.7374175155931
 21
-5.492188603582548
 31
0.0
  0
LINE
  5
65
  8
1
 62
     7
 10
-1339.7374175155931
 20
-5.492188603582548
 30
0.0
 11
-1336.337417515593
 21
-5.492188603582548
 31
0.0
  0
LINE
  5
66
  8
1
 62
     7
 10
-1341.3374175155921
 20
-3.8921886035825528
 30
0.0
 11
-1339.7374175155931
 21
-5.492188603582548
 31
0.0
  0
LINE
  5
67
  8
1
 62
     7
 10
-1341.3374175155921
 20
8.9078113964174577
 30
0.0
 11
-1341.3374175155921
 21
-3.8921886035825528
 31
0.0
  0
LINE
  5
68
  8
1
 62
     7
 10
-1339.7374175155931
 20
10.50781139641745
 30
0.0
 11
-1341.3374175155921
 21
8.9078113964174577
 31
0.0
  0
LINE
  5
69
  8
1
 62
     7
 10
-1334.9806443829971
 20
16.357811396417439
 30
0.0
 11
-1323.337417515593
 21
16.357811396417439
 31
0.0
  0
LINE
  5
6A
  8
1
 62
     7
 10
-1334.9806443829971
 20
9.4328113964174634
 30
0.0
 11
-1323.337417515593
 21
9.4328113964174634
 31
0.0
  0
LINE
  5
6B
  8
1
 62
     7
 10
-1334.9806443829971
 20
-4.4171886035825576
 30
0.0
 11
-1323.337417515593
 21
-4.4171886035825576
 31
0.0
  0
LINE
  5
6C
  8
1
 62
     7
 10
-1334.9806443829971
 20
-11.34218860358253
 30
0.0
 11
-1323.337417515593
 21
-11.34218860358253
 31
0.0
  0
LINE
  5
6D
  8
1
 62
     7
 10
-1336.337417515593
 20
-7.8796886035825366
 30
0.0
 11
-1336.337417515593
 21
12.89531139641743
 31
0.0
  0
LINE
  5
6E
  8
1
 62
     7
 10
-1323.337417515593
 20
16.50781139641742
 30
0.0
 11
-1319.3374175155921
 21
16.50781139641742
 31
0.0
  0
LINE
  5
6F
  8
1
 62
     7
 10
-1323.337417515593
 20
-11.49218860358255
 30
0.0
 11
-1323.337417515593
 21
16.50781139641742
 31
0.0
  0
LINE
  5
70
  8
1
 62
     7
 10
-1319.3374175155921
 20
-11.49218860358255
 30
0.0
 11
-1323.337417515593
 21
-11.49218860358255
 31
0.0
  0
LINE
  5
71
  8
1
 62
     7
 10
-1319.3374175155921
 20
6.5078113964174511
 30
0.0
 11
-1323.337417515593
 21
2.5078113964174511
 31
0.0
  0
LINE
  5
72
  8
1
 62
     7
 10
-1319.3374175155921
 20
2.5078113964174511
 30
0.0
 11
-1323.337417515593
 21
-1.492188603582548
 31
0.0
  0
LINE
  5
73
  8
1
 62
     7
 10
-1336.337417515593
 20
252.33833056221661
 30
0.0
 11
-1339.7374175155931
 21
252.33833056221661
 31
0.0
  0
LINE
  5
74
  8
1
 62
     3
 10
-1341.3374175155921
 20
237.93833056221661
 30
0.0
 11
-1336.337417515593
 21
237.93833056221661
 31
0.0
  0
LINE
  5
75
  8
1
 62
     3
 10
-1341.3374175155921
 20
250.73833056221659
 30
0.0
 11
-1336.337417515593
 21
250.73833056221659
 31
0.0
  0
LINE
  5
76
  8
1
 62
     7
 10
-1339.7374175155931
 20
252.33833056221661
 30
0.0
 11
-1339.7374175155931
 21
236.33833056221661
 31
0.0
  0
LINE
  5
77
  8
1
 62
     7
 10
-1339.7374175155931
 20
236.33833056221661
 30
0.0
 11
-1336.337417515593
 21
236.33833056221661
 31
0.0
  0
LINE
  5
78
  8
1
 62
     7
 10
-1341.3374175155921
 20
237.93833056221661
 30
0.0
 11
-1339.7374175155931
 21
236.33833056221661
 31
0.0
  0
LINE
  5
79
  8
1
 62
     7
 10
-1341.3374175155921
 20
250.73833056221659
 30
0.0
 11
-1341.3374175155921
 21
237.93833056221661
 31
0.0
  0
LINE
  5
7A
  8
1
 62
     7
 10
-1339.7374175155931
 20
252.33833056221661
 30
0.0
 11
-1341.3374175155921
 21
250.73833056221659
 31
0.0
  0
LINE
  5
7B
  8
1
 62
     7
 10
-1334.9806443829971
 20
258.18833056221661
 30
0.0
 11
-1323.337417515593
 21
258.18833056221661
 31
0.0
  0
LINE
  5
7C
  8
1
 62
     7
 10
-1334.9806443829971
 20
251.26333056221651
 30
0.0
 11
-1323.337417515593
 21
251.26333056221651
 31
0.0
  0
LINE
  5
7D
  8
1
 62
     7
 10
-1334.9806443829971
 20
237.41333056221649
 30
0.0
 11
-1323.337417515593
 21
237.41333056221649
 31
0.0
  0
LINE
  5
7E
  8
1
 62
     7
 10
-1334.9806443829971
 20
230.48833056221659
 30
0.0
 11
-1323.337417515593
 21
230.48833056221659
 31
0.0
  0
LINE
  5
7F
  8
1
 62
     7
 10
-1336.337417515593
 20
233.95083056221659
 30
0.0
 11
-1336.337417515593
 21
254.7258305622166
 31
0.0
  0
LINE
  5
80
  8
1
 62
     7
 10
-1323.337417515593
 20
258.33833056221653
 30
0.0
 11
-1319.3374175155921
 21
258.33833056221653
 31
0.0
  0
LINE
  5
81
  8
1
 62
     7
 10
-1323.337417515593
 20
230.3383305622165
 30
0.0
 11
-1323.337417515593
 21
258.33833056221653
 31
0.0
  0
LINE
  5
82
  8
1
 62
     7
 10
-1319.3374175155921
 20
230.3383305622165
 30
0.0
 11
-1323.337417515593
 21
230.3383305622165
 31
0.0
  0
LINE
  5
83
  8
1
 62
     7
 10
-1319.3374175155921
 20
248.33833056221661
 30
0.0
 11
-1323.337417515593
 21
244.33833056221661
 31
0.0
  0
LINE
  5
84
  8
1
 62
     7
 10
-1319.3374175155921
 20
244.33833056221661
 30
0.0
 11
-1323.337417515593
 21
240.33833056221661
 31
0.0
  0
LINE
  5
85
  8
1
 62
     7
 10
-1041.3374175155921
 20
281.90571987186928
 30
0.0
 11
-1047.337417515593
 21
281.90571987186928
 31
0.0
  0
LINE
  5
86
  8
1
 62
     7
 10
-384.10257844409699
 20
292.29802471728237
 30
0.0
 11
-390.10257844409699
 21
281.90571987186928
 31
0.0
  0
LINE
  5
87
  8
1
 62
     7
 10
-392.61521979130862
 20
277.55369739730043
 30
0.0
 11
-395.61566083449782
 21
272.35678106538182
 31
0.0
  0
LINE
  5
88
  8
1
 62
     7
 10
-579.10257844409716
 20
292.29802471728237
 30
0.0
 11
-573.10257844409705
 21
281.90571987186928
 31
0.0
  0
LINE
  5
89
  8
1
 62
     7
 10
-570.58993709688548
 20
277.55369739730043
 30
0.0
 11
-567.58949605369605
 21
272.35678106538182
 31
0.0
  0
LINE
  5
8A
  8
1
 62
     7
 10
-496.60257844409699
 20
300.51061994874613
 30
0.0
 11
-496.60257844409699
 21
294.47861751318419
 31
0.0
  0
LINE
  5
8B
  8
1
 62
     7
 10
-466.60257844409699
 20
294.47861751318419
 30
0.0
 11
-466.60257844409699
 21
300.51061994874613
 31
0.0
  0
LINE
  5
8C
  8
1
 62
     7
 10
-653.94393522123346
 20
93.0346398876042
 30
0.0
 11
-673.64009028147768
 21
89.561676334265584
 31
0.0
  0
LINE
  5
8D
  8
1
 62
     7
 10
-643.8194610840128
 20
57.767279257734501
 30
0.0
 11
-662.10001530127431
 21
49.628252136871723
 31
0.0
  0
LINE
  5
8E
  8
1
 62
     7
 10
-638.93862136710311
 20
46.804733766023311
 30
0.0
 11
-657.21917558436473
 21
38.66570664516054
 31
0.0
  0
LINE
  5
8F
  8
1
 62
     7
 10
-621.36379270237319
 20
18.105441927708579
 30
0.0
 11
-637.33650290331911
 21
6.0691414646675934
 31
0.0
  0
LINE
  5
90
  8
1
 62
     7
 10
-496.85483342493723
 20
-50.911001186738467
 30
0.0
 11
-498.66286783165219
 21
-71.576929020683011
 31
0.0
  0
LINE
  5
91
  8
1
 62
     7
 10
-539.54547869730777
 20
-44.855330220143109
 30
0.0
 11
-548.74646303558166
 21
-71.576929020682996
 31
0.0
  0
LINE
  5
92
  8
1
 62
     7
 10
-581.60257844409705
 20
-76.576929020682996
 30
0.0
 11
-681.60257844409705
 21
-76.576929020682996
 31
0.0
  0
LINE
  5
93
  8
1
 62
     7
 10
-681.60257844409705
 20
-76.576929020682996
 30
0.0
 11
-681.60257844409705
 21
-49.576929020682996
 31
0.0
  0
LINE
  5
94
  8
1
 62
     7
 10
-592.719879055864
 20
234.5403715910837
 30
0.0
 11
-589.13357716719179
 21
247.92463245088859
 31
0.0
  0
LINE
  5
95
  8
1
 62
     7
 10
-589.13357716719179
 20
247.92463245088859
 30
0.0
 11
-598.93153613832419
 21
257.72259142202142
 31
0.0
  0
LINE
  5
96
  8
1
 62
     7
 10
-598.93153613832419
 20
257.72259142202142
 30
0.0
 11
-612.31579699812914
 21
254.13628953334941
 31
0.0
  0
LINE
  5
97
  8
1
 62
     7
 10
-612.31579699812914
 20
254.13628953334941
 30
0.0
 11
-615.90209888680147
 21
240.75202867354449
 31
0.0
  0
LINE
  5
98
  8
1
 62
     7
 10
-615.90209888680147
 20
240.75202867354449
 30
0.0
 11
-606.10413991566907
 21
230.9540697024116
 31
0.0
  0
LINE
  5
99
  8
1
 62
     7
 10
-606.10413991566907
 20
230.9540697024116
 30
0.0
 11
-592.719879055864
 21
234.5403715910837
 31
0.0
  0
LINE
  5
9A
  8
1
 62
     7
 10
-593.6228703780456
 20
226.95808153902689
 30
0.0
 11
-551.9360656986496
 21
185.2712768596308
 31
0.0
  0
LINE
  5
9B
  8
1
 62
     7
 10
-543.45078432441096
 20
193.7565582338695
 30
0.0
 11
-585.13758900380708
 21
235.44336291326559
 31
0.0
  0
LINE
  5
9C
  8
1
 62
     7
 10
-592.71987905586377
 20
12.305770367550069
 30
0.0
 11
-606.10413991566872
 21
15.89207225622239
 31
0.0
  0
LINE
  5
9D
  8
1
 62
     7
 10
-606.10413991566872
 20
15.89207225622239
 30
0.0
 11
-615.90209888680147
 21
6.0941132850897617
 31
0.0
  0
LINE
  5
9E
  8
1
 62
     7
 10
-615.90209888680147
 20
6.0941132850897617
 30
0.0
 11
-612.31579699812926
 21
-7.2901475747151903
 31
0.0
  0
LINE
  5
9F
  8
1
 62
     7
 10
-612.31579699812926
 20
-7.2901475747151903
 30
0.0
 11
-598.93153613832453
 21
-10.87644946338752
 31
0.0
  0
LINE
  5
A0
  8
1
 62
     7
 10
-598.93153613832453
 20
-10.87644946338752
 30
0.0
 11
-589.13357716719179
 21
-1.0784904922548859
 31
0.0
  0
LINE
  5
A1
  8
1
 62
     7
 10
-589.13357716719179
 20
-1.0784904922548859
 30
0.0
 11
-592.71987905586377
 21
12.305770367550069
 31
0.0
  0
LINE
  5
A2
  8
1
 62
     7
 10
-370.4852778323301
 20
12.30577036755019
 30
0.0
 11
-374.07157972100242
 21
-1.078490492254699
 31
0.0
  0
LINE
  5
A3
  8
1
 62
     7
 10
-374.07157972100242
 20
-1.078490492254699
 30
0.0
 11
-364.27362074986979
 21
-10.876449463387489
 31
0.0
  0
LINE
  5
A4
  8
1
 62
     7
 10
-364.27362074986979
 20
-10.876449463387489
 30
0.0
 11
-350.88935989006478
 21
-7.2901475747153484
 31
0.0
  0
LINE
  5
A5
  8
1
 62
     7
 10
-350.88935989006478
 20
-7.2901475747153484
 30
0.0
 11
-347.30305800139251
 21
6.0941132850895467
 31
0.0
  0
LINE
  5
A6
  8
1
 62
     7
 10
-347.30305800139251
 20
6.0941132850895467
 30
0.0
 11
-357.10101697252497
 21
15.89207225622232
 31
0.0
  0
LINE
  5
A7
  8
1
 62
     7
 10
-357.10101697252497
 20
15.89207225622232
 30
0.0
 11
-370.4852778323301
 21
12.30577036755019
 31
0.0
  0
LINE
  5
A8
  8
1
 62
     7
 10
-370.4852778323301
 20
234.5403715910839
 30
0.0
 11
-357.10101697252531
 21
230.95406970241149
 31
0.0
  0
LINE
  5
A9
  8
1
 62
     7
 10
-357.10101697252531
 20
230.95406970241149
 30
0.0
 11
-347.30305800139251
 21
240.75202867354409
 31
0.0
  0
LINE
  5
AA
  8
1
 62
     7
 10
-347.30305800139251
 20
240.75202867354409
 30
0.0
 11
-350.88935989006472
 21
254.1362895333491
 31
0.0
  0
LINE
  5
AB
  8
1
 62
     7
 10
-350.88935989006472
 20
254.1362895333491
 30
0.0
 11
-364.27362074986962
 21
257.72259142202142
 31
0.0
  0
LINE
  5
AC
  8
1
 62
     7
 10
-364.27362074986962
 20
257.72259142202142
 30
0.0
 11
-374.07157972100231
 21
247.92463245088879
 31
0.0
  0
LINE
  5
AD
  8
1
 62
     7
 10
-374.07157972100231
 20
247.92463245088879
 30
0.0
 11
-370.4852778323301
 21
234.5403715910839
 31
0.0
  0
LINE
  5
AE
  8
1
 62
     7
 10
-585.13758900380708
 20
11.402779045368341
 30
0.0
 11
-543.45078432441096
 21
53.089583724764474
 31
0.0
  0
LINE
  5
AF
  8
1
 62
     7
 10
-369.58228651014832
 20
19.888060419607001
 30
0.0
 11
-411.2690911895445
 21
61.574865099003127
 31
0.0
  0
LINE
  5
B0
  8
1
 62
     7
 10
-378.0675678843869
 20
235.44336291326559
 30
0.0
 11
-419.75437256378308
 21
193.7565582338695
 31
0.0
  0
LINE
  5
B1
  8
1
 62
     7
 10
-551.9360656986496
 20
61.574865099003098
 30
0.0
 11
-593.6228703780456
 21
19.88806041960698
 31
0.0
  0
LINE
  5
B2
  8
1
 62
     7
 10
-419.75437256378308
 20
53.089583724764488
 30
0.0
 11
-378.06756788438707
 21
11.40277904536835
 31
0.0
  0
LINE
  5
B3
  8
1
 62
     7
 10
-411.2690911895445
 20
185.2712768596308
 30
0.0
 11
-369.58228651014832
 21
226.95808153902689
 31
0.0
  0
LINE
  5
B4
  8
1
 62
     7
 10
-289.5650666067163
 20
89.561676334265584
 30
0.0
 11
-306.33169700140871
 21
92.518085648416488
 31
0.0
  0
LINE
  5
B5
  8
1
 62
     7
 10
-301.10514158691961
 20
49.628252136871723
 30
0.0
 11
-316.75905739487217
 21
56.597824491976937
 31
0.0
  0
LINE
  5
B6
  8
1
 62
     7
 10
-305.98598130382908
 20
38.66570664516054
 30
0.0
 11
-321.63989711178158
 21
45.635279000265683
 31
0.0
  0
LINE
  5
B7
  8
1
 62
     7
 10
-464.54228905654162
 20
-71.576929020683011
 30
0.0
 11
-466.3503234632567
 21
-50.911001186738467
 31
0.0
  0
LINE
  5
B8
  8
1
 62
     7
 10
-414.45869385261221
 20
-71.576929020682996
 30
0.0
 11
-423.65967819088593
 21
-44.855330220143067
 31
0.0
  0
LINE
  5
B9
  8
1
 62
     7
 10
-385.60257844409699
 20
-71.576929020682982
 30
0.0
 11
-577.60257844409705
 21
-71.576929020682982
 31
0.0
  0
LINE
  5
BA
  8
1
 62
     7
 10
-325.86865398487481
 20
6.0691414646675934
 30
0.0
 11
-339.46564931323479
 21
16.315212363582152
 31
0.0
  0
LINE
  5
BB
  8
1
 62
     7
 10
-610.37608113599322
 20
123.4230709793169
 30
0.0
 11
-607.48932979004519
 21
118.423070979317
 31
0.0
  0
LINE
  5
BC
  8
1
 62
     7
 10
-607.48932979004519
 20
118.423070979317
 30
0.0
 11
-601.71582709814891
 21
118.423070979317
 31
0.0
  0
LINE
  5
BD
  8
1
 62
     7
 10
-601.71582709814891
 20
118.423070979317
 30
0.0
 11
-598.82907575220065
 21
123.4230709793169
 31
0.0
  0
LINE
  5
BE
  8
1
 62
     7
 10
-598.82907575220065
 20
123.4230709793169
 30
0.0
 11
-601.71582709814891
 21
128.42307097931689
 31
0.0
  0
LINE
  5
BF
  8
1
 62
     7
 10
-601.71582709814891
 20
128.42307097931689
 30
0.0
 11
-607.48932979004519
 21
128.42307097931689
 31
0.0
  0
LINE
  5
C0
  8
1
 62
     7
 10
-607.48932979004519
 20
128.42307097931689
 30
0.0
 11
-610.37608113599322
 21
123.4230709793169
 31
0.0
  0
LINE
  5
C1
  8
1
 62
     7
 10
-481.60257844409688
 20
-5.3504317125792706
 30
0.0
 11
-476.60257844409688
 21
-2.46368036663113
 31
0.0
  0
LINE
  5
C2
  8
1
 62
     7
 10
-476.60257844409688
 20
-2.46368036663113
 30
0.0
 11
-476.60257844409688
 21
3.3098223252651509
 31
0.0
  0
LINE
  5
C3
  8
1
 62
     7
 10
-476.60257844409688
 20
3.3098223252651509
 30
0.0
 11
-481.60257844409688
 21
6.1965736712132937
 31
0.0
  0
LINE
  5
C4
  8
1
 62
     7
 10
-481.60257844409688
 20
6.1965736712132937
 30
0.0
 11
-486.60257844409699
 21
3.3098223252651531
 31
0.0
  0
LINE
  5
C5
  8
1
 62
     7
 10
-486.60257844409699
 20
3.3098223252651531
 30
0.0
 11
-486.60257844409699
 21
-2.4636803666311291
 31
0.0
  0
LINE
  5
C6
  8
1
 62
     7
 10
-486.60257844409699
 20
-2.4636803666311291
 30
0.0
 11
-481.60257844409688
 21
-5.3504317125792706
 31
0.0
  0
LINE
  5
C7
  8
1
 62
     7
 10
-352.82907575220071
 20
123.4230709793169
 30
0.0
 11
-355.71582709814891
 21
128.42307097931689
 31
0.0
  0
LINE
  5
C8
  8
1
 62
     7
 10
-355.71582709814891
 20
128.42307097931689
 30
0.0
 11
-361.48932979004508
 21
128.42307097931689
 31
0.0
  0
LINE
  5
C9
  8
1
 62
     7
 10
-361.48932979004508
 20
128.42307097931689
 30
0.0
 11
-364.37608113599327
 21
123.4230709793169
 31
0.0
  0
LINE
  5
CA
  8
1
 62
     7
 10
-364.37608113599327
 20
123.4230709793169
 30
0.0
 11
-361.48932979004508
 21
118.423070979317
 31
0.0
  0
LINE
  5
CB
  8
1
 62
     7
 10
-361.48932979004508
 20
118.423070979317
 30
0.0
 11
-355.71582709814891
 21
118.423070979317
 31
0.0
  0
LINE
  5
CC
  8
1
 62
     7
 10
-355.71582709814891
 20
118.423070979317
 30
0.0
 11
-352.82907575220071
 21
123.4230709793169
 31
0.0
  0
LINE
  5
CD
  8
1
 62
     7
 10
-481.60257844409688
 20
252.19657367121329
 30
0.0
 11
-486.60257844409699
 21
249.309822325265
 31
0.0
  0
LINE
  5
CE
  8
1
 62
     7
 10
-486.60257844409699
 20
249.309822325265
 30
0.0
 11
-486.60257844409699
 21
243.53631963336881
 31
0.0
  0
LINE
  5
CF
  8
1
 62
     7
 10
-486.60257844409699
 20
243.53631963336881
 30
0.0
 11
-481.60257844409688
 21
240.64956828742069
 31
0.0
  0
LINE
  5
D0
  8
1
 62
     7
 10
-481.60257844409688
 20
240.64956828742069
 30
0.0
 11
-476.60257844409688
 21
243.53631963336881
 31
0.0
  0
LINE
  5
D1
  8
1
 62
     7
 10
-476.60257844409688
 20
243.53631963336881
 30
0.0
 11
-476.60257844409688
 21
249.309822325265
 31
0.0
  0
LINE
  5
D2
  8
1
 62
     7
 10
-476.60257844409688
 20
249.309822325265
 30
0.0
 11
-481.60257844409688
 21
252.19657367121329
 31
0.0
  0
LINE
  5
D3
  8
1
 62
     7
 10
-621.60257844409705
 20
-16.308815145504202
 30
0.0
 11
-621.60257844409705
 21
-41.576929020682996
 31
0.0
  0
LINE
  5
D4
  8
1
 62
     7
 10
-605.60257844409705
 20
-16.576929020683
 30
0.0
 11
-605.60257844409705
 21
-41.576929020682996
 31
0.0
  0
LINE
  5
D5
  8
1
 62
     7
 10
-657.21917558436473
 20
38.66570664516054
 30
0.0
 11
-681.37662626488725
 21
-48.434712452790301
 31
0.0
  0
LINE
  5
D6
  8
1
 62
     7
 10
-281.82853062330662
 20
-48.434712452790301
 30
0.0
 11
-305.98598130382908
 21
38.66570664516054
 31
0.0
  0
LINE
  5
D7
  8
1
 62
     7
 10
-341.60257844409688
 20
-41.576929020682996
 30
0.0
 11
-341.60257844409688
 21
-16.308815145504202
 31
0.0
  0
LINE
  5
D8
  8
1
 62
     7
 10
-357.60257844409688
 20
-41.576929020682996
 30
0.0
 11
-357.60257844409688
 21
-16.576929020683
 31
0.0
  0
LINE
  5
D9
  8
1
 62
     7
 10
-281.60257844409699
 20
-76.576929020682996
 30
0.0
 11
-381.60257844409699
 21
-76.576929020682996
 31
0.0
  0
LINE
  5
DA
  8
1
 62
     7
 10
-281.60257844409699
 20
-49.576929020682996
 30
0.0
 11
-281.60257844409699
 21
-76.576929020682996
 31
0.0
  0
LINE
  5
DB
  8
1
 62
     7
 10
-603.60257844409716
 20
-16.576929020683
 30
0.0
 11
-583.60257844409705
 21
-16.576929020683
 31
0.0
  0
LINE
  5
DC
  8
1
 62
     7
 10
-379.60257844409699
 20
-16.576929020683
 30
0.0
 11
-359.60257844409688
 21
-16.576929020683
 31
0.0
  0
LINE
  5
DD
  8
1
 62
     7
 10
-678.60257844409716
 20
-46.576929020682996
 30
0.0
 11
-584.60257844409705
 21
-46.576929020682996
 31
0.0
  0
LINE
  5
DE
  8
1
 62
     7
 10
-378.60257844409688
 20
-46.576929020682996
 30
0.0
 11
-284.60257844409688
 21
-46.576929020682996
 31
0.0
  0
LINE
  5
DF
  8
1
 62
     7
 10
-581.60257844409705
 20
-16.576929020683
 30
0.0
 11
-581.60257844409705
 21
-76.576929020682996
 31
0.0
  0
LINE
  5
E0
  8
1
 62
     7
 10
-381.60257844409699
 20
-76.576929020682996
 30
0.0
 11
-381.60257844409699
 21
-16.576929020683
 31
0.0
  0
LINE
  5
E1
  8
1
 62
     7
 10
-489.10257844409688
 20
158.42307097931689
 30
0.0
 11
-474.10257844409699
 21
158.42307097931689
 31
0.0
  0
LINE
  5
E2
  8
1
 62
     7
 10
-474.10257844409699
 20
158.42307097931689
 30
0.0
 11
-474.10257844409699
 21
148.42307097931689
 31
0.0
  0
LINE
  5
E3
  8
1
 62
     7
 10
-489.10257844409688
 20
158.42307097931689
 30
0.0
 11
-489.10257844409688
 21
148.42307097931689
 31
0.0
  0
LINE
  5
E4
  8
1
 62
     7
 10
-489.10257844409688
 20
148.42307097931689
 30
0.0
 11
-474.10257844409699
 21
148.42307097931689
 31
0.0
  0
LINE
  5
E5
  8
1
 62
     7
 10
-469.60257844409688
 20
85.330214580352504
 30
0.0
 11
-469.60257844409688
 21
86.366713602561504
 31
0.0
  0
LINE
  5
E6
  8
1
 62
     7
 10
-493.60257844409688
 20
85.330214580352504
 30
0.0
 11
-493.60257844409688
 21
86.366713602561504
 31
0.0
  0
LINE
  5
E7
  8
1
 62
     7
 10
-474.60257844409699
 20
89.130214580352515
 30
0.0
 11
-474.60257844409699
 21
82.830214580352504
 31
0.0
  0
LINE
  5
E8
  8
1
 62
     7
 10
-474.60257844409699
 20
82.830214580352504
 30
0.0
 11
-472.10257844409688
 21
82.830214580352504
 31
0.0
  0
LINE
  5
E9
  8
1
 62
     7
 10
-488.60257844409699
 20
89.130214580352515
 30
0.0
 11
-488.60257844409699
 21
82.830214580352504
 31
0.0
  0
LINE
  5
EA
  8
1
 62
     7
 10
-488.60257844409699
 20
82.830214580352504
 30
0.0
 11
-491.10257844409699
 21
82.830214580352504
 31
0.0
  0
LINE
  5
EB
  8
1
  6
DASHDOT
 62
     3
 10
-472.60257844409688
 20
123.4230709793169
 30
0.0
 11
-490.60257844409688
 21
123.4230709793169
 31
0.0
  0
LINE
  5
EC
  8
1
  6
DASHDOT
 62
     3
 10
-481.60257844409688
 20
132.423070979317
 30
0.0
 11
-481.60257844409688
 21
114.423070979317
 31
0.0
  0
LINE
  5
ED
  8
1
  6
DASHED
 62
     3
 10
-670.10257844409716
 20
-48.076929020682996
 30
0.0
 11
-633.10257844409716
 21
-48.076929020682996
 31
0.0
  0
LINE
  5
EE
  8
1
  6
DASHED
 62
     3
 10
-670.10257844409716
 20
-46.576929020682996
 30
0.0
 11
-670.10257844409716
 21
-48.076929020682996
 31
0.0
  0
LINE
  5
EF
  8
1
  6
DASHED
 62
     3
 10
-633.10257844409716
 20
-46.576929020682996
 30
0.0
 11
-633.10257844409716
 21
-48.076929020682996
 31
0.0
  0
LINE
  5
F0
  8
1
  6
DASHED
 62
     3
 10
-641.10257844409716
 20
-48.076929020682996
 30
0.0
 11
-641.10257844409716
 21
-76.576929020682996
 31
0.0
  0
LINE
  5
F1
  8
1
  6
DASHED
 62
     3
 10
-662.10257844409716
 20
-48.076929020682996
 30
0.0
 11
-662.10257844409716
 21
-76.576929020682996
 31
0.0
  0
LINE
  5
F2
  8
1
  6
DASHDOT
 62
     3
 10
-651.60257844409705
 20
-41.175752230155503
 30
0.0
 11
-651.60257844409705
 21
-84.389758817084925
 31
0.0
  0
LINE
  5
F3
  8
1
  6
DASHED
 62
     3
 10
-330.10257844409682
 20
-48.076929020682996
 30
0.0
 11
-293.10257844409682
 21
-48.076929020682996
 31
0.0
  0
LINE
  5
F4
  8
1
  6
DASHED
 62
     3
 10
-293.10257844409682
 20
-48.076929020682996
 30
0.0
 11
-293.10257844409682
 21
-46.576929020682996
 31
0.0
  0
LINE
  5
F5
  8
1
  6
DASHED
 62
     3
 10
-330.10257844409682
 20
-48.076929020682996
 30
0.0
 11
-330.10257844409682
 21
-46.576929020682996
 31
0.0
  0
LINE
  5
F6
  8
1
  6
DASHED
 62
     3
 10
-322.10257844409682
 20
-76.576929020682996
 30
0.0
 11
-322.10257844409682
 21
-48.076929020682996
 31
0.0
  0
LINE
  5
F7
  8
1
  6
DASHED
 62
     3
 10
-301.10257844409682
 20
-76.576929020682996
 30
0.0
 11
-301.10257844409682
 21
-48.076929020682996
 31
0.0
  0
LINE
  5
F8
  8
1
  6
DASHDOT
 62
     3
 10
-311.60257844409682
 20
-84.389758817084925
 30
0.0
 11
-311.60257844409682
 21
-41.175752230155503
 31
0.0
  0
LINE
  5
F9
  8
1
 62
     7
 10
-1142.3374175155921
 20
89.561676334265584
 30
0.0
 11
-1054.8103810689311
 21
89.561676334265584
 31
0.0
  0
LINE
  5
FA
  8
1
 62
     7
 10
-1142.3374175155921
 20
57.767279257734501
 30
0.0
 11
-1054.8103810689311
 21
57.767279257734501
 31
0.0
  0
LINE
  5
FB
  8
1
 62
     7
 10
-1142.3374175155921
 20
49.628252136871723
 30
0.0
 11
-1054.8103810689311
 21
49.628252136871723
 31
0.0
  0
LINE
  5
FC
  8
1
 62
     7
 10
-1142.3374175155921
 20
89.561676334265584
 30
0.0
 11
-1142.3374175155921
 21
49.628252136871723
 31
0.0
  0
LINE
  5
FD
  8
1
 62
     7
 10
-1137.337417515593
 20
38.66570664516054
 30
0.0
 11
-1054.8103810689311
 21
38.66570664516054
 31
0.0
  0
LINE
  5
FE
  8
1
 62
     7
 10
-1137.337417515593
 20
13.290921742492159
 30
0.0
 11
-1054.8103810689311
 21
13.290921742492159
 31
0.0
  0
LINE
  5
FF
  8
1
 62
     7
 10
-1137.337417515593
 20
6.0691414646675934
 30
0.0
 11
-1054.8103810689311
 21
6.0691414646675934
 31
0.0
  0
LINE
  5
100
  8
1
 62
     7
 10
-1051.3374175155921
 20
123.4230709793169
 30
0.0
 11
-1048.337417515593
 21
126.4230709793169
 31
0.0
  0
LINE
  5
101
  8
1
 62
     7
 10
-1051.3374175155921
 20
120.423070979317
 30
0.0
 11
-1048.337417515593
 21
123.4230709793169
 31
0.0
  0
LINE
  5
102
  8
1
 62
     7
 10
-1051.3374175155921
 20
134.173070979317
 30
0.0
 11
-1048.337417515593
 21
134.173070979317
 31
0.0
  0
LINE
  5
103
  8
1
 62
     7
 10
-1048.337417515593
 20
134.173070979317
 30
0.0
 11
-1048.337417515593
 21
112.673070979317
 31
0.0
  0
LINE
  5
104
  8
1
 62
     7
 10
-1048.337417515593
 20
112.673070979317
 30
0.0
 11
-1051.3374175155921
 21
112.673070979317
 31
0.0
  0
LINE
  5
105
  8
1
 62
     7
 10
-1048.337417515593
 20
132.423070979317
 30
0.0
 11
-1037.037417515593
 21
132.423070979317
 31
0.0
  0
LINE
  5
106
  8
1
 62
     7
 10
-1037.037417515593
 20
132.423070979317
 30
0.0
 11
-1036.337417515593
 21
131.21063541401881
 31
0.0
  0
LINE
  5
107
  8
1
 62
     7
 10
-1036.337417515593
 20
131.21063541401881
 30
0.0
 11
-1036.337417515593
 21
115.6355065446152
 31
0.0
  0
LINE
  5
108
  8
1
 62
     7
 10
-1036.337417515593
 20
115.6355065446152
 30
0.0
 11
-1037.037417515593
 21
114.423070979317
 31
0.0
  0
LINE
  5
109
  8
1
 62
     7
 10
-1037.037417515593
 20
114.423070979317
 30
0.0
 11
-1048.337417515593
 21
114.423070979317
 31
0.0
  0
LINE
  5
10A
  8
1
 62
     7
 10
-1037.037417515593
 20
132.423070979317
 30
0.0
 11
-1037.037417515593
 21
114.423070979317
 31
0.0
  0
LINE
  5
10B
  8
1
 62
     7
 10
-978.33741751559285
 20
213.423070979317
 30
0.0
 11
-1019.3228694121329
 21
213.423070979317
 31
0.0
  0
LINE
  5
10C
  8
1
 62
     7
 10
-1037.3374175155921
 20
314.423070979317
 30
0.0
 11
-1037.3374175155921
 21
285.90571987186928
 31
0.0
  0
LINE
  5
10D
  8
1
 62
     7
 10
-1041.3374175155921
 20
254.7258305622166
 30
0.0
 11
-1041.3374175155921
 21
233.95083056221659
 31
0.0
  0
LINE
  5
10E
  8
1
 62
     7
 10
-1042.6941906481879
 20
258.18833056221661
 30
0.0
 11
-1051.3374175155921
 21
258.18833056221661
 31
0.0
  0
LINE
  5
10F
  8
1
 62
     7
 10
-1042.6941906481879
 20
251.26333056221651
 30
0.0
 11
-1051.3374175155921
 21
251.26333056221651
 31
0.0
  0
LINE
  5
110
  8
1
 62
     7
 10
-1042.6941906481879
 20
237.41333056221649
 30
0.0
 11
-1051.3374175155921
 21
237.41333056221649
 31
0.0
  0
LINE
  5
111
  8
1
 62
     7
 10
-1042.6941906481879
 20
230.48833056221659
 30
0.0
 11
-1051.3374175155921
 21
230.48833056221659
 31
0.0
  0
LINE
  5
112
  8
1
 62
     7
 10
-978.33741751559285
 20
187.06268128610631
 30
0.0
 11
-1045.8561408803121
 21
230.48833056221659
 31
0.0
  0
LINE
  5
113
  8
1
 62
     7
 10
-1051.3374175155921
 20
187.06268128610631
 30
0.0
 11
-978.33741751559285
 21
187.06268128610631
 31
0.0
  0
LINE
  5
114
  8
1
 62
     7
 10
-1019.3228694121329
 20
33.42307097931694
 30
0.0
 11
-978.33741751559285
 21
33.42307097931694
 31
0.0
  0
LINE
  5
115
  8
1
 62
     7
 10
-1041.3374175155921
 20
12.89531139641733
 30
0.0
 11
-1041.3374175155921
 21
-7.8796886035826503
 31
0.0
  0
LINE
  5
116
  8
1
 62
     7
 10
-1051.3374175155921
 20
-11.34218860358266
 30
0.0
 11
-1042.6941906481879
 21
-11.34218860358266
 31
0.0
  0
LINE
  5
117
  8
1
 62
     7
 10
-1051.3374175155921
 20
-4.4171886035826722
 30
0.0
 11
-1042.6941906481879
 21
-4.4171886035826722
 31
0.0
  0
LINE
  5
118
  8
1
 62
     7
 10
-1051.3374175155921
 20
9.4328113964173514
 30
0.0
 11
-1042.6941906481879
 21
9.4328113964173514
 31
0.0
  0
LINE
  5
119
  8
1
 62
     7
 10
-1051.3374175155921
 20
16.35781139641734
 30
0.0
 11
-1042.6941906481879
 21
16.35781139641734
 31
0.0
  0
LINE
  5
11A
  8
1
 62
     7
 10
-1045.8561408803121
 20
16.35781139641734
 30
0.0
 11
-978.33741751559285
 21
59.783460672527717
 31
0.0
  0
LINE
  5
11B
  8
1
 62
     7
 10
-978.33741751559285
 20
59.783460672527717
 30
0.0
 11
-1051.3374175155921
 21
59.783460672527717
 31
0.0
  0
LINE
  5
11C
  8
1
 62
     7
 10
-978.33741751559285
 20
213.423070979317
 30
0.0
 11
-978.33741751559285
 21
33.42307097931694
 31
0.0
  0
LINE
  5
11D
  8
1
 62
     7
 10
-1161.337417515593
 20
38.66570664516054
 30
0.0
 11
-1161.337417515593
 21
-76.576929020682996
 31
0.0
  0
LINE
  5
11E
  8
1
 62
     7
 10
-1161.337417515593
 20
-76.576929020682996
 30
0.0
 11
-981.33741751559296
 21
-76.576929020682996
 31
0.0
  0
LINE
  5
11F
  8
1
 62
     7
 10
-1137.337417515593
 20
38.66570664516054
 30
0.0
 11
-1137.337417515593
 21
-41.576929020682996
 31
0.0
  0
LINE
  5
120
  8
1
 62
     7
 10
-981.33741751559296
 20
-51.576929020682996
 30
0.0
 11
-981.33741751559296
 21
-76.576929020682996
 31
0.0
  0
LINE
  5
121
  8
1
  6
DASHED
 62
     3
 10
-1014.8374175155921
 20
-49.576929020682996
 30
0.0
 11
-1014.8374175155921
 21
-76.576929020682996
 31
0.0
  0
LINE
  5
122
  8
1
  6
DASHED
 62
     3
 10
-1035.837417515593
 20
-76.576929020682996
 30
0.0
 11
-1035.837417515593
 21
-49.576929020682996
 31
0.0
  0
LINE
  5
123
  8
1
  6
DASHED
 62
     3
 10
-1006.8374175155921
 20
-46.576929020682996
 30
0.0
 11
-1006.8374175155921
 21
-49.576929020682996
 31
0.0
  0
LINE
  5
124
  8
1
  6
DASHED
 62
     3
 10
-1043.837417515593
 20
-49.576929020682996
 30
0.0
 11
-1043.837417515593
 21
-46.576929020682996
 31
0.0
  0
LINE
  5
125
  8
1
  6
DASHED
 62
     3
 10
-1043.837417515593
 20
-49.576929020682996
 30
0.0
 11
-1006.8374175155921
 21
-49.576929020682996
 31
0.0
  0
LINE
  5
126
  8
1
  6
DASHDOT
 62
     3
 10
-1025.3374175155921
 20
-41.925933181648602
 30
0.0
 11
-1025.3374175155921
 21
-82.198154820178502
 31
0.0
  0
LINE
  5
127
  8
1
 62
     7
 10
-1051.3374175155921
 20
-16.576929020683
 30
0.0
 11
-984.75676450013827
 21
-46.833350619862081
 31
0.0
  0
LINE
  5
128
  8
1
 62
     7
 10
-1132.337417515593
 20
-46.576929020682996
 30
0.0
 11
-986.33741751559285
 21
-46.576929020682996
 31
0.0
  0
LINE
  5
129
  8
1
 62
     7
 10
-1315.864453962253
 20
89.561676334265584
 30
0.0
 11
-1228.3374175155921
 21
89.561676334265584
 31
0.0
  0
LINE
  5
12A
  8
1
 62
     7
 10
-1315.864453962253
 20
57.767279257734501
 30
0.0
 11
-1228.3374175155921
 21
57.767279257734501
 31
0.0
  0
LINE
  5
12B
  8
1
 62
     7
 10
-1315.864453962253
 20
49.628252136871723
 30
0.0
 11
-1228.3374175155921
 21
49.628252136871723
 31
0.0
  0
LINE
  5
12C
  8
1
 62
     7
 10
-1228.3374175155921
 20
49.628252136871723
 30
0.0
 11
-1228.3374175155921
 21
89.561676334265584
 31
0.0
  0
LINE
  5
12D
  8
1
 62
     7
 10
-1315.864453962253
 20
38.66570664516054
 30
0.0
 11
-1233.337417515593
 21
38.66570664516054
 31
0.0
  0
LINE
  5
12E
  8
1
 62
     7
 10
-1315.864453962253
 20
13.290921742492159
 30
0.0
 11
-1233.337417515593
 21
13.290921742492159
 31
0.0
  0
LINE
  5
12F
  8
1
 62
     7
 10
-1315.864453962253
 20
6.0691414646675934
 30
0.0
 11
-1233.337417515593
 21
6.0691414646675934
 31
0.0
  0
LINE
  5
130
  8
1
 62
     7
 10
-1322.337417515593
 20
126.4230709793169
 30
0.0
 11
-1319.3374175155921
 21
123.4230709793169
 31
0.0
  0
LINE
  5
131
  8
1
 62
     7
 10
-1322.337417515593
 20
123.4230709793169
 30
0.0
 11
-1319.3374175155921
 21
120.423070979317
 31
0.0
  0
LINE
  5
132
  8
1
 62
     7
 10
-1322.337417515593
 20
134.173070979317
 30
0.0
 11
-1319.3374175155921
 21
134.173070979317
 31
0.0
  0
LINE
  5
133
  8
1
 62
     7
 10
-1322.337417515593
 20
112.673070979317
 30
0.0
 11
-1322.337417515593
 21
134.173070979317
 31
0.0
  0
LINE
  5
134
  8
1
 62
     7
 10
-1319.3374175155921
 20
112.673070979317
 30
0.0
 11
-1322.337417515593
 21
112.673070979317
 31
0.0
  0
LINE
  5
135
  8
1
 62
     7
 10
-1319.3374175155921
 20
134.173070979317
 30
0.0
 11
-1319.3374175155921
 21
112.673070979317
 31
0.0
  0
LINE
  5
136
  8
1
 62
     7
 10
-1333.6374175155929
 20
132.423070979317
 30
0.0
 11
-1322.337417515593
 21
132.423070979317
 31
0.0
  0
LINE
  5
137
  8
1
 62
     7
 10
-1334.337417515593
 20
131.21063541401881
 30
0.0
 11
-1333.6374175155929
 21
132.423070979317
 31
0.0
  0
LINE
  5
138
  8
1
 62
     7
 10
-1334.337417515593
 20
115.6355065446152
 30
0.0
 11
-1334.337417515593
 21
131.21063541401881
 31
0.0
  0
LINE
  5
139
  8
1
 62
     7
 10
-1333.6374175155929
 20
114.423070979317
 30
0.0
 11
-1334.337417515593
 21
115.6355065446152
 31
0.0
  0
LINE
  5
13A
  8
1
 62
     7
 10
-1322.337417515593
 20
114.423070979317
 30
0.0
 11
-1333.6374175155929
 21
114.423070979317
 31
0.0
  0
LINE
  5
13B
  8
1
 62
     7
 10
-1322.337417515593
 20
132.423070979317
 30
0.0
 11
-1322.337417515593
 21
114.423070979317
 31
0.0
  0
LINE
  5
13C
  8
1
 62
     7
 10
-1333.6374175155929
 20
114.423070979317
 30
0.0
 11
-1333.6374175155929
 21
132.423070979317
 31
0.0
  0
LINE
  5
13D
  8
1
 62
     7
 10
-1351.351965619052
 20
213.423070979317
 30
0.0
 11
-1392.337417515593
 21
213.423070979317
 31
0.0
  0
LINE
  5
13E
  8
1
 62
     7
 10
-1329.337417515593
 20
318.42307097931689
 30
0.0
 11
-1041.3374175155921
 21
318.42307097931689
 31
0.0
  0
LINE
  5
13F
  8
1
 62
     7
 10
-1333.3374175155921
 20
285.90571987186928
 30
0.0
 11
-1333.3374175155921
 21
314.423070979317
 31
0.0
  0
LINE
  5
140
  8
1
 62
     7
 10
-1324.8186941508741
 20
230.48833056221659
 30
0.0
 11
-1392.337417515593
 21
187.06268128610631
 31
0.0
  0
LINE
  5
141
  8
1
 62
     7
 10
-1392.337417515593
 20
187.06268128610631
 30
0.0
 11
-1319.3374175155921
 21
187.06268128610631
 31
0.0
  0
LINE
  5
142
  8
1
 62
     7
 10
-1392.337417515593
 20
33.42307097931694
 30
0.0
 11
-1351.351965619052
 21
33.42307097931694
 31
0.0
  0
LINE
  5
143
  8
1
 62
     7
 10
-1392.337417515593
 20
59.783460672527717
 30
0.0
 11
-1324.8186941508741
 21
16.35781139641734
 31
0.0
  0
LINE
  5
144
  8
1
 62
     7
 10
-1319.3374175155921
 20
59.783460672527717
 30
0.0
 11
-1392.337417515593
 21
59.783460672527717
 31
0.0
  0
LINE
  5
145
  8
1
 62
     7
 10
-1323.337417515593
 20
281.90571987186928
 30
0.0
 11
-1329.337417515593
 21
281.90571987186928
 31
0.0
  0
LINE
  5
146
  8
1
 62
     7
 10
-1392.337417515593
 20
33.42307097931694
 30
0.0
 11
-1392.337417515593
 21
213.423070979317
 31
0.0
  0
LINE
  5
147
  8
1
 62
     7
 10
-1209.337417515593
 20
-76.576929020682996
 30
0.0
 11
-1209.337417515593
 21
38.66570664516054
 31
0.0
  0
LINE
  5
148
  8
1
 62
     7
 10
-1389.337417515593
 20
-76.576929020682996
 30
0.0
 11
-1209.337417515593
 21
-76.576929020682996
 31
0.0
  0
LINE
  5
149
  8
1
 62
     7
 10
-1233.337417515593
 20
-41.576929020682996
 30
0.0
 11
-1233.337417515593
 21
38.66570664516054
 31
0.0
  0
LINE
  5
14A
  8
1
 62
     7
 10
-1389.337417515593
 20
-76.576929020682996
 30
0.0
 11
-1389.337417515593
 21
-51.576929020682996
 31
0.0
  0
LINE
  5
14B
  8
1
  6
DASHED
 62
     3
 10
-1355.8374175155921
 20
-76.576929020682996
 30
0.0
 11
-1355.8374175155921
 21
-49.576929020682996
 31
0.0
  0
LINE
  5
14C
  8
1
  6
DASHED
 62
     3
 10
-1334.837417515593
 20
-49.576929020682996
 30
0.0
 11
-1334.837417515593
 21
-76.576929020682996
 31
0.0
  0
LINE
  5
14D
  8
1
  6
DASHED
 62
     3
 10
-1363.8374175155921
 20
-49.576929020682996
 30
0.0
 11
-1363.8374175155921
 21
-46.576929020682996
 31
0.0
  0
LINE
  5
14E
  8
1
  6
DASHED
 62
     3
 10
-1326.837417515593
 20
-46.576929020682996
 30
0.0
 11
-1326.837417515593
 21
-49.576929020682996
 31
0.0
  0
LINE
  5
14F
  8
1
  6
DASHED
 62
     3
 10
-1363.8374175155921
 20
-49.576929020682996
 30
0.0
 11
-1326.837417515593
 21
-49.576929020682996
 31
0.0
  0
LINE
  5
150
  8
1
  6
DASHDOT
 62
     3
 10
-1345.3374175155921
 20
-82.198154820178502
 30
0.0
 11
-1345.3374175155921
 21
-41.925933181648602
 31
0.0
  0
LINE
  5
151
  8
1
 62
     7
 10
-1385.9180705310471
 20
-46.833350619862081
 30
0.0
 11
-1319.3374175155921
 21
-16.576929020683
 31
0.0
  0
LINE
  5
152
  8
1
 62
     7
 10
-1319.3374175155921
 20
277.90571987186928
 30
0.0
 11
-1319.3374175155921
 21
-41.576929020682996
 31
0.0
  0
LINE
  5
153
  8
1
 62
     7
 10
-1384.337417515593
 20
-46.576929020682996
 30
0.0
 11
-1238.337417515593
 21
-46.576929020682996
 31
0.0
  0
LINE
  5
154
  8
1
 62
     7
 10
-1209.337417515593
 20
-71.576929020682982
 30
0.0
 11
-1161.337417515593
 21
-71.576929020682982
 31
0.0
  0
LINE
  5
155
  8
1
 62
     7
 10
-866.33741751559285
 20
153.42307097931689
 30
0.0
 11
-970.33741751559285
 21
153.42307097931689
 31
0.0
  0
LINE
  5
156
  8
1
 62
     7
 10
-866.33741751559285
 20
93.423070979316989
 30
0.0
 11
-970.33741751559285
 21
93.423070979316989
 31
0.0
  0
LINE
  5
157
  8
1
 62
     7
 10
-865.33741751559296
 20
152.423070979317
 30
0.0
 11
-866.33741751559285
 21
153.42307097931689
 31
0.0
  0
LINE
  5
158
  8
1
 62
     7
 10
-865.33741751559296
 20
94.423070979317004
 30
0.0
 11
-866.33741751559285
 21
93.423070979316989
 31
0.0
  0
LINE
  5
159
  8
1
 62
     7
 10
-866.33741751559285
 20
153.42307097931689
 30
0.0
 11
-866.33741751559285
 21
93.423070979316989
 31
0.0
  0
LINE
  5
15A
  8
1
 62
     7
 10
-970.33741751559285
 20
158.42307097931689
 30
0.0
 11
-970.33741751559285
 21
88.423070979316989
 31
0.0
  0
LINE
  5
15B
  8
1
 62
     7
 10
-978.33741751559285
 20
163.32307097931701
 30
0.0
 11
-976.83741751559296
 21
163.32307097931701
 31
0.0
  0
LINE
  5
15C
  8
1
 62
     7
 10
-976.83741751559296
 20
158.42307097931689
 30
0.0
 11
-970.33741751559285
 21
158.42307097931689
 31
0.0
  0
LINE
  5
15D
  8
1
 62
     7
 10
-976.83741751559296
 20
83.523070979317012
 30
0.0
 11
-978.33741751559285
 21
83.523070979317012
 31
0.0
  0
LINE
  5
15E
  8
1
 62
     7
 10
-976.83741751559296
 20
83.523070979317012
 30
0.0
 11
-976.83741751559296
 21
163.32307097931701
 31
0.0
  0
LINE
  5
15F
  8
1
 62
     7
 10
-976.83741751559296
 20
88.423070979316989
 30
0.0
 11
-970.33741751559285
 21
88.423070979316989
 31
0.0
  0
LINE
  5
160
  8
1
 62
     7
 10
-955.33741751559296
 20
158.42307097931689
 30
0.0
 11
-955.33741751559296
 21
153.42307097931689
 31
0.0
  0
LINE
  5
161
  8
1
 62
     7
 10
-955.33741751559296
 20
158.42307097931689
 30
0.0
 11
-865.33741751559296
 21
158.42307097931689
 31
0.0
  0
LINE
  5
162
  8
1
 62
     7
 10
-865.33741751559296
 20
158.42307097931689
 30
0.0
 11
-865.33741751559296
 21
94.423070979317004
 31
0.0
  0
LINE
  5
163
  8
1
  6
DASHED
 62
     3
 10
-865.33741751559296
 20
118.62307097931691
 30
0.0
 11
-899.93741751559298
 21
118.62307097931691
 31
0.0
  0
LINE
  5
164
  8
1
  6
DASHED
 62
     3
 10
-899.93741751559298
 20
118.62307097931691
 30
0.0
 11
-899.93741751559298
 21
128.22307097931699
 31
0.0
  0
LINE
  5
165
  8
1
  6
DASHED
 62
     3
 10
-899.93741751559298
 20
128.22307097931699
 30
0.0
 11
-865.33741751559296
 21
128.22307097931699
 31
0.0
  0
LINE
  5
166
  8
1
  6
DASHED
 62
     3
 10
-899.93741751559298
 20
118.62307097931691
 30
0.0
 11
-903.40151913073066
 21
123.4230709793169
 31
0.0
  0
LINE
  5
167
  8
1
  6
DASHED
 62
     3
 10
-903.40151913073066
 20
123.4230709793169
 30
0.0
 11
-899.93741751559298
 21
128.22307097931699
 31
0.0
  0
LINE
  5
168
  8
1
  6
DASHED
 62
     3
 10
-865.33741751559296
 20
117.423070979317
 30
0.0
 11
-890.33741751559296
 21
117.423070979317
 31
0.0
  0
LINE
  5
169
  8
1
  6
DASHED
 62
     3
 10
-890.33741751559296
 20
117.423070979317
 30
0.0
 11
-890.33741751559296
 21
129.42307097931689
 31
0.0
  0
LINE
  5
16A
  8
1
  6
DASHED
 62
     3
 10
-890.33741751559296
 20
129.42307097931689
 30
0.0
 11
-865.33741751559296
 21
129.42307097931689
 31
0.0
  0
LINE
  5
16B
  8
1
  6
DASHED
 62
     3
 10
-890.33741751559296
 20
117.423070979317
 30
0.0
 11
-892.41587848467577
 21
118.62307097931691
 31
0.0
  0
LINE
  5
16C
  8
1
  6
DASHED
 62
     3
 10
-890.33741751559296
 20
129.42307097931689
 30
0.0
 11
-892.41587848467577
 21
128.22307097931699
 31
0.0
  0
LINE
  5
16D
  8
1
  6
DASHDOT
 62
     3
 10
-860.33741751559285
 20
123.4230709793169
 30
0.0
 11
-908.10869880770315
 21
123.4230709793169
 31
0.0
  0
LINE
  5
16E
  8
1
 62
     7
 10
-1400.337417515593
 20
153.42307097931689
 30
0.0
 11
-1504.337417515593
 21
153.42307097931689
 31
0.0
  0
LINE
  5
16F
  8
1
 62
     7
 10
-1400.337417515593
 20
93.423070979316989
 30
0.0
 11
-1504.337417515593
 21
93.423070979316989
 31
0.0
  0
LINE
  5
170
  8
1
 62
     7
 10
-1504.337417515593
 20
153.42307097931689
 30
0.0
 11
-1505.337417515593
 21
152.423070979317
 31
0.0
  0
LINE
  5
171
  8
1
 62
     7
 10
-1504.337417515593
 20
93.423070979316989
 30
0.0
 11
-1505.337417515593
 21
94.423070979317004
 31
0.0
  0
LINE
  5
172
  8
1
 62
     7
 10
-1504.337417515593
 20
93.423070979316989
 30
0.0
 11
-1504.337417515593
 21
153.42307097931689
 31
0.0
  0
LINE
  5
173
  8
1
 62
     7
 10
-1400.337417515593
 20
88.423070979316989
 30
0.0
 11
-1400.337417515593
 21
158.42307097931689
 31
0.0
  0
LINE
  5
174
  8
1
 62
     7
 10
-1393.837417515593
 20
163.32307097931701
 30
0.0
 11
-1392.337417515593
 21
163.32307097931701
 31
0.0
  0
LINE
  5
175
  8
1
 62
     7
 10
-1400.337417515593
 20
158.42307097931689
 30
0.0
 11
-1393.837417515593
 21
158.42307097931689
 31
0.0
  0
LINE
  5
176
  8
1
 62
     7
 10
-1392.337417515593
 20
83.523070979317012
 30
0.0
 11
-1393.837417515593
 21
83.523070979317012
 31
0.0
  0
LINE
  5
177
  8
1
 62
     7
 10
-1393.837417515593
 20
163.32307097931701
 30
0.0
 11
-1393.837417515593
 21
83.523070979317012
 31
0.0
  0
LINE
  5
178
  8
1
 62
     7
 10
-1400.337417515593
 20
88.423070979316989
 30
0.0
 11
-1393.837417515593
 21
88.423070979316989
 31
0.0
  0
LINE
  5
179
  8
1
 62
     7
 10
-1415.337417515593
 20
153.42307097931689
 30
0.0
 11
-1415.337417515593
 21
158.42307097931689
 31
0.0
  0
LINE
  5
17A
  8
1
 62
     7
 10
-1505.337417515593
 20
158.42307097931689
 30
0.0
 11
-1415.337417515593
 21
158.42307097931689
 31
0.0
  0
LINE
  5
17B
  8
1
 62
     7
 10
-1505.337417515593
 20
94.423070979317004
 30
0.0
 11
-1505.337417515593
 21
158.42307097931689
 31
0.0
  0
LINE
  5
17C
  8
1
  6
DASHED
 62
     3
 10
-1470.7374175155931
 20
118.62307097931691
 30
0.0
 11
-1505.337417515593
 21
118.62307097931691
 31
0.0
  0
LINE
  5
17D
  8
1
  6
DASHED
 62
     3
 10
-1470.7374175155931
 20
128.22307097931699
 30
0.0
 11
-1470.7374175155931
 21
118.62307097931691
 31
0.0
  0
LINE
  5
17E
  8
1
  6
DASHED
 62
     3
 10
-1505.337417515593
 20
128.22307097931699
 30
0.0
 11
-1470.7374175155931
 21
128.22307097931699
 31
0.0
  0
LINE
  5
17F
  8
1
  6
DASHED
 62
     3
 10
-1467.273315900454
 20
123.4230709793169
 30
0.0
 11
-1470.7374175155931
 21
118.62307097931691
 31
0.0
  0
LINE
  5
180
  8
1
  6
DASHED
 62
     3
 10
-1470.7374175155931
 20
128.22307097931699
 30
0.0
 11
-1467.273315900454
 21
123.4230709793169
 31
0.0
  0
LINE
  5
181
  8
1
  6
DASHED
 62
     3
 10
-1480.337417515593
 20
117.423070979317
 30
0.0
 11
-1505.337417515593
 21
117.423070979317
 31
0.0
  0
LINE
  5
182
  8
1
  6
DASHED
 62
     3
 10
-1480.337417515593
 20
129.42307097931689
 30
0.0
 11
-1480.337417515593
 21
117.423070979317
 31
0.0
  0
LINE
  5
183
  8
1
  6
DASHED
 62
     3
 10
-1505.337417515593
 20
129.42307097931689
 30
0.0
 11
-1480.337417515593
 21
129.42307097931689
 31
0.0
  0
LINE
  5
184
  8
1
  6
DASHED
 62
     3
 10
-1478.25895654651
 20
118.62307097931691
 30
0.0
 11
-1480.337417515593
 21
117.423070979317
 31
0.0
  0
LINE
  5
185
  8
1
  6
DASHED
 62
     3
 10
-1478.25895654651
 20
128.22307097931699
 30
0.0
 11
-1480.337417515593
 21
129.42307097931689
 31
0.0
  0
LINE
  5
186
  8
1
  6
DASHDOT
 62
     3
 10
-1462.5661362234821
 20
123.4230709793169
 30
0.0
 11
-1510.337417515593
 21
123.4230709793169
 31
0.0
  0
LINE
  5
187
  8
1
 62
     7
 10
-1037.037417515593
 20
770.76125707858887
 30
0.0
 11
-1036.337417515593
 21
769.5488215132907
 31
0.0
  0
LINE
  5
188
  8
1
 62
     7
 10
-1036.337417515593
 20
769.5488215132907
 30
0.0
 11
-1036.337417515593
 21
753.97369264388715
 31
0.0
  0
LINE
  5
189
  8
1
 62
     7
 10
-1036.337417515593
 20
753.97369264388715
 30
0.0
 11
-1037.037417515593
 21
752.76125707858898
 31
0.0
  0
LINE
  5
18A
  8
1
 62
     7
 10
-1037.037417515593
 20
752.76125707858898
 30
0.0
 11
-1037.3374175155921
 21
752.76125707858898
 31
0.0
  0
LINE
  5
18B
  8
1
 62
     7
 10
-1037.037417515593
 20
770.76125707858887
 30
0.0
 11
-1037.037417515593
 21
752.76125707858898
 31
0.0
  0
LINE
  5
18C
  8
1
 62
     7
 10
-978.33741751559285
 20
851.76125707858887
 30
0.0
 11
-1019.3228694121329
 21
851.76125707858887
 31
0.0
  0
LINE
  5
18D
  8
1
 62
     7
 10
-1041.3374175155921
 20
893.06401666148849
 30
0.0
 11
-1041.3374175155921
 21
872.28901666148863
 31
0.0
  0
LINE
  5
18E
  8
1
 62
     7
 10
-1042.6941906481879
 20
896.5265166614887
 30
0.0
 11
-1051.3374175155921
 21
896.5265166614887
 31
0.0
  0
LINE
  5
18F
  8
1
 62
     7
 10
-1042.6941906481879
 20
889.60151666148852
 30
0.0
 11
-1051.3374175155921
 21
889.60151666148852
 31
0.0
  0
LINE
  5
190
  8
1
 62
     7
 10
-1042.6941906481879
 20
875.75151666148861
 30
0.0
 11
-1051.3374175155921
 21
875.75151666148861
 31
0.0
  0
LINE
  5
191
  8
1
 62
     7
 10
-1042.6941906481879
 20
868.82651666148877
 30
0.0
 11
-1051.3374175155921
 21
868.82651666148877
 31
0.0
  0
LINE
  5
192
  8
1
 62
     7
 10
-978.33741751559285
 20
825.40086738537843
 30
0.0
 11
-1045.8561408803121
 21
868.82651666148877
 31
0.0
  0
LINE
  5
193
  8
1
 62
     7
 10
-1019.3228694121329
 20
671.76125707858887
 30
0.0
 11
-978.33741751559285
 21
671.76125707858887
 31
0.0
  0
LINE
  5
194
  8
1
 62
     7
 10
-1041.3374175155921
 20
651.23349749568922
 30
0.0
 11
-1041.3374175155921
 21
630.45849749568936
 31
0.0
  0
LINE
  5
195
  8
1
 62
     7
 10
-1051.3374175155921
 20
626.99599749568927
 30
0.0
 11
-1042.6941906481879
 21
626.99599749568927
 31
0.0
  0
LINE
  5
196
  8
1
 62
     7
 10
-1051.3374175155921
 20
633.92099749568922
 30
0.0
 11
-1042.6941906481879
 21
633.92099749568922
 31
0.0
  0
LINE
  5
197
  8
1
 62
     7
 10
-1051.3374175155921
 20
647.77099749568924
 30
0.0
 11
-1042.6941906481879
 21
647.77099749568924
 31
0.0
  0
LINE
  5
198
  8
1
 62
     7
 10
-1051.3374175155921
 20
654.6959974956892
 30
0.0
 11
-1042.6941906481879
 21
654.6959974956892
 31
0.0
  0
LINE
  5
199
  8
1
 62
     7
 10
-1045.8561408803121
 20
654.6959974956892
 30
0.0
 11
-978.33741751559285
 21
698.12164677179965
 31
0.0
  0
LINE
  5
19A
  8
1
 62
     7
 10
-978.33741751559285
 20
698.12164677179965
 30
0.0
 11
-1037.3374175155921
 21
698.12164677179965
 31
0.0
  0
LINE
  5
19B
  8
1
 62
     7
 10
-978.33741751559285
 20
851.76125707858887
 30
0.0
 11
-978.33741751559285
 21
671.76125707858887
 31
0.0
  0
LINE
  5
19C
  8
1
 62
     7
 10
-1051.3374175155921
 20
567.84016905841702
 30
0.0
 11
-1051.3374175155921
 21
664.80071306850311
 31
0.0
  0
LINE
  5
19D
  8
1
 62
     7
 10
-866.33741751559285
 20
791.76125707858887
 30
0.0
 11
-971.33741751559296
 21
791.76125707858887
 31
0.0
  0
LINE
  5
19E
  8
1
 62
     7
 10
-866.33741751559285
 20
731.76125707858898
 30
0.0
 11
-971.33741751559296
 21
731.76125707858898
 31
0.0
  0
LINE
  5
19F
  8
1
 62
     7
 10
-865.33741751559296
 20
790.76125707858887
 30
0.0
 11
-865.33741751559296
 21
732.76125707858887
 31
0.0
  0
LINE
  5
1A0
  8
1
 62
     7
 10
-865.33741751559296
 20
790.76125707858887
 30
0.0
 11
-866.33741751559285
 21
791.76125707858887
 31
0.0
  0
LINE
  5
1A1
  8
1
 62
     7
 10
-865.33741751559296
 20
732.76125707858887
 30
0.0
 11
-866.33741751559285
 21
731.76125707858898
 31
0.0
  0
LINE
  5
1A2
  8
1
 62
     7
 10
-866.33741751559285
 20
791.76125707858887
 30
0.0
 11
-866.33741751559285
 21
769.26125707858898
 31
0.0
  0
LINE
  5
1A3
  8
1
 62
     7
 10
-971.33741751559296
 20
796.76125707858887
 30
0.0
 11
-971.33741751559296
 21
726.76125707858898
 31
0.0
  0
LINE
  5
1A4
  8
1
 62
     7
 10
-978.33741751559285
 20
801.66125707858907
 30
0.0
 11
-976.83741751559296
 21
801.66125707858907
 31
0.0
  0
LINE
  5
1A5
  8
1
 62
     7
 10
-976.83741751559296
 20
796.76125707858887
 30
0.0
 11
-971.33741751559296
 21
796.76125707858887
 31
0.0
  0
LINE
  5
1A6
  8
1
 62
     7
 10
-976.83741751559296
 20
721.86125707858889
 30
0.0
 11
-978.33741751559285
 21
721.86125707858889
 31
0.0
  0
LINE
  5
1A7
  8
1
 62
     7
 10
-976.83741751559296
 20
721.86125707858889
 30
0.0
 11
-976.83741751559296
 21
801.66125707858907
 31
0.0
  0
LINE
  5
1A8
  8
1
 62
     7
 10
-976.83741751559296
 20
726.76125707858898
 30
0.0
 11
-971.33741751559296
 21
726.76125707858898
 31
0.0
  0
LINE
  5
1A9
  8
1
 62
     3
 10
-860.33741751559285
 20
761.76125707858887
 30
0.0
 11
-865.33741751559296
 21
761.76125707858887
 31
0.0
  0
LINE
  5
1AA
  8
1
 62
     7
 10
-1051.3374175155921
 20
859.80071306850311
 30
0.0
 11
-1041.3374175155921
 21
859.80071306850311
 31
0.0
  0
LINE
  5
1AB
  8
1
 62
     7
 10
-1051.3374175155921
 20
664.80071306850311
 30
0.0
 11
-1041.3374175155921
 21
664.80071306850311
 31
0.0
  0
LINE
  5
1AC
  8
1
 62
     7
 10
-1037.3374175155921
 20
855.800713068503
 30
0.0
 11
-1037.3374175155921
 21
668.80071306850311
 31
0.0
  0
LINE
  5
1AD
  8
1
 62
     7
 10
-1037.3374175155921
 20
770.76125707858887
 30
0.0
 11
-1037.037417515593
 21
770.76125707858887
 31
0.0
  0
LINE
  5
1AE
  8
1
 62
     7
 10
-1037.3374175155921
 20
825.40086738537843
 30
0.0
 11
-978.33741751559285
 21
825.40086738537843
 31
0.0
  0
LINE
  5
1AF
  8
1
 62
     7
 10
-1051.3374175155921
 20
859.80071306850311
 30
0.0
 11
-1051.3374175155921
 21
920.2439059711412
 31
0.0
  0
LINE
  5
1B0
  8
1
 62
     7
 10
-1051.3374175155921
 20
956.76125707858898
 30
0.0
 11
-1319.3374175155921
 21
956.76125707858898
 31
0.0
  0
LINE
  5
1B1
  8
1
 62
     7
 10
-1051.3374175155921
 20
859.80071306850311
 30
0.0
 11
-1051.3374175155921
 21
956.76125707858898
 31
0.0
  0
LINE
  5
1B2
  8
1
 62
     7
 10
-1161.337417515593
 20
956.76125707858932
 30
0.0
 11
-1161.337417515593
 21
961.76125707858898
 31
0.0
  0
LINE
  5
1B3
  8
1
 62
     7
 10
-981.33741751559296
 20
874.76125707858876
 30
0.0
 11
-981.33741751559296
 21
948.76125707858898
 31
0.0
  0
LINE
  5
1B4
  8
1
 62
     7
 10
-994.33741751559285
 20
861.76125707858887
 30
0.0
 11
-1034.588646243883
 21
861.76125707858898
 31
0.0
  0
LINE
  5
1B5
  8
1
 62
     7
 10
-994.33741751559285
 20
961.76125707858898
 30
0.0
 11
-1161.337417515593
 21
961.76125707858898
 31
0.0
  0
LINE
  5
1B6
  8
1
  6
DASHDOT
 62
     3
 10
-1000.905010376619
 20
932.30071306850334
 30
0.0
 11
-1049.769824654566
 21
932.30071306850334
 31
0.0
  0
LINE
  5
1B7
  8
1
  6
DASHDOT
 62
     3
 10
-1025.3374175155921
 20
956.73312020747608
 30
0.0
 11
-1025.3374175155921
 21
907.86830592953038
 31
0.0
  0
LINE
  5
1B8
  8
1
 62
     7
 10
-981.33741751559296
 20
574.76125707858876
 30
0.0
 11
-981.33741751559296
 21
648.76125707858887
 31
0.0
  0
LINE
  5
1B9
  8
1
 62
     7
 10
-1034.588646243883
 20
661.76125707858876
 30
0.0
 11
-994.33741751559285
 21
661.76125707858887
 31
0.0
  0
LINE
  5
1BA
  8
1
  6
DASHDOT
 62
     3
 10
-1049.769824654566
 20
591.22180108867451
 30
0.0
 11
-1000.905010376619
 21
591.22180108867451
 31
0.0
  0
LINE
  5
1BB
  8
1
  6
DASHDOT
 62
     3
 10
-1025.3374175155921
 20
615.65420822764736
 30
0.0
 11
-1025.3374175155921
 21
566.78939394970155
 31
0.0
  0
LINE
  5
1BC
  8
1
 62
     7
 10
-947.83741751559285
 20
769.26125707858898
 30
0.0
 11
-865.33741751559296
 21
769.26125707858898
 31
0.0
  0
LINE
  5
1BD
  8
1
 62
     7
 10
-947.83741751559285
 20
754.26125707858887
 30
0.0
 11
-865.33741751559296
 21
754.26125707858887
 31
0.0
  0
LINE
  5
1BE
  8
1
 62
     7
 10
-866.33741751559285
 20
754.26125707858887
 30
0.0
 11
-866.33741751559285
 21
731.76125707858898
 31
0.0
  0
LINE
  5
1BF
  8
1
 62
     7
 10
-1334.3374175155921
 20
769.5488215132907
 30
0.0
 11
-1333.637417515592
 21
770.76125707858887
 31
0.0
  0
LINE
  5
1C0
  8
1
 62
     7
 10
-1334.3374175155921
 20
753.97369264388715
 30
0.0
 11
-1334.3374175155921
 21
769.5488215132907
 31
0.0
  0
LINE
  5
1C1
  8
1
 62
     7
 10
-1333.637417515592
 20
752.76125707858898
 30
0.0
 11
-1334.3374175155921
 21
753.97369264388715
 31
0.0
  0
LINE
  5
1C2
  8
1
 62
     7
 10
-1333.3374175155921
 20
752.76125707858898
 30
0.0
 11
-1333.637417515592
 21
752.76125707858898
 31
0.0
  0
LINE
  5
1C3
  8
1
 62
     7
 10
-1333.637417515592
 20
752.76125707858898
 30
0.0
 11
-1333.637417515592
 21
770.76125707858887
 31
0.0
  0
LINE
  5
1C4
  8
1
 62
     7
 10
-1351.351965619051
 20
851.76125707858887
 30
0.0
 11
-1392.3374175155921
 21
851.76125707858887
 31
0.0
  0
LINE
  5
1C5
  8
1
 62
     7
 10
-1324.8186941508729
 20
868.82651666148877
 30
0.0
 11
-1392.3374175155921
 21
825.40086738537843
 31
0.0
  0
LINE
  5
1C6
  8
1
 62
     7
 10
-1392.3374175155921
 20
671.76125707858887
 30
0.0
 11
-1351.351965619051
 21
671.76125707858887
 31
0.0
  0
LINE
  5
1C7
  8
1
 62
     7
 10
-1392.3374175155921
 20
698.12164677179965
 30
0.0
 11
-1324.8186941508729
 21
654.6959974956892
 31
0.0
  0
LINE
  5
1C8
  8
1
 62
     7
 10
-1333.3374175155921
 20
698.12164677179965
 30
0.0
 11
-1392.3374175155921
 21
698.12164677179965
 31
0.0
  0
LINE
  5
1C9
  8
1
 62
     7
 10
-1392.3374175155921
 20
671.76125707858887
 30
0.0
 11
-1392.3374175155921
 21
851.76125707858887
 31
0.0
  0
LINE
  5
1CA
  8
1
 62
     7
 10
-1319.3374175155921
 20
664.80071306850311
 30
0.0
 11
-1319.3374175155921
 21
567.84016905841702
 31
0.0
  0
LINE
  5
1CB
  8
1
 62
     7
 10
-1399.3374175155921
 20
791.76125707858887
 30
0.0
 11
-1504.3374175155921
 21
791.76125707858887
 31
0.0
  0
LINE
  5
1CC
  8
1
 62
     7
 10
-1399.3374175155921
 20
731.76125707858898
 30
0.0
 11
-1504.3374175155921
 21
731.76125707858898
 31
0.0
  0
LINE
  5
1CD
  8
1
 62
     7
 10
-1505.3374175155921
 20
732.76125707858887
 30
0.0
 11
-1505.3374175155921
 21
790.76125707858887
 31
0.0
  0
LINE
  5
1CE
  8
1
 62
     7
 10
-1504.3374175155921
 20
791.76125707858887
 30
0.0
 11
-1505.3374175155921
 21
790.76125707858887
 31
0.0
  0
LINE
  5
1CF
  8
1
 62
     7
 10
-1504.3374175155921
 20
731.76125707858898
 30
0.0
 11
-1505.3374175155921
 21
732.76125707858887
 31
0.0
  0
LINE
  5
1D0
  8
1
 62
     7
 10
-1504.3374175155921
 20
769.26125707858898
 30
0.0
 11
-1504.3374175155921
 21
791.76125707858887
 31
0.0
  0
LINE
  5
1D1
  8
1
 62
     7
 10
-1399.3374175155921
 20
726.76125707858898
 30
0.0
 11
-1399.3374175155921
 21
796.76125707858887
 31
0.0
  0
LINE
  5
1D2
  8
1
 62
     7
 10
-1393.8374175155921
 20
801.66125707858907
 30
0.0
 11
-1392.3374175155921
 21
801.66125707858907
 31
0.0
  0
LINE
  5
1D3
  8
1
 62
     7
 10
-1399.3374175155921
 20
796.76125707858887
 30
0.0
 11
-1393.8374175155921
 21
796.76125707858887
 31
0.0
  0
LINE
  5
1D4
  8
1
 62
     7
 10
-1392.3374175155921
 20
721.86125707858889
 30
0.0
 11
-1393.8374175155921
 21
721.86125707858889
 31
0.0
  0
LINE
  5
1D5
  8
1
 62
     7
 10
-1393.8374175155921
 20
801.66125707858907
 30
0.0
 11
-1393.8374175155921
 21
721.86125707858889
 31
0.0
  0
LINE
  5
1D6
  8
1
 62
     7
 10
-1399.3374175155921
 20
726.76125707858898
 30
0.0
 11
-1393.8374175155921
 21
726.76125707858898
 31
0.0
  0
LINE
  5
1D7
  8
1
 62
     3
 10
-1505.3374175155921
 20
761.76125707858887
 30
0.0
 11
-1510.3374175155921
 21
761.76125707858887
 31
0.0
  0
LINE
  5
1D8
  8
1
 62
     7
 10
-1329.3374175155921
 20
859.80071306850311
 30
0.0
 11
-1319.3374175155921
 21
859.80071306850311
 31
0.0
  0
LINE
  5
1D9
  8
1
 62
     7
 10
-1329.3374175155921
 20
664.80071306850311
 30
0.0
 11
-1319.3374175155921
 21
664.80071306850311
 31
0.0
  0
LINE
  5
1DA
  8
1
 62
     7
 10
-1333.3374175155921
 20
668.80071306850311
 30
0.0
 11
-1333.3374175155921
 21
855.800713068503
 31
0.0
  0
LINE
  5
1DB
  8
1
 62
     7
 10
-1333.637417515592
 20
770.76125707858887
 30
0.0
 11
-1333.3374175155921
 21
770.76125707858887
 31
0.0
  0
LINE
  5
1DC
  8
1
 62
     7
 10
-1392.3374175155921
 20
825.40086738537843
 30
0.0
 11
-1333.3374175155921
 21
825.40086738537843
 31
0.0
  0
LINE
  5
1DD
  8
1
 62
     7
 10
-1319.3374175155921
 20
920.2439059711412
 30
0.0
 11
-1319.3374175155921
 21
859.80071306850311
 31
0.0
  0
LINE
  5
1DE
  8
1
 62
     7
 10
-1319.3374175155921
 20
567.84016905841702
 30
0.0
 11
-1224.3374175155921
 21
567.84016905841702
 31
0.0
  0
LINE
  5
1DF
  8
1
 62
     7
 10
-1319.3374175155921
 20
956.76125707858898
 30
0.0
 11
-1319.3374175155921
 21
859.80071306850311
 31
0.0
  0
LINE
  5
1E0
  8
1
 62
     7
 10
-1209.3374175155921
 20
961.76125707858898
 30
0.0
 11
-1209.3374175155921
 21
956.76125707858932
 31
0.0
  0
LINE
  5
1E1
  8
1
 62
     7
 10
-1389.3374175155921
 20
948.76125707858898
 30
0.0
 11
-1389.3374175155921
 21
874.76125707858876
 31
0.0
  0
LINE
  5
1E2
  8
1
 62
     7
 10
-1336.086188787302
 20
861.76125707858898
 30
0.0
 11
-1376.3374175155921
 21
861.76125707858887
 31
0.0
  0
LINE
  5
1E3
  8
1
 62
     7
 10
-1209.3374175155921
 20
961.76125707858898
 30
0.0
 11
-1376.3374175155921
 21
961.76125707858898
 31
0.0
  0
LINE
  5
1E4
  8
1
  6
DASHDOT
 62
     3
 10
-1320.905010376619
 20
932.30071306850334
 30
0.0
 11
-1369.769824654564
 21
932.30071306850334
 31
0.0
  0
LINE
  5
1E5
  8
1
  6
DASHDOT
 62
     3
 10
-1345.3374175155921
 20
907.86830592953038
 30
0.0
 11
-1345.3374175155921
 21
956.73312020747608
 31
0.0
  0
LINE
  5
1E6
  8
1
 62
     7
 10
-1376.3374175155921
 20
561.76125707858876
 30
0.0
 11
-1229.337417515593
 21
561.76125707858876
 31
0.0
  0
LINE
  5
1E7
  8
1
 62
     7
 10
-1389.3374175155921
 20
648.76125707858887
 30
0.0
 11
-1389.3374175155921
 21
574.76125707858876
 31
0.0
  0
LINE
  5
1E8
  8
1
 62
     7
 10
-1376.3374175155921
 20
661.76125707858887
 30
0.0
 11
-1336.086188787302
 21
661.76125707858876
 31
0.0
  0
LINE
  5
1E9
  8
1
  6
DASHDOT
 62
     3
 10
-1369.769824654564
 20
591.22180108867451
 30
0.0
 11
-1320.905010376619
 21
591.22180108867451
 31
0.0
  0
LINE
  5
1EA
  8
1
  6
DASHDOT
 62
     3
 10
-1345.3374175155921
 20
566.78939394970155
 30
0.0
 11
-1345.3374175155921
 21
615.65420822764736
 31
0.0
  0
LINE
  5
1EB
  8
1
 62
     7
 10
-1505.3374175155921
 20
769.26125707858898
 30
0.0
 11
-1422.8374175155921
 21
769.26125707858898
 31
0.0
  0
LINE
  5
1EC
  8
1
 62
     7
 10
-1505.3374175155921
 20
754.26125707858887
 30
0.0
 11
-1422.8374175155921
 21
754.26125707858887
 31
0.0
  0
LINE
  5
1ED
  8
1
 62
     7
 10
-1504.3374175155921
 20
731.76125707858898
 30
0.0
 11
-1504.3374175155921
 21
754.26125707858887
 31
0.0
  0
LINE
  5
1EE
  8
1
 62
     7
 10
-1141.337417515593
 20
561.76125707858876
 30
0.0
 11
-994.33741751559285
 21
561.76125707858876
 31
0.0
  0
LINE
  5
1EF
  8
1
 62
     7
 10
-1146.337417515593
 20
567.84016905841702
 30
0.0
 11
-1051.3374175155921
 21
567.84016905841702
 31
0.0
  0
LINE
  5
1F0
  8
1
 62
     7
 10
-1071.337417515593
 20
756.76125707858887
 30
0.0
 11
-1111.337417515593
 21
756.76125707858887
 31
0.0
  0
LINE
  5
1F1
  8
1
 62
     7
 10
-1111.337417515593
 20
766.76125707858876
 30
0.0
 11
-1071.337417515593
 21
766.76125707858876
 31
0.0
  0
LINE
  5
1F2
  8
1
 62
     7
 10
-1259.3374175155921
 20
756.76125707858887
 30
0.0
 11
-1299.3374175155921
 21
756.76125707858887
 31
0.0
  0
LINE
  5
1F3
  8
1
 62
     7
 10
-1299.3374175155921
 20
766.76125707858876
 30
0.0
 11
-1259.3374175155921
 21
766.76125707858876
 31
0.0
  0
LINE
  5
1F4
  8
1
 62
     7
 10
-685.01957732638675
 20
156.549478757239
 30
0.0
 11
-709.38357612266873
 21
87.549478757239044
 31
0.0
  0
LINE
  5
1F5
  8
1
 62
     7
 10
-708.93690372339086
 20
91.216524269751247
 30
0.0
 11
-709.25424426076495
 21
91.216524269751247
 31
0.0
  0
LINE
  5
1F6
  8
1
 62
     7
 10
-701.55177051994121
 20
86.216524269751247
 30
0.0
 11
-708.44063322447084
 21
86.216524269751247
 31
0.0
  0
LINE
  5
1F7
  8
1
 62
     7
 10
-679.32491239886144
 20
155.88356978226361
 30
0.0
 11
-703.68891119514342
 21
86.883569782263606
 31
0.0
  0
LINE
  5
1F8
  8
1
 62
     7
 10
-709.85424426076509
 20
91.816524269751412
 30
0.0
 11
-709.85424426076509
 21
151.71652426975129
 31
0.0
  0
LINE
  5
1F9
  8
1
 62
     7
 10
-708.85424426076509
 20
152.71652426975129
 30
0.0
 11
-687.08040721669249
 21
152.71652426975129
 31
0.0
  0
LINE
  5
1FA
  8
1
 62
     7
 10
-684.07663442818875
 20
157.21652426975109
 30
0.0
 11
-680.26785529705921
 21
157.21652426975109
 31
0.0
  0
LINE
  5
1FB
  8
1
 62
     7
 10
-679.66577571026869
 20
154.91822871966741
 30
0.0
 11
-676.40472290718481
 21
154.04443225460531
 31
0.0
  0
LINE
  5
1FC
  8
1
 62
     7
 10
-700.5517705199411
 20
87.216524269751247
 30
0.0
 11
-700.5517705199411
 21
91.716524269751275
 31
0.0
  0
LINE
  5
1FD
  8
1
 62
     7
 10
-699.55177051994121
 20
92.716524269751261
 30
0.0
 11
-677.05177051994121
 21
92.716524269751261
 31
0.0
  0
LINE
  5
1FE
  8
1
 62
     7
 10
-1143.337417515593
 20
533.50959126192117
 30
0.0
 11
-1227.337417515593
 21
533.50959126192117
 31
0.0
  0
LINE
  5
1FF
  8
1
 62
     7
 10
-1225.837417515593
 20
559.04707618118721
 30
0.0
 11
-1225.837417515593
 21
535.50959126192095
 31
0.0
  0
LINE
  5
200
  8
1
 62
     7
 10
-1144.837417515593
 20
559.04707618118755
 30
0.0
 11
-1144.837417515593
 21
535.50959126192106
 31
0.0
  0
LINE
  5
201
  8
1
 62
     7
 10
-1229.337417515593
 20
564.02373955062171
 30
0.0
 11
-1229.337417515593
 21
535.50959126192106
 31
0.0
  0
LINE
  5
202
  8
1
 62
     7
 10
-1141.337417515593
 20
564.02373955062205
 30
0.0
 11
-1141.337417515593
 21
535.50959126192106
 31
0.0
  0
LINE
  5
203
  8
1
 62
     7
 10
-1141.337417515593
 20
564.02373955062205
 30
0.0
 11
-1229.337417515593
 21
564.02373955062171
 31
0.0
  0
LINE
  5
204
  8
1
 62
     7
 10
-1143.337417515593
 20
559.04707618118755
 30
0.0
 11
-1227.337417515593
 21
559.04707618118721
 31
0.0
  0
LINE
  5
205
  8
1
 62
     7
 10
-1224.3374175155921
 20
568.08661732375947
 30
0.0
 11
-1224.3374175155921
 21
564.02373955062171
 31
0.0
  0
LINE
  5
206
  8
1
 62
     7
 10
-1146.337417515593
 20
568.08661732375947
 30
0.0
 11
-1146.337417515593
 21
564.02373955062205
 31
0.0
  0
LINE
  5
207
  8
1
 62
     7
 10
-1148.337417515593
 20
570.08661732375958
 30
0.0
 11
-1222.337417515593
 21
570.08661732375958
 31
0.0
  0
LINE
  5
208
  8
1
 62
     7
 10
-1185.0299175155931
 20
93.266524269751315
 30
0.0
 11
-1185.6449175155919
 21
93.266524269751315
 31
0.0
  0
LINE
  5
209
  8
1
 62
     7
 10
-1187.387417515592
 20
91.524024269751237
 30
0.0
 11
-1187.387417515592
 21
90.909024269751256
 31
0.0
  0
LINE
  5
20A
  8
1
 62
     7
 10
-1185.6449175155919
 20
89.166524269751307
 30
0.0
 11
-1185.0299175155931
 21
89.166524269751307
 31
0.0
  0
LINE
  5
20B
  8
1
 62
     7
 10
-1183.287417515593
 20
90.909024269751256
 30
0.0
 11
-1183.287417515593
 21
91.524024269751237
 31
0.0
  0
LINE
  5
20C
  8
1
 62
     7
 10
-1194.037417515593
 20
91.216524269751247
 30
0.0
 11
-1220.837417515593
 21
91.216524269751247
 31
0.0
  0
LINE
  5
20D
  8
1
 62
     7
 10
-1229.337417515593
 20
91.216524269751247
 30
0.0
 11
-1229.337417515593
 21
152.21652426975109
 31
0.0
  0
LINE
  5
20E
  8
1
 62
     7
 10
-1146.337417515593
 20
86.216524269751247
 30
0.0
 11
-1224.3374175155921
 21
86.216524269751247
 31
0.0
  0
LINE
  5
20F
  8
1
 62
     7
 10
-1141.337417515593
 20
152.21652426975109
 30
0.0
 11
-1141.337417515593
 21
91.216524269751247
 31
0.0
  0
LINE
  5
210
  8
1
 62
     7
 10
-1224.3374175155921
 20
157.21652426975109
 30
0.0
 11
-1146.337417515593
 21
157.21652426975109
 31
0.0
  0
LINE
  5
211
  8
1
 62
     7
 10
-1225.837417515593
 20
96.216524269751247
 30
0.0
 11
-1225.837417515593
 21
147.71652426975109
 31
0.0
  0
LINE
  5
212
  8
1
 62
     7
 10
-1149.8374175155921
 20
91.216524269751247
 30
0.0
 11
-1176.637417515592
 21
91.216524269751247
 31
0.0
  0
LINE
  5
213
  8
1
 62
     7
 10
-1144.837417515593
 20
147.71652426975109
 30
0.0
 11
-1144.837417515593
 21
96.216524269751247
 31
0.0
  0
LINE
  5
214
  8
1
 62
     7
 10
-1220.837417515593
 20
152.71652426975109
 30
0.0
 11
-1149.8374175155921
 21
152.71652426975109
 31
0.0
  0
LINE
  5
215
  8
1
 62
     7
 10
-469.10257844409688
 20
318.42307097931689
 30
0.0
 11
-470.10257844409688
 21
327.42307097931678
 31
0.0
  0
LINE
  5
216
  8
1
 62
     7
 10
-470.10257844409688
 20
327.42307097931678
 30
0.0
 11
-476.60257844409688
 21
328.55350576192558
 31
0.0
  0
LINE
  5
217
  8
1
 62
     7
 10
-486.60257844409699
 20
328.55350576192558
 30
0.0
 11
-493.10257844409688
 21
327.42307097931678
 31
0.0
  0
LINE
  5
218
  8
1
 62
     7
 10
-476.60257844409688
 20
320.42307097931689
 30
0.0
 11
-476.60257844409688
 21
364.42307097931678
 31
0.0
  0
LINE
  5
219
  8
1
 62
     7
 10
-1102.256034099654
 20
327.12307097931699
 30
0.0
 11
-1080.606857621734
 21
327.12307097931699
 31
0.0
  0
LINE
  5
21A
  8
1
 62
     7
 10
-1080.577054779842
 20
327.55170354701261
 30
0.0
 11
-1091.3374175155921
 21
329.42307097931678
 31
0.0
  0
LINE
  5
21B
  8
1
 62
     7
 10
-1091.3374175155921
 20
329.42307097931678
 30
0.0
 11
-1102.0977802513421
 21
327.55170354701261
 31
0.0
  0
LINE
  5
21C
  8
1
 62
     7
 10
-1102.920322811264
 20
326.67692331826782
 30
0.0
 11
-1103.8374175155921
 21
318.42307097931689
 31
0.0
  0
LINE
  5
21D
  8
1
 62
     7
 10
-493.10257844409688
 20
327.42307097931678
 30
0.0
 11
-494.10257844409688
 21
318.42307097931689
 31
0.0
  0
LINE
  5
21E
  8
1
 62
     7
 10
-494.10257844409688
 20
318.42307097931689
 30
0.0
 11
-469.10257844409688
 21
318.42307097931689
 31
0.0
  0
LINE
  5
21F
  8
1
 62
     7
 10
-486.60257844409699
 20
364.42307097931678
 30
0.0
 11
-486.60257844409699
 21
320.42307097931689
 31
0.0
  0
LINE
  5
220
  8
1
 62
     7
 10
-1290.2560340996531
 20
327.12307097931699
 30
0.0
 11
-1268.6068576217319
 21
327.12307097931699
 31
0.0
  0
LINE
  5
221
  8
1
 62
     7
 10
-1267.754512219919
 20
326.67692331826782
 30
0.0
 11
-1266.8374175155921
 21
318.42307097931689
 31
0.0
  0
LINE
  5
222
  8
1
 62
     7
 10
-1268.577054779842
 20
327.55170354701261
 30
0.0
 11
-1279.3374175155921
 21
329.42307097931678
 31
0.0
  0
LINE
  5
223
  8
1
 62
     7
 10
-1279.3374175155921
 20
329.42307097931678
 30
0.0
 11
-1290.0977802513421
 21
327.55170354701261
 31
0.0
  0
ARC
  5
224
  8
1
 62
     7
 10
-1047.337417515593
 20
277.90571987186928
 30
0.0
 40
4.0
 50
90.0
 51
180.0
  0
ARC
  5
225
  8
1
 62
     7
 10
-1323.337417515593
 20
277.90571987186928
 30
0.0
 40
4.0
 50
0.0
 51
90.0
  0
ARC
  5
226
  8
1
 62
     7
 10
-1329.337417515593
 20
314.423070979317
 30
0.0
 40
4.0
 50
90.0
 51
180.0
  0
ARC
  5
227
  8
1
 62
     7
 10
-1329.337417515593
 20
285.90571987186928
 30
0.0
 40
4.0
 50
180.0
 51
270.0
  0
ARC
  5
228
  8
1
 62
     7
 10
-1041.3374175155921
 20
285.90571987186928
 30
0.0
 40
4.0
 50
270.0
 51
0.0
  0
ARC
  5
229
  8
1
 62
     7
 10
-1041.3374175155921
 20
314.423070979317
 30
0.0
 40
4.0
 50
0.0
 51
90.0
  0
ARC
  5
22A
  8
1
 62
     7
 10
-1329.3374175155921
 20
668.80071306850311
 30
0.0
 40
4.0
 50
180.0
 51
270.0
  0
ARC
  5
22B
  8
1
 62
     7
 10
-1041.3374175155921
 20
668.80071306850311
 30
0.0
 40
4.0
 50
270.0
 51
0.0
  0
ARC
  5
22C
  8
1
 62
     7
 10
-1041.3374175155921
 20
855.800713068503
 30
0.0
 40
4.0
 50
0.0
 51
90.0
  0
ARC
  5
22D
  8
1
 62
     7
 10
-1329.3374175155921
 20
855.800713068503
 30
0.0
 40
4.0
 50
90.0
 51
180.0
  0
ARC
  5
22E
  8
1
 62
     7
 10
-564.99141984234291
 20
273.85678106538182
 30
0.0
 40
3.000000000000048
 50
209.99999999999949
 51
299.00060433168181
  0
ARC
  5
22F
  8
1
 62
     7
 10
-567.99186088553211
 20
279.05369739730043
 30
0.0
 40
3.0000000000002092
 50
119.0342950721507
 51
209.99999999999949
  0
ARC
  5
230
  8
1
 62
     7
 10
-499.60257844409699
 20
300.51061994874613
 30
0.0
 40
3.0
 50
0.0
 51
95.803875764273684
  0
ARC
  5
231
  8
1
 62
     7
 10
-499.60257844409699
 20
294.47861751318419
 30
0.0
 40
3.0000000000000848
 50
276.00706893478213
 51
0.0
  0
ARC
  5
232
  8
1
 62
     7
 10
-463.60257844409699
 20
300.51061994874613
 30
0.0
 40
2.9999999999998841
 50
84.196124235727822
 51
180.0
  0
ARC
  5
233
  8
1
 62
     7
 10
-463.60257844409699
 20
294.47861751318419
 30
0.0
 40
3.0
 50
180.0
 51
263.99293106521583
  0
ARC
  5
234
  8
1
 62
     7
 10
-398.21373704585108
 20
273.85678106538182
 30
0.0
 40
3.0000000000000511
 50
240.99939566831731
 51
329.99999999999932
  0
ARC
  5
235
  8
1
 62
     7
 10
-395.21329600266182
 20
279.05369739730043
 30
0.0
 40
2.9999999999999512
 50
329.99999999999932
 51
60.965704927852059
  0
ARC
  5
236
  8
1
 62
     7
 10
-584.60257844409705
 20
-49.576929020682996
 30
0.0
 40
3.0
 50
0.0
 51
90.0
  0
ARC
  5
237
  8
1
 62
     7
 10
-678.60257844409716
 20
-49.576929020682996
 30
0.0
 40
3.0
 50
90.0
 51
180.0
  0
ARC
  5
238
  8
1
 62
     7
 10
-631.60257844409705
 20
-16.308815145504202
 30
0.0
 40
10.0
 50
0.0
 51
42.97028393174201
  0
ARC
  5
239
  8
1
 62
     7
 10
-331.60257844409699
 20
-16.308815145504202
 30
0.0
 40
10.000000000000149
 50
137.0297160682577
 51
180.0
  0
ARC
  5
23A
  8
1
 62
     7
 10
-284.60257844409688
 20
-49.576929020682996
 30
0.0
 40
3.0
 50
0.0
 51
90.0
  0
ARC
  5
23B
  8
1
 62
     7
 10
-378.60257844409688
 20
-49.576929020682996
 30
0.0
 40
3.0
 50
90.0
 51
180.0
  0
ARC
  5
23C
  8
1
 62
     7
 10
-336.60257844409699
 20
-41.576929020682996
 30
0.0
 40
5.0
 50
180.0
 51
270.0
  0
ARC
  5
23D
  8
1
 62
     7
 10
-352.60257844409699
 20
-41.576929020682996
 30
0.0
 40
5.0
 50
180.0
 51
270.0
  0
ARC
  5
23E
  8
1
 62
     7
 10
-626.60257844409705
 20
-41.576929020682996
 30
0.0
 40
5.0
 50
270.0
 51
0.0
  0
ARC
  5
23F
  8
1
 62
     7
 10
-610.60257844409705
 20
-41.576929020682996
 30
0.0
 40
5.0
 50
270.0
 51
0.0
  0
ARC
  5
240
  8
1
 62
     7
 10
-577.60257844409705
 20
-75.576929020682982
 30
0.0
 40
4.0
 50
90.0
 51
180.0
  0
ARC
  5
241
  8
1
 62
     7
 10
-385.60257844409699
 20
-75.576929020682982
 30
0.0
 40
4.0
 50
0.0
 51
90.0
  0
ARC
  5
242
  8
1
 62
     7
 10
-536.70892297050989
 20
-45.832034683514593
 30
0.0
 40
2.999999999999921
 50
71.965704927851661
 51
161.0000000000002
  0
ARC
  5
243
  8
1
 62
     7
 10
-426.49623391768398
 20
-45.832034683514529
 30
0.0
 40
3.0000000000000462
 50
18.999999999999819
 51
108.03429507215181
  0
ARC
  5
244
  8
1
 62
     7
 10
-337.66020424377871
 20
18.711118893724031
 30
0.0
 40
3.0000000000000782
 50
143.9657049278546
 51
233.0000000000008
  0
ARC
  5
245
  8
1
 62
     7
 10
-322.86010704100892
 20
42.894642627337888
 30
0.0
 40
2.999999999999996
 50
66.000000000000099
 51
153.10178661032191
  0
ARC
  5
246
  8
1
 62
     7
 10
-315.53884746564472
 20
59.338460864904746
 30
0.0
 40
2.9999999999999041
 50
158.8982133896732
 51
246.0000000000002
  0
ARC
  5
247
  8
1
 62
     7
 10
-306.85264153440937
 20
89.563662389379857
 30
0.0
 40
3.0000000000000031
 50
80.000000000000369
 51
169.03429507215151
  0
ARC
  5
248
  8
1
 62
     7
 10
-472.10257844409688
 20
85.330214580352504
 30
0.0
 40
2.5
 50
270.0
 51
0.0
  0
ARC
  5
249
  8
1
 62
     7
 10
-491.10257844409699
 20
85.330214580352504
 30
0.0
 40
2.5
 50
180.0
 51
270.0
  0
ARC
  5
24A
  8
1
 62
     7
 10
-465.85257844409688
 20
86.366713602561504
 30
0.0
 40
3.749999999999996
 50
112.0851877406414
 51
180.0
  0
ARC
  5
24B
  8
1
 62
     7
 10
-497.35257844409699
 20
86.366713602561504
 30
0.0
 40
3.75
 50
0.0
 51
67.914812259360573
  0
ARC
  5
24C
  8
1
 62
     7
 10
-986.33741751559285
 20
-51.576929020682996
 30
0.0
 40
5.0
 50
0.0
 51
90.0
  0
ARC
  5
24D
  8
1
 62
     7
 10
-1132.337417515593
 20
-41.576929020682996
 30
0.0
 40
5.0
 50
180.0
 51
270.0
  0
ARC
  5
24E
  8
1
 62
     7
 10
-1046.337417515593
 20
-41.576929020682996
 30
0.0
 40
5.0
 50
180.0
 51
270.0
  0
ARC
  5
24F
  8
1
 62
     7
 10
-1384.337417515593
 20
-51.576929020682996
 30
0.0
 40
5.0
 50
90.0
 51
180.0
  0
ARC
  5
250
  8
1
 62
     7
 10
-1238.337417515593
 20
-41.576929020682996
 30
0.0
 40
5.0
 50
270.0
 51
0.0
  0
ARC
  5
251
  8
1
 62
     7
 10
-1324.337417515593
 20
-41.576929020682996
 30
0.0
 40
5.0
 50
270.0
 51
0.0
  0
ARC
  5
252
  8
1
 62
     7
 10
-994.33741751559285
 20
948.76125707858898
 30
0.0
 40
13.0
 50
0.0
 51
90.0
  0
ARC
  5
253
  8
1
 62
     7
 10
-994.33741751559285
 20
874.76125707858887
 30
0.0
 40
13.00000000000011
 50
270.0
 51
0.0
  0
ARC
  5
254
  8
1
 62
     7
 10
-994.33741751559285
 20
574.76125707858876
 30
0.0
 40
13.0
 50
270.0
 51
0.0
  0
ARC
  5
255
  8
1
 62
     7
 10
-994.33741751559285
 20
648.76125707858876
 30
0.0
 40
13.0
 50
0.0
 51
90.0
  0
ARC
  5
256
  8
1
 62
     7
 10
-1376.3374175155921
 20
948.76125707858898
 30
0.0
 40
13.0
 50
90.0
 51
180.0
  0
ARC
  5
257
  8
1
 62
     7
 10
-1376.3374175155921
 20
874.76125707858887
 30
0.0
 40
13.0
 50
180.0
 51
270.0
  0
ARC
  5
258
  8
1
 62
     7
 10
-1376.3374175155921
 20
574.76125707858876
 30
0.0
 40
13.0
 50
180.0
 51
270.0
  0
ARC
  5
259
  8
1
 62
     7
 10
-1376.3374175155921
 20
648.76125707858876
 30
0.0
 40
13.00000000000011
 50
90.0
 51
180.0
  0
ARC
  5
25A
  8
1
 62
     7
 10
-1071.337417515593
 20
761.76125707858887
 30
0.0
 40
5.0
 50
270.0
 51
90.0
  0
ARC
  5
25B
  8
1
 62
     7
 10
-1111.337417515593
 20
761.76125707858887
 30
0.0
 40
5.0
 50
90.0
 51
270.0
  0
ARC
  5
25C
  8
1
 62
     7
 10
-1259.3374175155921
 20
761.76125707858887
 30
0.0
 40
5.0
 50
270.0
 51
90.0
  0
ARC
  5
25D
  8
1
 62
     7
 10
-1299.3374175155921
 20
761.76125707858887
 30
0.0
 40
5.0
 50
90.0
 51
270.0
  0
ARC
  5
25E
  8
1
 62
     7
 10
-687.08040721669249
 20
153.71652426975129
 30
0.0
 40
1.0
 50
270.0
 51
340.55180070494629
  0
ARC
  5
25F
  8
1
 62
     7
 10
-708.85424426076509
 20
151.71652426975129
 30
0.0
 40
1.0
 50
90.0
 51
180.0
  0
ARC
  5
260
  8
1
 62
     7
 10
-684.07663442818875
 20
156.21652426975109
 30
0.0
 40
1.0
 50
90.0
 51
160.55180070494029
  0
ARC
  5
261
  8
1
 62
     7
 10
-680.26785529705921
 20
156.21652426975109
 30
0.0
 40
0.9999999999999776
 50
340.55180070495101
 51
90.0
  0
ARC
  5
262
  8
1
 62
     7
 10
-704.63185409334119
 20
87.216524269751247
 30
0.0
 40
1.0
 50
270.0
 51
340.55180070494657
  0
ARC
  5
263
  8
1
 62
     7
 10
-708.44063322447084
 20
87.216524269751247
 30
0.0
 40
1.0000000000000391
 50
160.55180070494089
 51
270.0
  0
ARC
  5
264
  8
1
 62
     7
 10
-708.93690372339086
 20
90.616524269751338
 30
0.0
 40
0.5999999999999625
 50
340.55180070494441
 51
90.0
  0
ARC
  5
265
  8
1
 62
     7
 10
-709.25424426076495
 20
91.816524269751412
 30
0.0
 40
0.5999999999999091
 50
180.0
 51
270.0
  0
ARC
  5
266
  8
1
 62
     7
 10
-701.55177051994121
 20
87.216524269751247
 30
0.0
 40
1.0
 50
270.0
 51
0.0
  0
ARC
  5
267
  8
1
 62
     7
 10
-699.55177051994121
 20
91.716524269751275
 30
0.0
 40
1.0
 50
90.0
 51
180.0
  0
ARC
  5
268
  8
1
 62
     7
 10
-1143.337417515593
 20
535.50959126192106
 30
0.0
 40
2.0
 50
270.0
 51
0.0
  0
ARC
  5
269
  8
1
 62
     7
 10
-1227.337417515593
 20
535.50959126192106
 30
0.0
 40
2.0
 50
180.0
 51
270.0
  0
ARC
  5
26A
  8
1
 62
     7
 10
-1143.337417515593
 20
561.04707618118755
 30
0.0
 40
2.0
 50
270.0
 51
0.0
  0
ARC
  5
26B
  8
1
 62
     7
 10
-1227.337417515593
 20
561.04707618118732
 30
0.0
 40
2.0
 50
180.0
 51
270.0
  0
ARC
  5
26C
  8
1
 62
     7
 10
-1146.837417515593
 20
535.50959126192106
 30
0.0
 40
2.0
 50
270.0
 51
0.0
  0
ARC
  5
26D
  8
1
 62
     7
 10
-1223.837417515593
 20
535.50959126192095
 30
0.0
 40
2.0
 50
180.0
 51
270.0
  0
ARC
  5
26E
  8
1
 62
     7
 10
-1222.337417515593
 20
568.08661732375947
 30
0.0
 40
2.0
 50
90.0
 51
180.0
  0
ARC
  5
26F
  8
1
 62
     7
 10
-1148.337417515593
 20
568.08661732375947
 30
0.0
 40
2.0
 50
0.0
 51
90.0
  0
ARC
  5
270
  8
1
 62
     7
 10
-1224.3374175155921
 20
91.216524269751247
 30
0.0
 40
5.0
 50
180.0
 51
270.0
  0
ARC
  5
271
  8
1
 62
     7
 10
-1220.837417515593
 20
96.216524269751247
 30
0.0
 40
5.0
 50
180.0
 51
270.0
  0
ARC
  5
272
  8
1
 62
     7
 10
-1146.337417515593
 20
91.216524269751247
 30
0.0
 40
5.0
 50
270.0
 51
0.0
  0
ARC
  5
273
  8
1
 62
     7
 10
-1149.8374175155921
 20
96.216524269751247
 30
0.0
 40
5.0
 50
270.0
 51
0.0
  0
ARC
  5
274
  8
1
 62
     7
 10
-1149.8374175155921
 20
147.71652426975109
 30
0.0
 40
5.0
 50
0.0
 51
90.0
  0
ARC
  5
275
  8
1
 62
     7
 10
-1146.337417515593
 20
152.21652426975109
 30
0.0
 40
5.0
 50
0.0
 51
90.0
  0
ARC
  5
276
  8
1
 62
     7
 10
-1220.837417515593
 20
147.71652426975109
 30
0.0
 40
5.0
 50
90.0
 51
180.0
  0
ARC
  5
277
  8
1
 62
     7
 10
-1224.3374175155921
 20
152.21652426975109
 30
0.0
 40
5.0
 50
90.0
 51
180.0
  0
ARC
  5
278
  8
1
 62
     7
 10
-1080.7483959545939
 20
326.56649179219301
 30
0.0
 40
1.0000000000003819
 50
6.3401917459091921
 51
80.134193056867076
  0
ARC
  5
279
  8
1
 62
     7
 10
-1101.926439076592
 20
326.56649179219301
 30
0.0
 40
0.9999999999999945
 50
99.865806943068733
 51
173.65980825409079
  0
ARC
  5
27A
  8
1
 62
     7
 10
-1072.9188247179061
 20
319.4880466289581
 30
0.0
 40
6.000000000000191
 50
126.4519297808103
 51
186.34019174590961
  0
ARC
  5
27B
  8
1
 62
     7
 10
-1109.7560103132801
 20
319.4880466289581
 30
0.0
 40
6.0000000000002407
 50
353.65980825409031
 51
53.548070219188013
  0
ARC
  5
27C
  8
1
 62
     7
 10
-1268.748395954593
 20
326.56649179219301
 30
0.0
 40
1.0000000000003819
 50
6.3401917459091921
 51
80.134193056879923
  0
ARC
  5
27D
  8
1
 62
     7
 10
-1289.9264390765909
 20
326.56649179219301
 30
0.0
 40
1.000000000000032
 50
99.865806943081552
 51
173.65980825408499
  0
ARC
  5
27E
  8
1
 62
     7
 10
-1260.918824717905
 20
319.4880466289581
 30
0.0
 40
6.000000000000326
 50
126.45192978081189
 51
186.34019174590961
  0
ARC
  5
27F
  8
1
 62
     7
 10
-1297.7560103132789
 20
319.4880466289581
 30
0.0
 40
6.0000000000002407
 50
353.65980825409031
 51
53.548070219189754
  0
ARC
  5
280
  8
1
 62
     7
 10
-1331.2408618530851
 20
893.06401666148895
 30
0.0
 40
5.0965556625057333
 50
137.20475610973091
 51
222.79524389026889
  0
ARC
  5
281
  8
1
 62
     7
 10
-1317.986354564461
 20
882.67651666148879
 30
0.0
 40
18.351062951130711
 50
157.82960486303631
 51
202.17039513696341
  0
ARC
  5
282
  8
1
 62
     7
 10
-1331.2408618530851
 20
872.28901666148863
 30
0.0
 40
5.0965556625058106
 50
137.20475610972991
 51
222.79524389026801
  0
ARC
  5
283
  8
1
 62
     7
 10
-1331.2408618530851
 20
651.23349749568922
 30
0.0
 40
5.0965556625057333
 50
137.20475610973091
 51
222.79524389026889
  0
ARC
  5
284
  8
1
 62
     7
 10
-1317.986354564461
 20
640.84599749568918
 30
0.0
 40
18.351062951130711
 50
157.82960486303631
 51
202.17039513696341
  0
ARC
  5
285
  8
1
 62
     7
 10
-1331.2408618530851
 20
630.45849749568924
 30
0.0
 40
5.0965556625058106
 50
137.20475610972991
 51
222.79524389026801
  0
ARC
  5
286
  8
1
 62
     7
 10
-1331.240861853086
 20
12.895311396417471
 30
0.0
 40
5.0965556625059021
 50
137.2047561097327
 51
222.7952438902675
  0
ARC
  5
287
  8
1
 62
     7
 10
-1317.986354564461
 20
2.5078113964174511
 30
0.0
 40
18.3510629511307
 50
157.82960486303631
 51
202.17039513696349
  0
ARC
  5
288
  8
1
 62
     7
 10
-1331.240861853086
 20
-7.8796886035825651
 30
0.0
 40
5.0965556625059198
 50
137.2047561097325
 51
222.7952438902673
  0
ARC
  5
289
  8
1
 62
     7
 10
-1331.240861853086
 20
254.7258305622166
 30
0.0
 40
5.0965556625059198
 50
137.2047561097325
 51
222.7952438902675
  0
ARC
  5
28A
  8
1
 62
     7
 10
-1317.986354564461
 20
244.33833056221661
 30
0.0
 40
18.351062951130679
 50
157.82960486303651
 51
202.17039513696349
  0
ARC
  5
28B
  8
1
 62
     7
 10
-1331.240861853086
 20
233.95083056221659
 30
0.0
 40
5.0965556625059198
 50
137.2047561097325
 51
222.7952438902675
  0
ARC
  5
28C
  8
1
 62
     7
 10
-481.60257844409688
 20
123.4230709793169
 30
0.0
 40
168.99999999999989
 50
96.007068934782566
 51
119.00060433168311
  0
ARC
  5
28D
  8
1
 62
     7
 10
-481.60257844409688
 20
123.4230709793169
 30
0.0
 40
181.0
 50
95.803875764273428
 51
119.0342950721507
  0
ARC
  5
28E
  8
1
 62
     7
 10
-481.60257844409688
 20
123.4230709793169
 30
0.0
 40
183.0
 50
60.0
 51
119.9999999999999
  0
ARC
  5
28F
  8
1
 62
     7
 10
-481.60257844409688
 20
123.4230709793169
 30
0.0
 40
181.0
 50
60.965704927849359
 51
84.196124235726614
  0
ARC
  5
290
  8
1
 62
     7
 10
-481.60257844409688
 20
123.4230709793169
 30
0.0
 40
169.0
 50
60.999395668316907
 51
83.992931065217491
  0
ARC
  5
291
  8
1
 62
     7
 10
-481.60257844409688
 20
123.4230709793169
 30
0.0
 40
183.0
 50
190.0
 51
202.12111312185701
  0
ARC
  5
292
  8
1
 62
     7
 10
-481.60257844409688
 20
123.4230709793169
 30
0.0
 40
175.0
 50
190.0
 51
202.03518820283071
  0
ARC
  5
293
  8
1
 62
     7
 10
-481.60257844409688
 20
123.4230709793169
 30
0.0
 40
175.0
 50
205.9648117971692
 51
217.0
  0
ARC
  5
294
  8
1
 62
     7
 10
-481.60257844409688
 20
123.4230709793169
 30
0.0
 40
183.0
 50
205.87888687814291
 51
217.0
  0
ARC
  5
295
  8
1
 62
     7
 10
-481.60257844409688
 20
123.4230709793169
 30
0.0
 40
175.0
 50
251.96570492784929
 51
265.0
  0
ARC
  5
296
  8
1
 62
     7
 10
-481.60257844409688
 20
123.4230709793169
 30
0.0
 40
183.0
 50
251.0
 51
264.99999999999989
  0
ARC
  5
297
  8
1
 62
     7
 10
-554.76449282339581
 20
182.44284973488459
 30
0.0
 40
3.999999999999984
 50
321.10685172986609
 51
44.999999999999709
  0
ARC
  5
298
  8
1
 62
     7
 10
-596.45129750279193
 20
224.12965441428079
 30
0.0
 40
4.0000000000000329
 50
45.0
 51
140.99254448500329
  0
ARC
  5
299
  8
1
 62
     7
 10
-582.30916187906075
 20
238.2717900380118
 30
0.0
 40
3.9999999999999329
 50
129.00745551499591
 51
224.9999999999996
  0
ARC
  5
29A
  8
1
 62
     7
 10
-540.62235719966475
 20
196.58498535861571
 30
0.0
 40
4.0000000000000107
 50
224.9999999999996
 51
308.89314827013419
  0
ARC
  5
29B
  8
1
 62
     7
 10
-582.30916187906075
 20
8.574351920622135
 30
0.0
 40
4.0000000000000329
 50
135.0
 51
230.99254448500469
  0
ARC
  5
29C
  8
1
 62
     7
 10
-596.45129750279193
 20
22.716487544353189
 30
0.0
 40
3.9999999999999551
 50
219.0074555149956
 51
315.00000000000011
  0
ARC
  5
29D
  8
1
 62
     7
 10
-366.75385938540222
 20
22.716487544353232
 30
0.0
 40
4.0000000000000089
 50
225.00000000000071
 51
320.99254448500358
  0
ARC
  5
29E
  8
1
 62
     7
 10
-380.89599500913329
 20
8.574351920622151
 30
0.0
 40
3.9999999999999178
 50
309.00745551499512
 51
44.999999999999957
  0
ARC
  5
29F
  8
1
 62
     7
 10
-380.89599500913317
 20
238.2717900380118
 30
0.0
 40
4.0000000000000506
 50
314.99999999999858
 51
50.992544485003137
  0
ARC
  5
2A0
  8
1
 62
     7
 10
-366.75385938540222
 20
224.12965441428079
 30
0.0
 40
3.9999999999999809
 50
39.007455514994909
 51
134.9999999999994
  0
ARC
  5
2A1
  8
1
 62
     7
 10
-540.62235719966475
 20
50.261156600018253
 30
0.0
 40
4.0000000000000151
 50
51.10685172986544
 51
134.99999999999989
  0
ARC
  5
2A2
  8
1
 62
     7
 10
-554.76449282339581
 20
64.403292223749304
 30
0.0
 40
4.0000000000000258
 50
315.00000000000011
 51
38.893148270134503
  0
ARC
  5
2A3
  8
1
 62
     7
 10
-408.44066406479828
 20
64.403292223749332
 30
0.0
 40
4.0000000000000471
 50
141.10685172986629
 51
224.99999999999989
  0
ARC
  5
2A4
  8
1
 62
     7
 10
-422.58279968852929
 20
50.261156600018282
 30
0.0
 40
4.0000000000000373
 50
45.000000000000057
 51
128.89314827013521
  0
ARC
  5
2A5
  8
1
 62
     7
 10
-422.58279968852929
 20
196.5849853586156
 30
0.0
 40
4.0000000000000107
 50
231.10685172986439
 51
315.0
  0
ARC
  5
2A6
  8
1
 62
     7
 10
-408.44066406479828
 20
182.44284973488459
 30
0.0
 40
4.0000000000000107
 50
135.00000000000031
 51
218.89314827013339
  0
ARC
  5
2A7
  8
1
 62
     7
 10
-481.60257844409688
 20
123.4230709793169
 30
0.0
 40
183.0
 50
337.87888687814308
 51
349.99999999999977
  0
ARC
  5
2A8
  8
1
 62
     7
 10
-481.60257844409688
 20
123.4230709793169
 30
0.0
 40
175.0
 50
338.89821338967539
 51
349.03429507215071
  0
ARC
  5
2A9
  8
1
 62
     7
 10
-481.60257844409688
 20
123.4230709793169
 30
0.0
 40
183.0
 50
323.00000000000011
 51
334.12111312185692
  0
ARC
  5
2AA
  8
1
 62
     7
 10
-481.60257844409688
 20
123.4230709793169
 30
0.0
 40
175.0
 50
275.0
 51
288.03429507215071
  0
ARC
  5
2AB
  8
1
 62
     7
 10
-481.60257844409688
 20
123.4230709793169
 30
0.0
 40
183.0
 50
275.0
 51
289.0
  0
ARC
  5
2AC
  8
1
 62
     7
 10
-481.60257844409688
 20
123.4230709793169
 30
0.0
 40
174.9999999999998
 50
323.96570492784929
 51
333.10178661032461
  0
ARC
  5
2AD
  8
1
 62
     7
 10
-577.60257844409705
 20
-16.576929020683
 30
0.0
 40
4.0
 50
90.0
 51
180.0
  0
ARC
  5
2AE
  8
1
 62
     7
 10
-609.60257844409693
 20
-16.576929020683
 30
0.0
 40
3.9999999999998859
 50
0.0
 51
90.0
  0
ARC
  5
2AF
  8
1
 62
     7
 10
-481.60257844409688
 20
123.4230709793169
 30
0.0
 40
194.99999999999989
 50
317.02971606825679
 51
222.97028393174321
  0
ARC
  5
2B0
  8
1
 62
     7
 10
-385.60257844409699
 20
-16.576929020683
 30
0.0
 40
4.0
 50
0.0
 51
90.0
  0
ARC
  5
2B1
  8
1
 62
     7
 10
-353.60257844409722
 20
-16.576929020683
 30
0.0
 40
4.0
 50
90.0
 51
180.0
  0
ARC
  5
2B2
  8
1
 62
     7
 10
-481.60257844409688
 20
123.4230709793169
 30
0.0
 40
29.999999999999961
 50
104.4775121859299
 51
75.522487814070047
  0
ARC
  5
2B3
  8
1
 62
     7
 10
-481.60257844409688
 20
125.18307097931699
 30
0.0
 40
38.140000000000001
 50
292.08518774064112
 51
247.91481225935871
  0
ARC
  5
2B4
  8
1
 62
     7
 10
-481.60257844409688
 20
123.4230709793169
 30
0.0
 40
34.999999999999922
 50
102.37362511618851
 51
77.626374883811479
  0
ARC
  5
2B5
  8
1
 62
     7
 10
-1054.8103810689311
 20
93.0346398876042
 30
0.0
 40
3.4729635533386158
 50
270.0
 51
0.0
  0
ARC
  5
2B6
  8
1
 62
     7
 10
-1054.8103810689311
 20
61.240242811073109
 30
0.0
 40
3.4729635533386158
 50
270.0
 51
0.0
  0
ARC
  5
2B7
  8
1
 62
     7
 10
-1054.8103810689311
 20
53.101215690210353
 30
0.0
 40
3.4729635533386158
 50
270.0
 51
0.0
  0
ARC
  5
2B8
  8
1
 62
     7
 10
-1054.8103810689311
 20
42.138670198499149
 30
0.0
 40
3.4729635533386221
 50
270.0
 51
0.0
  0
ARC
  5
2B9
  8
1
 62
     7
 10
-1054.8103810689311
 20
16.763885295830779
 30
0.0
 40
3.4729635533386181
 50
270.0
 51
0.0
  0
ARC
  5
2BA
  8
1
 62
     7
 10
-1054.8103810689311
 20
9.5421050180062075
 30
0.0
 40
3.4729635533386158
 50
270.0
 51
0.0
  0
ARC
  5
2BB
  8
1
 62
     7
 10
-1046.433973178099
 20
254.7258305622166
 30
0.0
 40
5.096555662505752
 50
317.20475610973062
 51
42.795243890269226
  0
ARC
  5
2BC
  8
1
 62
     7
 10
-1059.6884804667229
 20
244.33833056221661
 30
0.0
 40
18.3510629511307
 50
337.82960486303631
 51
22.17039513696346
  0
ARC
  5
2BD
  8
1
 62
     7
 10
-1046.433973178099
 20
233.95083056221659
 30
0.0
 40
5.096555662505752
 50
317.20475610973062
 51
42.795243890269226
  0
ARC
  5
2BE
  8
1
 62
     7
 10
-1046.433973178099
 20
-7.8796886035826779
 30
0.0
 40
5.0965556625057369
 50
317.20475610973091
 51
42.795243890269241
  0
ARC
  5
2BF
  8
1
 62
     7
 10
-1059.6884804667229
 20
2.5078113964173401
 30
0.0
 40
18.3510629511307
 50
337.82960486303631
 51
22.170395136963549
  0
ARC
  5
2C0
  8
1
 62
     7
 10
-1046.433973178099
 20
12.895311396417361
 30
0.0
 40
5.0965556625057529
 50
317.20475610973062
 51
42.79524389026902
  0
ARC
  5
2C1
  8
1
 62
     7
 10
-1315.864453962253
 20
93.0346398876042
 30
0.0
 40
3.4729635533390129
 50
180.0
 51
270.0
  0
ARC
  5
2C2
  8
1
 62
     7
 10
-1315.864453962253
 20
61.240242811073109
 30
0.0
 40
3.4729635533390129
 50
180.0
 51
270.0
  0
ARC
  5
2C3
  8
1
 62
     7
 10
-1315.864453962253
 20
53.101215690210353
 30
0.0
 40
3.4729635533390129
 50
180.0
 51
270.0
  0
ARC
  5
2C4
  8
1
 62
     7
 10
-1315.864453962253
 20
42.138670198499149
 30
0.0
 40
3.4729635533390129
 50
180.0
 51
270.0
  0
ARC
  5
2C5
  8
1
 62
     7
 10
-1315.864453962253
 20
16.763885295830779
 30
0.0
 40
3.4729635533390129
 50
180.0
 51
270.0
  0
ARC
  5
2C6
  8
1
 62
     7
 10
-1315.864453962253
 20
9.5421050180062075
 30
0.0
 40
3.4729635533390129
 50
180.0
 51
270.0
  0
ARC
  5
2C7
  8
1
 62
     7
 10
-1046.433973178099
 20
893.06401666148849
 30
0.0
 40
5.0965556625057333
 50
317.20475610973091
 51
42.795243890268999
  0
ARC
  5
2C8
  8
1
 62
     7
 10
-1059.6884804667229
 20
882.67651666148868
 30
0.0
 40
18.351062951130672
 50
337.82960486303659
 51
22.170395136963709
  0
ARC
  5
2C9
  8
1
 62
     7
 10
-1046.433973178099
 20
872.28901666148852
 30
0.0
 40
5.0965556625056561
 50
317.20475610973182
 51
42.795243890269937
  0
ARC
  5
2CA
  8
1
 62
     7
 10
-1046.433973178099
 20
630.45849749568936
 30
0.0
 40
5.0965556625058106
 50
317.20475610973011
 51
42.795243890268999
  0
ARC
  5
2CB
  8
1
 62
     7
 10
-1059.6884804667229
 20
640.84599749568918
 30
0.0
 40
18.351062951130672
 50
337.82960486303659
 51
22.170395136963709
  0
ARC
  5
2CC
  8
1
 62
     7
 10
-1046.433973178099
 20
651.23349749568922
 30
0.0
 40
5.0965556625057333
 50
317.20475610973091
 51
42.795243890268999
  0
ARC
  5
2CD
  8
1
 62
     7
 10
-947.83741751559285
 20
761.76125707858887
 30
0.0
 40
7.5
 50
90.0
 51
270.0
  0
ARC
  5
2CE
  8
1
 62
     7
 10
-1422.8374175155921
 20
761.76125707858887
 30
0.0
 40
7.5
 50
270.0
 51
90.0
  0
ARC
  5
2CF
  8
1
 62
     7
 10
-1091.3374175155921
 20
761.76125707858887
 30
0.0
 40
11.41981612553329
 50
25.965853830935998
 51
154.034146169064
  0
ARC
  5
2D0
  8
1
 62
     7
 10
-1091.3374175155921
 20
761.76125707858887
 30
0.0
 40
12.500000000000311
 50
23.578178478200648
 51
156.42182152179791
  0
ARC
  5
2D1
  8
1
 62
     7
 10
-1091.3374175155921
 20
761.76125707858887
 30
0.0
 40
12.49999999999957
 50
203.57817847820331
 51
336.0056116888083
  0
ARC
  5
2D2
  8
1
 62
     7
 10
-1091.3374175155921
 20
761.76125707858887
 30
0.0
 40
11.419816125533369
 50
205.96585383093699
 51
334.03414616906281
  0
ARC
  5
2D3
  8
1
 62
     7
 10
-1279.3374175155921
 20
761.76125707858887
 30
0.0
 40
11.41981612553349
 50
25.965853830935501
 51
154.0341461690634
  0
ARC
  5
2D4
  8
1
 62
     7
 10
-1279.3374175155921
 20
761.76125707858887
 30
0.0
 40
12.500000000000311
 50
23.578178478200648
 51
156.42182152179751
  0
ARC
  5
2D5
  8
1
 62
     7
 10
-1279.3374175155921
 20
761.76125707858887
 30
0.0
 40
12.499999999999361
 50
203.57817847820371
 51
336.00561168880779
  0
ARC
  5
2D6
  8
1
 62
     7
 10
-1279.3374175155921
 20
761.76125707858887
 30
0.0
 40
11.419816125533369
 50
205.96585383093699
 51
334.03414616906389
  0
ARC
  5
2D7
  8
1
 62
     7
 10
-677.05177051994121
 20
95.216524269751261
 30
0.0
 40
2.5
 50
270.0
 51
25.507821205343159
  0
ARC
  5
2D8
  8
1
 62
     7
 10
-677.05177051994121
 20
151.6296176888826
 30
0.0
 40
2.500000000000048
 50
334.49217879465641
 51
74.999999999992284
  0
ARC
  5
2D9
  8
1
 62
     7
 10
-1183.287417515593
 20
93.266524269751315
 30
0.0
 40
1.7425000000000641
 50
180.0
 51
270.0
  0
ARC
  5
2DA
  8
1
 62
     7
 10
-1187.387417515592
 20
93.266524269751315
 30
0.0
 40
1.7425000000000781
 50
270.0
 51
0.0
  0
ARC
  5
2DB
  8
1
 62
     7
 10
-1187.387417515592
 20
89.166524269751307
 30
0.0
 40
1.742499999999835
 50
0.0
 51
90.0
  0
ARC
  5
2DC
  8
1
 62
     7
 10
-1183.287417515593
 20
89.166524269751307
 30
0.0
 40
1.7424999999999491
 50
90.0
 51
180.0
  0
ARC
  5
2DD
  8
1
 62
     7
 10
-1194.037417515593
 20
93.916524269751335
 30
0.0
 40
2.7000000000000601
 50
270.0
 51
0.0
  0
ARC
  5
2DE
  8
1
 62
     7
 10
-1185.337417515593
 20
93.916524269751335
 30
0.0
 40
6.0
 50
0.0
 51
180.0
  0
ARC
  5
2DF
  8
1
 62
     7
 10
-1176.637417515592
 20
93.916524269751335
 30
0.0
 40
2.700000000000045
 50
180.0
 51
270.0
  0
ARC
  5
2E0
  8
1
 62
     7
 10
-475.60257844409699
 20
320.42307097931689
 30
0.0
 40
1.0
 50
180.0
 51
270.0
  0
ARC
  5
2E1
  8
1
 62
     7
 10
-487.60257844409699
 20
320.42307097931689
 30
0.0
 40
1.0
 50
270.0
 51
0.0
  0
ARC
  5
2E2
  8
1
 62
     7
 10
-481.60257844409688
 20
364.42307097931678
 30
0.0
 40
5.0
 50
0.0
 51
180.0
  0
ARC
  5
2E3
  8
1
 62
     7
 10
-1091.3374175155921
 20
344.42307097931678
 30
0.0
 40
24.99999999999962
 50
306.45192978080752
 51
233.54807021919251
  0
ARC
  5
2E4
  8
1
 62
     7
 10
-1279.3374175155921
 20
344.42307097931678
 30
0.0
 40
24.99999999999962
 50
306.45192978080752
 51
233.54807021919251
  0
CIRCLE
  5
2E5
  8
1
 62
     7
 10
-481.60257844409688
 20
123.4230709793169
 30
0.0
 40
90.000000000000114
  0
CIRCLE
  5
2E6
  8
1
 62
     7
 10
-602.51783802699663
 20
244.33833056221661
 30
0.0
 40
12.0
  0
CIRCLE
  5
2E7
  8
1
 62
     7
 10
-602.51783802699663
 20
2.5078113964174391
 30
0.0
 40
12.0
  0
CIRCLE
  5
2E8
  8
1
 62
     7
 10
-360.68731886119753
 20
2.5078113964174231
 30
0.0
 40
12.0
  0
CIRCLE
  5
2E9
  8
1
 62
     7
 10
-360.6873188611973
 20
244.3383305622165
 30
0.0
 40
12.0
  0
CIRCLE
  5
2EA
  8
1
 62
     7
 10
-481.60257844409688
 20
123.4230709793169
 30
0.0
 40
75.000000000000099
  0
CIRCLE
  5
2EB
  8
1
 62
     7
 10
-604.60257844409705
 20
123.4230709793169
 30
0.0
 40
9.0
  0
CIRCLE
  5
2EC
  8
1
 62
     7
 10
-481.60257844409688
 20
0.4230709793170111
 30
0.0
 40
9.0
  0
CIRCLE
  5
2ED
  8
1
 62
     7
 10
-358.60257844409699
 20
123.4230709793169
 30
0.0
 40
9.0
  0
CIRCLE
  5
2EE
  8
1
 62
     7
 10
-481.60257844409688
 20
246.423070979317
 30
0.0
 40
9.0
  0
CIRCLE
  5
2EF
  8
1
 62
     7
 10
-472.10257844409688
 20
85.980214580352509
 30
0.0
 40
1.25
  0
CIRCLE
  5
2F0
  8
1
 62
     7
 10
-491.10257844409699
 20
85.980214580352509
 30
0.0
 40
1.25
  0
CIRCLE
  5
2F1
  8
1
 62
     7
 10
-481.60257844409688
 20
123.4230709793169
 30
0.0
 40
4.8000000000000123
  0
CIRCLE
  5
2F2
  8
1
 62
     3
 10
-481.60257844409688
 20
123.4230709793169
 30
0.0
 40
6.0
  0
CIRCLE
  5
2F3
  8
1
 62
     7
 10
-1025.3374175155921
 20
932.30071306850334
 30
0.0
 40
10.5
  0
CIRCLE
  5
2F4
  8
1
 62
     7
 10
-1025.3374175155921
 20
591.22180108867451
 30
0.0
 40
10.5
  0
CIRCLE
  5
2F5
  8
1
 62
     7
 10
-1345.3374175155921
 20
932.30071306850334
 30
0.0
 40
10.5
  0
CIRCLE
  5
2F6
  8
1
 62
     7
 10
-1345.3374175155921
 20
591.22180108867451
 30
0.0
 40
10.5
  0
CIRCLE
  5
2F7
  8
1
 62
     7
 10
-1185.337417515593
 20
91.216524269751247
 30
0.0
 40
3.5
  0
CIRCLE
  5
2F8
  8
1
 62
     7
 10
-1091.3374175155921
 20
344.42307097931678
 30
0.0
 40
15.0
  0
CIRCLE
  5
2F9
  8
1
 62
     7
 10
-1279.3374175155921
 20
344.42307097931678
 30
0.0
 40
15.0
  0
CIRCLE
  5
2FA
  8
1
 62
     7
 10
-1025.3374175155921
 20
591.22180108867451
 30
0.0
 40
18.5
  0
CIRCLE
  5
2FB
  8
1
 62
     7
 10
-1025.3374175155921
 20
932.30071306850334
 30
0.0
 40
18.5
  0
CIRCLE
  5
2FC
  8
1
 62
     7
 10
-1345.3374175155921
 20
932.30071306850334
 30
0.0
 40
18.5
  0
CIRCLE
  5
2FD
  8
1
 62
     7
 10
-1345.3374175155921
 20
591.22180108867451
 30
0.0
 40
18.5
  0
TEXT
  5
2FE
  8
1
 62
     7
 10
-501.8251468524395
 20
-34.0600028672782
 30
0.0
 40
10.0
  1
INPUT
 41
1.0800000000000001
  7
SIMPLEX
 72
     1
 11
-479.45371828101099
 21
-34.0600028672782
 31
0.0
  0
TEXT
  5
300
  8
1
 62
     7
 10
-514.00257844409703
 20
764.76125707858898
 30
0.0
 40
18.0
  1
MSU 70
 41
0.9
  7
SIMPLEX
  0
ENDSEC
  0
EOF
