  0
SECTION
  2
HEADER
  9
$ACADVER
  1
AC1009
  9
$INSBASE
 10
0.0
 20
0.0
 30
0.0
  9
$EXTMIN
 10
-43.0
 20
-55.0
 30
0.0
  9
$EXTMAX
 10
296.87306695894631
 20
111.2
 30
0.0
  9
$LIMMIN
 10
-42.999999999999993
 20
-55.0
  9
$LIMMAX
 10
293.0
 20
111.2
  9
$ORTHOMODE
 70
     0
  9
$REGENMODE
 70
     1
  9
$FILLMODE
 70
     1
  9
$QTEXTMODE
 70
     0
  9
$MIRRTEXT
 70
     1
  9
$DRAGMODE
 70
     2
  9
$LTSCALE
 40
1.0
  9
$OSMODE
 70
    37
  9
$ATTMODE
 70
     1
  9
$TEXTSIZE
 40
3.5
  9
$TRACEWID
 40
0.5
  9
$TEXTSTYLE
  7
STANDARD
  9
$CLAYER
  8
0
  9
$CELTYPE
  6
BYLAYER
  9
$CECOLOR
 62
   256
  9
$DIMSCALE
 40
1.0
  9
$DIMASZ
 40
0.18
  9
$DIMEXO
 40
0.0625
  9
$DIMDLI
 40
0.38
  9
$DIMRND
 40
0.0
  9
$DIMDLE
 40
0.0
  9
$DIMEXE
 40
0.18
  9
$DIMTP
 40
0.0
  9
$DIMTM
 40
0.0
  9
$DIMTXT
 40
0.18
  9
$DIMCEN
 40
0.09
  9
$DIMTSZ
 40
0.0
  9
$DIMTOL
 70
     0
  9
$DIMLIM
 70
     0
  9
$DIMTIH
 70
     1
  9
$DIMTOH
 70
     1
  9
$DIMSE1
 70
     0
  9
$DIMSE2
 70
     0
  9
$DIMTAD
 70
     0
  9
$DIMZIN
 70
     0
  9
$DIMBLK
  1

  9
$DIMASO
 70
     1
  9
$DIMSHO
 70
     1
  9
$DIMPOST
  1

  9
$DIMAPOST
  1

  9
$DIMALT
 70
     0
  9
$DIMALTD
 70
     2
  9
$DIMALTF
 40
25.399999999999999
  9
$DIMLFAC
 40
1.0
  9
$DIMTOFL
 70
     0
  9
$DIMTVP
 40
0.0
  9
$DIMTIX
 70
     0
  9
$DIMSOXD
 70
     0
  9
$DIMSAH
 70
     0
  9
$DIMBLK1
  1

  9
$DIMBLK2
  1

  9
$DIMSTYLE
  2
STANDARD
  9
$DIMCLRD
 70
     0
  9
$DIMCLRE
 70
     0
  9
$DIMCLRT
 70
     0
  9
$DIMTFAC
 40
1.0
  9
$DIMGAP
 40
0.09
  9
$LUNITS
 70
     2
  9
$LUPREC
 70
     4
  9
$SKETCHINC
 40
0.1
  9
$FILLETRAD
 40
2.0
  9
$AUNITS
 70
     0
  9
$AUPREC
 70
     0
  9
$MENU
  1
ACAD
  9
$ELEVATION
 40
0.0
  9
$PELEVATION
 40
0.0
  9
$THICKNESS
 40
0.0
  9
$LIMCHECK
 70
     0
  9
$BLIPMODE
 70
     0
  9
$CHAMFERA
 40
0.0
  9
$CHAMFERB
 40
0.0
  9
$SKPOLY
 70
     0
  9
$TDCREATE
 40
2452095.3593150461
  9
$TDUPDATE
 40
2452095.3597396989
  9
$TDINDWG
 40
0.0004373843
  9
$TDUSRTIMER
 40
0.0004373843
  9
$USRTIMER
 70
     1
  9
$ANGBASE
 50
0.0
  9
$ANGDIR
 70
     0
  9
$PDMODE
 70
     0
  9
$PDSIZE
 40
0.0
  9
$PLINEWID
 40
0.0
  9
$COORDS
 70
     1
  9
$SPLFRAME
 70
     0
  9
$SPLINETYPE
 70
     6
  9
$SPLINESEGS
 70
     8
  9
$ATTDIA
 70
     0
  9
$ATTREQ
 70
     1
  9
$HANDLING
 70
 10241
  9
$HANDSEED
  5
14C
  9
$SURFTAB1
 70
     6
  9
$SURFTAB2
 70
     6
  9
$SURFTYPE
 70
     6
  9
$SURFU
 70
     6
  9
$SURFV
 70
     6
  9
$UCSNAME
  2

  9
$UCSORG
 10
0.0
 20
0.0
 30
0.0
  9
$UCSXDIR
 10
1.0
 20
0.0
 30
0.0
  9
$UCSYDIR
 10
0.0
 20
1.0
 30
0.0
  9
$PUCSNAME
  2

  9
$PUCSORG
 10
0.0
 20
0.0
 30
0.0
  9
$PUCSXDIR
 10
1.0
 20
0.0
 30
0.0
  9
$PUCSYDIR
 10
0.0
 20
1.0
 30
0.0
  9
$USERI1
 70
     0
  9
$USERI2
 70
     0
  9
$USERI3
 70
     0
  9
$USERI4
 70
     0
  9
$USERI5
 70
     0
  9
$USERR1
 40
0.0
  9
$USERR2
 40
0.0
  9
$USERR3
 40
0.0
  9
$USERR4
 40
0.0
  9
$USERR5
 40
0.0
  9
$WORLDVIEW
 70
     1
  9
$SHADEDGE
 70
     3
  9
$SHADEDIF
 70
    70
  9
$TILEMODE
 70
     1
  9
$MAXACTVP
 70
    64
  9
$PLIMCHECK
 70
     0
  9
$PEXTMIN
 10
1.0000000000000000E+020
 20
1.0000000000000000E+020
 30
1.0000000000000000E+020
  9
$PEXTMAX
 10
-1.0000000000000000E+020
 20
-1.0000000000000000E+020
 30
-1.0000000000000000E+020
  9
$PLIMMIN
 10
0.0
 20
0.0
  9
$PLIMMAX
 10
12.0
 20
9.0
  9
$UNITMODE
 70
     0
  9
$VISRETAIN
 70
     1
  9
$PLINEGEN
 70
     0
  9
$PSLTSCALE
 70
     1
  0
ENDSEC
  0
SECTION
  2
TABLES
  0
TABLE
  2
VPORT
 70
     2
  0
VPORT
  2
*ACTIVE
 70
     0
 10
0.0
 20
0.0
 11
1.0
 21
1.0
 12
9.9412698848128294
 22
106.94215242400961
 13
0.0
 23
0.0
 14
1.0
 24
1.0
 15
0.0
 25
0.0
 16
0.0
 26
0.0
 36
1.0
 17
0.0
 27
0.0
 37
0.0
 40
8.9999997583217919
 41
2.4144144144144142
 42
50.0
 43
0.0
 44
0.0
 50
0.0
 51
0.0
 71
     0
 72
   100
 73
     1
 74
     1
 75
     0
 76
     0
 77
     0
 78
     0
  0
ENDTAB
  0
TABLE
  2
LTYPE
 70
     9
  0
LTYPE
  2
CONTINUOUS
 70
     0
  3
Solid line
 72
    65
 73
     0
 40
0.0
  0
LTYPE
  2
BORDER
 70
     0
  3
__ __ . __ __ .
 72
    65
 73
     6
 40
15.47368421052632
 49
4.4210526315789478
 49
-2.2105263157894739
 49
4.4210526315789478
 49
-2.2105263157894739
 49
0.0
 49
-2.2105263157894739
  0
LTYPE
  2
CENTER
 70
     0
  3
____ _ ____ _
 72
    65
 73
     4
 40
17.68421052631578
 49
11.052631578947359
 49
-2.2105263157894739
 49
2.2105263157894739
 49
-2.2105263157894739
  0
LTYPE
  2
DASHDOT
 70
     0
  3
__ . __ . __ .
 72
    65
 73
     4
 40
8.8421052631578974
 49
4.4210526315789478
 49
-2.2105263157894739
 49
0.0
 49
-2.2105263157894739
  0
LTYPE
  2
DASHED
 70
     0
  3
__ __ __ __ __
 72
    65
 73
     2
 40
6.6315789473684204
 49
4.4210526315789478
 49
-2.2105263157894739
  0
LTYPE
  2
DIVIDE
 70
     0
  3
__ . . __ . . 
 72
    65
 73
     6
 40
11.052631578947359
 49
4.4210526315789478
 49
-2.2105263157894739
 49
0.0
 49
-2.2105263157894739
 49
0.0
 49
-2.2105263157894739
  0
LTYPE
  2
DOT
 70
     0
  3
..............
 72
    65
 73
     4
 40
4.4210526315789478
 49
0.0
 49
-2.2105263157894739
 49
0.0
 49
-2.2105263157894739
  0
LTYPE
  2
HIDDEN
 70
     0
  3
_ _ _ _ _ _ _
 72
    65
 73
     2
 40
3.3157894736842111
 49
2.2105263157894739
 49
-1.1052631578947369
  0
LTYPE
  2
PHANTOM
 70
     0
  3
_____ _ _ _____ _ _ 
 72
    65
 73
     6
 40
22.105263157894729
 49
11.052631578947359
 49
-2.2105263157894739
 49
2.2105263157894739
 49
-2.2105263157894739
 49
2.2105263157894739
 49
-2.2105263157894739
  0
ENDTAB
  0
TABLE
  2
LAYER
 70
     2
  0
LAYER
  2
0
 70
     0
 62
     7
  6
CONTINUOUS
  0
LAYER
  2
1
 70
     0
 62
     7
  6
CONTINUOUS
  0
ENDTAB
  0
TABLE
  2
STYLE
 70
     4
  0
STYLE
  2
STANDARD
 70
     0
 40
0.0
 41
1.0
 50
0.0
 71
     0
 42
3.5
  3
txt
  4

  0
STYLE
  2
SIMPLEX
 70
     0
 40
0.0
 41
1.0
 50
0.0
 71
     0
 42
3.5
  3
simplex
  4

  0
STYLE
  2
COMPLEX
 70
     0
 40
0.0
 41
1.0
 50
0.0
 71
     0
 42
3.5
  3
complex
  4

  0
STYLE
  2
ITALIC
 70
     0
 40
0.0
 41
1.0
 50
0.0
 71
     0
 42
3.5
  3
italic
  4

  0
ENDTAB
  0
TABLE
  2
VIEW
 70
     0
  0
ENDTAB
  0
TABLE
  2
UCS
 70
     0
  0
ENDTAB
  0
TABLE
  2
APPID
 70
     1
  0
APPID
  2
ACAD
 70
     0
  0
ENDTAB
  0
TABLE
  2
DIMSTYLE
 70
     1
  0
DIMSTYLE
  2
STANDARD
 70
     0
  3

  4

  5

  6

  7

 40
1.0
 41
0.18
 42
0.0625
 43
0.38
 44
0.18
 45
0.0
 46
0.0
 47
0.0
 48
0.0
140
0.18
141
0.09
142
0.0
143
25.399999999999999
144
1.0
145
0.0
146
1.0
147
0.09
 71
     0
 72
     0
 73
     1
 74
     1
 75
     0
 76
     0
 77
     0
 78
     0
170
     0
171
     2
172
     0
173
     0
174
     0
175
     0
176
     0
177
     0
178
     0
  0
ENDTAB
  0
ENDSEC
  0
SECTION
  2
BLOCKS
  0
BLOCK
  8
0
  2
$MODEL_SPACE
 70
     0
 10
0.0
 20
0.0
 30
0.0
  3
$MODEL_SPACE
  1

  0
ENDBLK
  5
20
  8
0
  0
BLOCK
 67
     1
  8
0
  2
$PAPER_SPACE
 70
     0
 10
0.0
 20
0.0
 30
0.0
  3
$PAPER_SPACE
  1

  0
ENDBLK
  5
1C
 67
     1
  8
0
  0
ENDSEC
  0
SECTION
  2
ENTITIES
  0
LINE
  5
33
  8
1
 62
     7
 10
104.4999999999999
 20
-30.0
 30
0.0
 11
104.9999999999998
 21
-30.0
 31
0.0
  0
LINE
  5
34
  8
1
 62
     7
 10
107.4999999999999
 20
-28.0
 30
0.0
 11
113.89999999999991
 21
-28.0
 31
0.0
  0
LINE
  5
35
  8
1
 62
     7
 10
114.4999999999999
 20
-28.600000000000019
 30
0.0
 11
114.4999999999999
 21
-31.400000000000091
 31
0.0
  0
LINE
  5
36
  8
1
 62
     7
 10
107.4999999999999
 20
-25.5
 30
0.0
 11
107.4999999999999
 21
-34.5
 31
0.0
  0
LINE
  5
37
  8
1
 62
     7
 10
107.4999999999999
 20
-34.5
 30
0.0
 11
105.4999999999999
 21
-34.5
 31
0.0
  0
LINE
  5
38
  8
1
 62
     7
 10
105.4999999999999
 20
-25.5
 30
0.0
 11
107.4999999999999
 21
-25.5
 31
0.0
  0
LINE
  5
39
  8
1
 62
     7
 10
104.4999999999999
 20
-43.0
 30
0.0
 11
101.2999999999999
 21
-43.0
 31
0.0
  0
LINE
  5
3A
  8
1
 62
     7
 10
101.2999999999999
 20
43.0
 30
0.0
 11
104.4999999999999
 21
43.0
 31
0.0
  0
LINE
  5
3B
  8
1
 62
     7
 10
104.4999999999999
 20
30.0
 30
0.0
 11
104.9999999999998
 21
30.0
 31
0.0
  0
LINE
  5
3C
  8
1
 62
     3
 10
116.4999999999998
 20
-30.0
 30
0.0
 11
105.4999999999999
 21
-30.0
 31
0.0
  0
LINE
  5
3D
  8
1
 62
     7
 10
104.9999999999998
 20
31.931851652578079
 30
0.0
 11
105.4999999999999
 21
30.065826248793542
 31
0.0
  0
LINE
  5
3E
  8
1
 62
     7
 10
104.9999999999998
 20
30.0
 30
0.0
 11
104.4999999999999
 21
31.86602540378431
 31
0.0
  0
LINE
  5
3F
  8
1
 62
     7
 10
104.9999999999998
 20
31.931851652578079
 30
0.0
 11
104.9999999999998
 21
42.0
 31
0.0
  0
LINE
  5
40
  8
1
 62
     7
 10
104.9999999999998
 20
42.0
 30
0.0
 11
104.4999999999999
 21
42.0
 31
0.0
  0
LINE
  5
41
  8
1
 62
     7
 10
105.4999999999999
 20
-36.963130357163323
 30
0.0
 11
104.9999999999998
 21
-36.963130357163323
 31
0.0
  0
LINE
  5
42
  8
1
 62
     7
 10
101.2999999999999
 20
43.0
 30
0.0
 11
101.2999999999999
 21
-43.0
 31
0.0
  0
LINE
  5
43
  8
1
 62
     7
 10
104.9999999999998
 20
-36.963130357163323
 30
0.0
 11
104.9999999999998
 21
30.0
 31
0.0
  0
LINE
  5
44
  8
1
 62
     7
 10
105.4999999999999
 20
30.065826248793542
 30
0.0
 11
105.4999999999999
 21
-36.963130357163323
 31
0.0
  0
LINE
  5
45
  8
1
 62
     7
 10
104.9999999999998
 20
41.0
 30
0.0
 11
105.4999999999999
 21
41.0
 31
0.0
  0
LINE
  5
46
  8
1
 62
     7
 10
105.4999999999999
 20
34.0
 30
0.0
 11
104.9999999999998
 21
34.0
 31
0.0
  0
LINE
  5
47
  8
1
 62
     7
 10
106.59999999999999
 20
41.099999999999902
 30
0.0
 11
105.8
 21
41.099999999999902
 31
0.0
  0
LINE
  5
48
  8
1
 62
     7
 10
106.59999999999999
 20
33.899999999999977
 30
0.0
 11
105.8
 21
33.899999999999977
 31
0.0
  0
LINE
  5
49
  8
1
 62
     7
 10
106.89999999999991
 20
34.199999999999932
 30
0.0
 11
106.89999999999991
 21
40.799999999999841
 31
0.0
  0
LINE
  5
4A
  8
1
 62
     7
 10
104.4999999999999
 20
-43.0
 30
0.0
 11
104.4999999999999
 21
43.0
 31
0.0
  0
LINE
  5
4B
  8
1
 62
     7
 10
105.4999999999999
 20
41.0
 30
0.0
 11
105.4999999999999
 21
34.0
 31
0.0
  0
LINE
  5
4C
  8
1
 62
     3
 10
114.4999999999999
 20
-31.400000000000091
 30
0.0
 11
107.4999999999999
 21
-31.400000000000091
 31
0.0
  0
LINE
  5
4D
  8
1
 62
     3
 10
114.4999999999999
 20
-28.600000000000019
 30
0.0
 11
107.4999999999999
 21
-28.600000000000019
 31
0.0
  0
LINE
  5
4E
  8
1
 62
     7
 10
113.89999999999991
 20
-28.0
 30
0.0
 11
113.89999999999991
 21
-32.0
 31
0.0
  0
LINE
  5
4F
  8
1
 62
     7
 10
113.89999999999991
 20
-32.0
 30
0.0
 11
107.4999999999999
 21
-32.0
 31
0.0
  0
LINE
  5
50
  8
1
 62
     7
 10
114.4999999999999
 20
-31.400000000000091
 30
0.0
 11
113.89999999999991
 21
-32.0
 31
0.0
  0
LINE
  5
51
  8
1
 62
     7
 10
113.89999999999991
 20
-28.0
 30
0.0
 11
114.4999999999999
 21
-28.600000000000019
 31
0.0
  0
LINE
  5
52
  8
1
 62
     7
 10
174.99999999999989
 20
-33.5
 30
0.0
 11
174.49999999999989
 21
-33.5
 31
0.0
  0
LINE
  5
53
  8
1
 62
     7
 10
174.49999999999989
 20
-26.5
 30
0.0
 11
174.99999999999989
 21
-26.5
 31
0.0
  0
LINE
  5
54
  8
1
 62
     7
 10
174.49999999999989
 20
-26.25
 30
0.0
 11
174.09999999999991
 21
-26.25
 31
0.0
  0
LINE
  5
55
  8
1
 62
     7
 10
174.09999999999991
 20
-26.25
 30
0.0
 11
174.09999999999991
 21
-33.75
 31
0.0
  0
LINE
  5
56
  8
1
 62
     7
 10
174.09999999999991
 20
-33.75
 30
0.0
 11
174.49999999999989
 21
-33.75
 31
0.0
  0
LINE
  5
57
  8
1
 62
     7
 10
174.49999999999989
 20
-33.75
 30
0.0
 11
174.49999999999989
 21
-26.25
 31
0.0
  0
LINE
  5
58
  8
1
 62
     7
 10
171.74999999999989
 20
-28.0
 30
0.0
 11
171.74999999999989
 21
-32.0
 31
0.0
  0
LINE
  5
59
  8
1
 62
     7
 10
183.89999999999989
 20
-28.0
 30
0.0
 11
184.49999999999989
 21
-28.600000000000019
 31
0.0
  0
LINE
  5
5A
  8
1
 62
     7
 10
184.49999999999989
 20
-31.400000000000091
 30
0.0
 11
183.89999999999989
 21
-32.0
 31
0.0
  0
LINE
  5
5B
  8
1
 62
     7
 10
183.89999999999989
 20
-32.0
 30
0.0
 11
174.99999999999989
 21
-32.0
 31
0.0
  0
LINE
  5
5C
  8
1
 62
     7
 10
183.89999999999989
 20
-28.0
 30
0.0
 11
183.89999999999989
 21
-32.0
 31
0.0
  0
LINE
  5
5D
  8
1
 62
     3
 10
184.49999999999989
 20
-28.600000000000019
 30
0.0
 11
176.03923048454121
 21
-28.600000000000019
 31
0.0
  0
LINE
  5
5E
  8
1
 62
     3
 10
176.03923048454121
 20
-28.600000000000019
 30
0.0
 11
174.99999999999989
 21
-28.0
 31
0.0
  0
LINE
  5
5F
  8
1
 62
     3
 10
184.49999999999989
 20
-31.400000000000091
 30
0.0
 11
176.03923048454121
 21
-31.400000000000091
 31
0.0
  0
LINE
  5
60
  8
1
 62
     3
 10
176.03923048454121
 20
-31.400000000000091
 30
0.0
 11
174.99999999999989
 21
-32.0
 31
0.0
  0
LINE
  5
61
  8
1
 62
     3
 10
176.03923048454121
 20
-28.0
 30
0.0
 11
176.03923048454121
 21
-32.0
 31
0.0
  0
LINE
  5
62
  8
1
 62
     7
 10
174.99999999999989
 20
-28.0
 30
0.0
 11
183.89999999999989
 21
-28.0
 31
0.0
  0
LINE
  5
63
  8
1
 62
     7
 10
175.49999999999989
 20
41.0
 30
0.0
 11
175.49999999999989
 21
34.0
 31
0.0
  0
LINE
  5
64
  8
1
 62
     7
 10
174.49999999999989
 20
39.599999999999902
 30
0.0
 11
174.49999999999989
 21
43.0
 31
0.0
  0
LINE
  5
65
  8
1
 62
     7
 10
176.89999999999989
 20
34.199999999999932
 30
0.0
 11
176.89999999999989
 21
40.799999999999841
 31
0.0
  0
LINE
  5
66
  8
1
 62
     7
 10
176.59999999999999
 20
33.899999999999977
 30
0.0
 11
175.80000000000001
 21
33.899999999999977
 31
0.0
  0
LINE
  5
67
  8
1
 62
     7
 10
176.59999999999999
 20
41.099999999999902
 30
0.0
 11
175.80000000000001
 21
41.099999999999902
 31
0.0
  0
LINE
  5
68
  8
1
 62
     7
 10
175.49999999999989
 20
34.0
 30
0.0
 11
174.99999999999989
 21
34.0
 31
0.0
  0
LINE
  5
69
  8
1
 62
     7
 10
174.99999999999989
 20
41.0
 30
0.0
 11
175.49999999999989
 21
41.0
 31
0.0
  0
LINE
  5
6A
  8
1
 62
     7
 10
175.49999999999989
 20
0.0000000000000036
 30
0.0
 11
175.49999999999989
 21
-23.75
 31
0.0
  0
LINE
  5
6B
  8
1
 62
     7
 10
174.99999999999989
 20
-22.5
 30
0.0
 11
174.99999999999989
 21
0.0
 31
0.0
  0
LINE
  5
6C
  8
1
 62
     7
 10
171.30000000000001
 20
0.0
 30
0.0
 11
171.30000000000001
 21
-22.5
 31
0.0
  0
LINE
  5
6D
  8
1
 62
     7
 10
171.30000000000001
 20
22.5
 30
0.0
 11
171.30000000000001
 21
0.0
 31
0.0
  0
LINE
  5
6E
  8
1
 62
     7
 10
175.49999999999989
 20
-36.963130357163323
 30
0.0
 11
174.99999999999989
 21
-36.963130357163323
 31
0.0
  0
LINE
  5
6F
  8
1
 62
     7
 10
175.49999999999989
 20
-23.75
 30
0.0
 11
175.49999999999989
 21
-28.0
 31
0.0
  0
LINE
  5
70
  8
1
 62
     7
 10
175.49999999999989
 20
-23.75
 30
0.0
 11
174.99999999999989
 21
-23.75
 31
0.0
  0
LINE
  5
71
  8
1
 62
     7
 10
175.49999999999989
 20
0.0000000000000036
 30
0.0
 11
175.49999999999989
 21
30.065826248793542
 31
0.0
  0
LINE
  5
72
  8
1
 62
     7
 10
174.99999999999989
 20
30.0
 30
0.0
 11
174.99999999999989
 21
0.0
 31
0.0
  0
LINE
  5
73
  8
1
 62
     7
 10
174.49999999999989
 20
33.0
 30
0.0
 11
174.99999999999989
 21
33.0
 31
0.0
  0
LINE
  5
74
  8
1
 62
     7
 10
174.99999999999989
 20
42.0
 30
0.0
 11
174.49999999999989
 21
42.0
 31
0.0
  0
LINE
  5
75
  8
1
 62
     7
 10
174.99999999999989
 20
31.931851652578079
 30
0.0
 11
174.99999999999989
 21
42.0
 31
0.0
  0
LINE
  5
76
  8
1
 62
     7
 10
174.99999999999989
 20
30.0
 30
0.0
 11
174.49999999999989
 21
31.86602540378431
 31
0.0
  0
LINE
  5
77
  8
1
 62
     7
 10
174.99999999999989
 20
31.931851652578079
 30
0.0
 11
175.49999999999989
 21
30.065826248793542
 31
0.0
  0
LINE
  5
78
  8
1
 62
     7
 10
171.30000000000001
 20
41.5
 30
0.0
 11
173.19999999999999
 21
39.599999999999902
 31
0.0
  0
LINE
  5
79
  8
1
 62
     7
 10
171.30000000000001
 20
33.5
 30
0.0
 11
173.19999999999999
 21
35.39999999999997
 31
0.0
  0
LINE
  5
7A
  8
1
 62
     7
 10
173.19999999999999
 20
35.39999999999997
 30
0.0
 11
173.19999999999999
 21
39.599999999999902
 31
0.0
  0
LINE
  5
7B
  8
1
 62
     7
 10
173.19999999999999
 20
35.39999999999997
 30
0.0
 11
174.99999999999989
 21
35.39999999999997
 31
0.0
  0
LINE
  5
7C
  8
1
 62
     7
 10
173.19999999999999
 20
39.599999999999902
 30
0.0
 11
174.99999999999989
 21
39.599999999999902
 31
0.0
  0
LINE
  5
7D
  8
1
 62
     7
 10
171.30000000000001
 20
-34.25
 30
0.0
 11
174.49999999999989
 21
-34.25
 31
0.0
  0
LINE
  5
7E
  8
1
 62
     7
 10
171.30000000000001
 20
-25.75
 30
0.0
 11
174.99999999999989
 21
-25.75
 31
0.0
  0
LINE
  5
7F
  8
1
 62
     3
 10
186.49999999999989
 20
-30.0
 30
0.0
 11
168.30000000000001
 21
-30.0
 31
0.0
  0
LINE
  5
80
  8
1
 62
     7
 10
174.49999999999989
 20
-43.0
 30
0.0
 11
174.49999999999989
 21
-30.0
 31
0.0
  0
LINE
  5
81
  8
1
 62
     7
 10
174.99999999999989
 20
-36.963130357163323
 30
0.0
 11
174.99999999999989
 21
-22.5
 31
0.0
  0
LINE
  5
82
  8
1
 62
     7
 10
171.30000000000001
 20
-22.5
 30
0.0
 11
171.30000000000001
 21
-43.0
 31
0.0
  0
LINE
  5
83
  8
1
 62
     7
 10
174.49999999999989
 20
30.0
 30
0.0
 11
174.49999999999989
 21
35.39999999999997
 31
0.0
  0
LINE
  5
84
  8
1
 62
     7
 10
171.30000000000001
 20
43.0
 30
0.0
 11
171.30000000000001
 21
22.5
 31
0.0
  0
LINE
  5
85
  8
1
 62
     7
 10
174.49999999999989
 20
30.0
 30
0.0
 11
174.99999999999989
 21
30.0
 31
0.0
  0
LINE
  5
86
  8
1
 62
     7
 10
171.30000000000001
 20
43.0
 30
0.0
 11
174.49999999999989
 21
43.0
 31
0.0
  0
LINE
  5
87
  8
1
 62
     7
 10
174.99999999999989
 20
22.5
 30
0.0
 11
171.30000000000001
 21
22.5
 31
0.0
  0
LINE
  5
88
  8
1
 62
     7
 10
174.49999999999989
 20
-43.0
 30
0.0
 11
171.30000000000001
 21
-43.0
 31
0.0
  0
LINE
  5
89
  8
1
 62
     7
 10
171.30000000000001
 20
-22.5
 30
0.0
 11
174.99999999999989
 21
-22.5
 31
0.0
  0
LINE
  5
8A
  8
1
 62
     7
 10
175.49999999999989
 20
-25.5
 30
0.0
 11
177.49999999999989
 21
-25.5
 31
0.0
  0
LINE
  5
8B
  8
1
 62
     7
 10
177.49999999999989
 20
-34.5
 30
0.0
 11
175.49999999999989
 21
-34.5
 31
0.0
  0
LINE
  5
8C
  8
1
 62
     7
 10
177.49999999999989
 20
-25.5
 30
0.0
 11
177.49999999999989
 21
-28.0
 31
0.0
  0
LINE
  5
8D
  8
1
 62
     7
 10
184.49999999999989
 20
-28.600000000000019
 30
0.0
 11
184.49999999999989
 21
-31.400000000000091
 31
0.0
  0
LINE
  5
8E
  8
1
 62
     7
 10
177.49999999999989
 20
-32.0
 30
0.0
 11
177.49999999999989
 21
-34.5
 31
0.0
  0
LINE
  5
8F
  8
1
 62
     7
 10
175.49999999999989
 20
-32.0
 30
0.0
 11
175.49999999999989
 21
-36.963130357163323
 31
0.0
  0
LINE
  5
90
  8
1
 62
     3
 10
105.4999999999999
 20
0.0000000000000036
 30
0.0
 11
110.4999999999999
 21
0.0000000000000036
 31
0.0
  0
LINE
  5
91
  8
1
 62
     7
 10
156.09999999999991
 20
42.350000000000009
 30
0.0
 11
171.09999999999999
 21
42.350000000000009
 31
0.0
  0
LINE
  5
92
  8
1
 62
     7
 10
171.09999999999999
 20
23.100000000000001
 30
0.0
 11
156.09999999999991
 21
23.100000000000001
 31
0.0
  0
LINE
  5
93
  8
1
 62
     7
 10
171.09999999999999
 20
-42.350000000000009
 30
0.0
 11
171.09999999999999
 21
42.350000000000009
 31
0.0
  0
LINE
  5
94
  8
1
 62
     7
 10
171.09999999999999
 20
-42.350000000000009
 30
0.0
 11
156.09999999999991
 21
-42.350000000000009
 31
0.0
  0
LINE
  5
95
  8
1
 62
     7
 10
156.09999999999991
 20
-23.100000000000001
 30
0.0
 11
171.09999999999999
 21
-23.100000000000001
 31
0.0
  0
LINE
  5
96
  8
1
 62
     7
 10
159.34999999999991
 20
67.349999999999994
 30
0.0
 11
161.84999999999999
 21
67.349999999999994
 31
0.0
  0
LINE
  5
97
  8
1
 62
     7
 10
161.84999999999999
 20
67.349999999999994
 30
0.0
 11
161.84999999999999
 21
42.350000000000009
 31
0.0
  0
LINE
  5
98
  8
1
 62
     7
 10
159.34999999999991
 20
67.349999999999994
 30
0.0
 11
159.34999999999991
 21
42.350000000000009
 31
0.0
  0
LINE
  5
99
  8
1
 62
     3
 10
161.22499999999991
 20
70.350000000000009
 30
0.0
 11
161.22499999999991
 21
67.349999999999994
 31
0.0
  0
LINE
  5
9A
  8
1
 62
     3
 10
160.59999999999991
 20
67.349999999999994
 30
0.0
 11
160.59999999999991
 21
70.350000000000009
 31
0.0
  0
LINE
  5
9B
  8
1
 62
     3
 10
159.97499999999999
 20
70.350000000000009
 30
0.0
 11
159.97499999999999
 21
67.349999999999994
 31
0.0
  0
LINE
  5
9C
  8
1
 62
     3
 10
145.0
 20
0.0000000000000036
 30
0.0
 11
150.0
 21
0.0000000000000036
 31
0.0
  0
LINE
  5
9D
  8
1
 62
     7
 10
150.0
 20
22.5
 30
0.0
 11
152.09999999999991
 21
22.5
 31
0.0
  0
LINE
  5
9E
  8
1
 62
     7
 10
150.0
 20
-22.5
 30
0.0
 11
152.09999999999991
 21
-22.5
 31
0.0
  0
LINE
  5
9F
  8
1
 62
     7
 10
150.0
 20
-55.0
 30
0.0
 11
152.09999999999991
 21
-55.0
 31
0.0
  0
LINE
  5
A0
  8
1
 62
     7
 10
152.09999999999991
 20
41.0
 30
0.0
 11
152.09999999999991
 21
-55.0
 31
0.0
  0
LINE
  5
A1
  8
1
 62
     7
 10
150.0
 20
-55.0
 30
0.0
 11
150.0
 21
41.0
 31
0.0
  0
LINE
  5
A2
  8
1
 62
     7
 10
150.0
 20
41.0
 30
0.0
 11
152.09999999999991
 21
41.0
 31
0.0
  0
LINE
  5
A3
  8
1
 62
     7
 10
150.0
 20
-46.249999999999993
 30
0.0
 11
152.09999999999991
 21
-46.25
 31
0.0
  0
LINE
  5
A4
  8
1
 62
     7
 10
152.09999999999991
 20
-51.75
 30
0.0
 11
150.0
 21
-51.749999999999993
 31
0.0
  0
LINE
  5
A5
  8
1
 62
     3
 10
147.0
 20
-48.999999999999972
 30
0.0
 11
155.09999999999991
 21
-49.000000000000007
 31
0.0
  0
LINE
  5
A6
  8
1
 62
     3
 10
-4.9999999999999947
 20
0.0
 30
0.0
 11
5.0000000000000044
 21
0.0000000000000036
 31
0.0
  0
LINE
  5
A7
  8
1
 62
     3
 10
-0.0000000000000036
 20
-4.9999999999999876
 30
0.0
 11
0.0000000000000036
 21
5.0000000000000044
 31
0.0
  0
LINE
  5
A8
  8
1
 62
     7
 10
41.0
 20
36.660605559646719
 30
0.0
 11
41.0
 21
-36.660605559646719
 31
0.0
  0
LINE
  5
A9
  8
1
 62
     7
 10
36.660605559646719
 20
-41.0
 30
0.0
 11
-36.66060555964674
 21
-41.0
 31
0.0
  0
LINE
  5
AA
  8
1
 62
     7
 10
-41.0
 20
-36.660605559646719
 30
0.0
 11
-41.0
 21
36.660605559646719
 31
0.0
  0
LINE
  5
AB
  8
1
 62
     7
 10
-36.66060555964674
 20
41.0
 30
0.0
 11
36.660605559646719
 21
41.0
 31
0.0
  0
LINE
  5
AC
  8
1
 62
     3
 10
38.714096269963491
 20
38.714096269963477
 30
0.0
 11
30.582368286318179
 21
30.582368286318179
 31
0.0
  0
LINE
  5
AD
  8
1
 62
     3
 10
-38.714096269963477
 20
38.714096269963491
 30
0.0
 11
-30.582368286318179
 21
30.582368286318179
 31
0.0
  0
LINE
  5
AE
  8
1
 62
     3
 10
-38.714096269963498
 20
-38.714096269963477
 30
0.0
 11
-30.582368286318189
 21
-30.582368286318179
 31
0.0
  0
LINE
  5
AF
  8
1
 62
     3
 10
38.714096269963463
 20
-38.714096269963498
 30
0.0
 11
30.582368286318172
 21
-30.582368286318189
 31
0.0
  0
LINE
  5
B0
  8
1
 62
     7
 10
-2.499999999999996
 20
67.349999999999994
 30
0.0
 11
2.5000000000000031
 21
67.349999999999994
 31
0.0
  0
LINE
  5
B1
  8
1
 62
     7
 10
0.0000000000000036
 20
67.349999999999994
 30
0.0
 11
0.0000000000000036
 21
42.350000000000023
 31
0.0
  0
LINE
  5
B2
  8
1
 62
     7
 10
-2.499999999999996
 20
67.349999999999994
 30
0.0
 11
-2.499999999999996
 21
42.276145756206297
 31
0.0
  0
LINE
  5
B3
  8
1
 62
     3
 10
-0.6249999999999965
 20
70.350000000000009
 30
0.0
 11
-0.6249999999999965
 21
67.349999999999994
 31
0.0
  0
LINE
  5
B4
  8
1
 62
     3
 10
-1.2499999999999949
 20
67.349999999999994
 30
0.0
 11
-1.2499999999999949
 21
70.350000000000009
 31
0.0
  0
LINE
  5
B5
  8
1
 62
     3
 10
-1.8749999999999949
 20
70.350000000000009
 30
0.0
 11
-1.8749999999999949
 21
67.349999999999994
 31
0.0
  0
LINE
  5
B6
  8
1
 62
     3
 10
0.6250000000000036
 20
67.349999999999994
 30
0.0
 11
0.6250000000000036
 21
70.350000000000009
 31
0.0
  0
LINE
  5
B7
  8
1
 62
     3
 10
1.250000000000004
 20
70.350000000000009
 30
0.0
 11
1.250000000000004
 21
67.349999999999994
 31
0.0
  0
LINE
  5
B8
  8
1
 62
     3
 10
1.875000000000004
 20
67.349999999999994
 30
0.0
 11
1.875000000000004
 21
70.350000000000009
 31
0.0
  0
LINE
  5
B9
  8
1
 62
     7
 10
2.5000000000000031
 20
42.276145756206297
 30
0.0
 11
2.5000000000000031
 21
67.349999999999994
 31
0.0
  0
LINE
  5
BA
  8
1
 62
     3
 10
245.0
 20
0.0
 30
0.0
 11
255.0
 21
0.0000000000000036
 31
0.0
  0
LINE
  5
BB
  8
1
 62
     3
 10
250.0
 20
-4.9999999999999876
 30
0.0
 11
250.0
 21
5.0000000000000044
 31
0.0
  0
LINE
  5
BC
  8
1
 62
     7
 10
291.0
 20
36.660605559646719
 30
0.0
 11
291.0
 21
12.96148139681571
 31
0.0
  0
LINE
  5
BD
  8
1
 62
     7
 10
286.66060555964663
 20
-41.0
 30
0.0
 11
262.9614813968156
 21
-41.0
 31
0.0
  0
LINE
  5
BE
  8
1
 62
     7
 10
209.0
 20
-36.660605559646719
 30
0.0
 11
209.0
 21
-12.961481396815691
 31
0.0
  0
LINE
  5
BF
  8
1
 62
     7
 10
213.33939444035329
 20
41.0
 30
0.0
 11
237.03851860318429
 21
41.0
 31
0.0
  0
LINE
  5
C0
  8
1
 62
     3
 10
288.71409626996342
 20
38.714096269963477
 30
0.0
 11
280.58236828631811
 21
30.582368286318179
 31
0.0
  0
LINE
  5
C1
  8
1
 62
     3
 10
211.28590373003641
 20
38.714096269963491
 30
0.0
 11
219.4176317136818
 21
30.582368286318179
 31
0.0
  0
LINE
  5
C2
  8
1
 62
     3
 10
211.28590373003641
 20
-38.714096269963477
 30
0.0
 11
219.4176317136818
 21
-30.582368286318179
 31
0.0
  0
LINE
  5
C3
  8
1
 62
     3
 10
288.71409626996342
 20
-38.714096269963498
 30
0.0
 11
280.58236828631811
 21
-30.582368286318189
 31
0.0
  0
LINE
  5
C4
  8
1
 62
     7
 10
247.5
 20
67.349999999999994
 30
0.0
 11
252.49999999999989
 21
67.349999999999994
 31
0.0
  0
LINE
  5
C5
  8
1
 62
     7
 10
250.0
 20
67.349999999999994
 30
0.0
 11
250.0
 21
43.0
 31
0.0
  0
LINE
  5
C6
  8
1
 62
     7
 10
247.5
 20
67.349999999999994
 30
0.0
 11
247.5
 21
42.927264063762543
 31
0.0
  0
LINE
  5
C7
  8
1
 62
     3
 10
249.37499999999989
 20
70.350000000000009
 30
0.0
 11
249.37499999999989
 21
67.349999999999994
 31
0.0
  0
LINE
  5
C8
  8
1
 62
     3
 10
248.75
 20
67.349999999999994
 30
0.0
 11
248.75
 21
70.350000000000009
 31
0.0
  0
LINE
  5
C9
  8
1
 62
     3
 10
248.125
 20
70.350000000000009
 30
0.0
 11
248.125
 21
67.349999999999994
 31
0.0
  0
LINE
  5
CA
  8
1
 62
     3
 10
250.625
 20
67.349999999999994
 30
0.0
 11
250.625
 21
70.350000000000009
 31
0.0
  0
LINE
  5
CB
  8
1
 62
     3
 10
251.25
 20
70.350000000000009
 30
0.0
 11
251.25
 21
67.349999999999994
 31
0.0
  0
LINE
  5
CC
  8
1
 62
     3
 10
251.875
 20
67.349999999999994
 30
0.0
 11
251.875
 21
70.350000000000009
 31
0.0
  0
LINE
  5
CD
  8
1
 62
     7
 10
252.49999999999989
 20
42.927264063762543
 30
0.0
 11
252.49999999999989
 21
67.349999999999994
 31
0.0
  0
LINE
  5
CE
  8
1
 62
     7
 10
262.9614813968156
 20
41.0
 30
0.0
 11
286.66060555964663
 21
41.0
 31
0.0
  0
LINE
  5
CF
  8
1
 62
     7
 10
291.0
 20
-12.96148139681571
 30
0.0
 11
291.0
 21
-36.660605559646719
 31
0.0
  0
LINE
  5
D0
  8
1
 62
     7
 10
237.03851860318429
 20
-41.0
 30
0.0
 11
213.33939444035329
 21
-41.0
 31
0.0
  0
LINE
  5
D1
  8
1
 62
     7
 10
209.0
 20
12.96148139681571
 30
0.0
 11
209.0
 21
36.660605559646719
 31
0.0
  0
LINE
  5
D2
  8
1
 62
     3
 10
269.48557158514978
 20
11.249999999999989
 30
0.0
 11
282.47595264191642
 21
18.749999999999989
 31
0.0
  0
LINE
  5
D3
  8
1
 62
     3
 10
217.52404735808349
 20
18.749999999999989
 30
0.0
 11
230.51442841484999
 21
11.249999999999989
 31
0.0
  0
LINE
  5
D4
  8
1
 62
     3
 10
175.49999999999989
 20
0.0000000000000036
 30
0.0
 11
180.49999999999989
 21
0.0000000000000036
 31
0.0
  0
LINE
  5
D5
  8
1
 62
     7
 10
86.099999999999966
 20
42.350000000000009
 30
0.0
 11
101.09999999999989
 21
42.350000000000009
 31
0.0
  0
LINE
  5
D6
  8
1
 62
     7
 10
101.09999999999989
 20
-42.350000000000009
 30
0.0
 11
101.09999999999989
 21
42.350000000000009
 31
0.0
  0
LINE
  5
D7
  8
1
 62
     7
 10
101.09999999999989
 20
-42.350000000000009
 30
0.0
 11
86.099999999999966
 21
-42.350000000000009
 31
0.0
  0
LINE
  5
D8
  8
1
 62
     7
 10
89.34999999999998
 20
67.349999999999994
 30
0.0
 11
91.849999999999994
 21
67.349999999999994
 31
0.0
  0
LINE
  5
D9
  8
1
 62
     7
 10
91.849999999999994
 20
67.349999999999994
 30
0.0
 11
91.849999999999994
 21
42.350000000000009
 31
0.0
  0
LINE
  5
DA
  8
1
 62
     7
 10
89.34999999999998
 20
67.349999999999994
 30
0.0
 11
89.34999999999998
 21
42.350000000000009
 31
0.0
  0
LINE
  5
DB
  8
1
 62
     3
 10
91.224999999999994
 20
70.350000000000009
 30
0.0
 11
91.224999999999994
 21
67.349999999999994
 31
0.0
  0
LINE
  5
DC
  8
1
 62
     3
 10
90.599999999999994
 20
67.349999999999994
 30
0.0
 11
90.599999999999994
 21
70.350000000000009
 31
0.0
  0
LINE
  5
DD
  8
1
 62
     3
 10
89.97499999999998
 20
70.350000000000009
 30
0.0
 11
89.97499999999998
 21
67.349999999999994
 31
0.0
  0
LINE
  5
DE
  8
1
 62
     3
 10
75.0
 20
0.0000000000000036
 30
0.0
 11
80.0
 21
0.0000000000000036
 31
0.0
  0
LINE
  5
DF
  8
1
 62
     7
 10
80.0
 20
-55.0
 30
0.0
 11
82.099999999999994
 21
-55.0
 31
0.0
  0
LINE
  5
E0
  8
1
 62
     7
 10
82.099999999999994
 20
41.0
 30
0.0
 11
82.099999999999994
 21
-55.0
 31
0.0
  0
LINE
  5
E1
  8
1
 62
     7
 10
80.0
 20
-55.0
 30
0.0
 11
80.0
 21
41.0
 31
0.0
  0
LINE
  5
E2
  8
1
 62
     7
 10
80.0
 20
41.0
 30
0.0
 11
82.099999999999994
 21
41.0
 31
0.0
  0
LINE
  5
E3
  8
1
 62
     3
 10
77.0
 20
-48.999999999999972
 30
0.0
 11
85.09999999999998
 21
-49.000000000000007
 31
0.0
  0
LINE
  5
E4
  8
1
 62
     3
 10
250.0
 20
-37.5
 30
0.0
 11
250.0
 21
-22.500000000000071
 31
0.0
  0
ARC
  5
E5
  8
1
 62
     7
 10
175.21212774770109
 20
-30.196285832627261
 30
0.0
 40
4.1000000000001737
 50
105.7387025673122
 51
147.60999677183349
  0
ARC
  5
E6
  8
1
 62
     7
 10
175.21212774770109
 20
-29.803714167372849
 30
0.0
 40
4.1000000000001631
 50
212.39000322816511
 51
254.26129743268729
  0
ARC
  5
E7
  8
1
 62
     7
 10
250.0
 20
0.0000000000000036
 30
0.0
 40
29.999999999999979
 50
49.374647208203612
 51
130.6253527917963
  0
ARC
  5
E8
  8
1
 62
     7
 10
250.0
 20
0.0000000000000036
 30
0.0
 40
30.00000000000005
 50
169.37464720820361
 51
250.6253527917963
  0
ARC
  5
E9
  8
1
 62
     7
 10
250.0
 20
0.0000000000000036
 30
0.0
 40
29.99999999999989
 50
289.37464720820299
 51
10.625352791796001
  0
ARC
  5
EA
  8
1
 62
     7
 10
0.0
 20
0.0
 30
0.0
 40
55.0
 50
41.801844193141093
 51
48.198155806858928
  0
ARC
  5
EB
  8
1
 62
     7
 10
0.0
 20
0.0
 30
0.0
 40
55.0
 50
311.80184419314111
 51
318.19815580685878
  0
ARC
  5
EC
  8
1
 62
     7
 10
0.0
 20
0.0
 30
0.0
 40
55.0
 50
221.80184419314111
 51
228.19815580685901
  0
ARC
  5
ED
  8
1
 62
     7
 10
0.0
 20
0.0
 30
0.0
 40
55.0
 50
131.80184419314111
 51
138.19815580685889
  0
ARC
  5
EE
  8
1
 62
     3
 10
0.0
 20
0.0
 30
0.0
 40
49.000000000000007
 50
37.5
 51
52.5
  0
ARC
  5
EF
  8
1
 62
     3
 10
0.0
 20
0.0
 30
0.0
 40
49.000000000000007
 50
127.5
 51
142.5
  0
ARC
  5
F0
  8
1
 62
     3
 10
0.0
 20
0.0
 30
0.0
 40
49.000000000000021
 50
217.5
 51
232.5
  0
ARC
  5
F1
  8
1
 62
     3
 10
0.0
 20
0.0
 30
0.0
 40
49.000000000000007
 50
307.49999999999977
 51
322.5
  0
ARC
  5
F2
  8
1
 62
     7
 10
250.0
 20
0.0000000000000036
 30
0.0
 40
55.0
 50
41.801844193141072
 51
48.198155806858949
  0
ARC
  5
F3
  8
1
 62
     7
 10
250.0
 20
0.0000000000000036
 30
0.0
 40
54.999999999999979
 50
311.80184419314111
 51
318.19815580685878
  0
ARC
  5
F4
  8
1
 62
     7
 10
250.0
 20
0.0000000000000036
 30
0.0
 40
55.0
 50
221.80184419314111
 51
228.19815580685901
  0
ARC
  5
F5
  8
1
 62
     7
 10
250.0
 20
0.0000000000000036
 30
0.0
 40
55.0
 50
131.80184419314111
 51
138.19815580685889
  0
ARC
  5
F6
  8
1
 62
     3
 10
250.0
 20
0.0000000000000036
 30
0.0
 40
49.000000000000007
 50
37.5
 51
52.5
  0
ARC
  5
F7
  8
1
 62
     3
 10
250.0
 20
0.0000000000000036
 30
0.0
 40
48.999999999999993
 50
127.5
 51
142.5
  0
ARC
  5
F8
  8
1
 62
     3
 10
250.0
 20
0.0000000000000036
 30
0.0
 40
48.999999999999993
 50
217.5
 51
232.5
  0
ARC
  5
F9
  8
1
 62
     3
 10
250.0
 20
0.0000000000000036
 30
0.0
 40
49.000000000000007
 50
307.5
 51
322.5
  0
ARC
  5
FA
  8
1
 62
     7
 10
0.0
 20
0.0
 30
0.0
 40
42.999999999999993
 50
342.45649952730491
 51
17.543500472694969
  0
ARC
  5
FB
  8
1
 62
     7
 10
0.0
 20
0.0
 30
0.0
 40
43.0
 50
72.456499527305056
 51
86.666970506057666
  0
ARC
  5
FC
  8
1
 62
     7
 10
0.0
 20
0.0
 30
0.0
 40
43.0
 50
93.33302949394232
 51
107.5435004726948
  0
ARC
  5
FD
  8
1
 62
     7
 10
0.0
 20
0.0
 30
0.0
 40
42.350000000000009
 50
75.494313602102523
 51
104.50568639789751
  0
ARC
  5
FE
  8
1
 62
     7
 10
0.0
 20
0.0
 30
0.0
 40
42.350000000000001
 50
345.49431360210252
 51
14.505686397897501
  0
ARC
  5
FF
  8
1
 62
     7
 10
0.0
 20
0.0
 30
0.0
 40
42.350000000000001
 50
255.49431360210249
 51
284.50568639789742
  0
ARC
  5
100
  8
1
 62
     7
 10
0.0
 20
0.0
 30
0.0
 40
42.34999999999998
 50
165.49431360210249
 51
194.50568639789739
  0
ARC
  5
101
  8
1
 62
     7
 10
0.0
 20
0.0
 30
0.0
 40
42.999999999999993
 50
252.45649952730511
 51
287.54350047269497
  0
ARC
  5
102
  8
1
 62
     7
 10
0.0
 20
0.0
 30
0.0
 40
42.999999999999993
 50
162.456499527305
 51
197.54350047269489
  0
ARC
  5
103
  8
1
 62
     7
 10
250.0
 20
0.0000000000000036
 30
0.0
 40
41.999999999999957
 50
299.99999999999977
 51
359.99999999999977
  0
ARC
  5
104
  8
1
 62
     7
 10
260.99999999999989
 20
19.052558883257621
 30
0.0
 40
20.000000000000089
 50
8.4898117331121856
 51
60.000000000000021
  0
ARC
  5
105
  8
1
 62
     7
 10
290.6712639305436
 20
23.48156517858148
 30
0.0
 40
9.9999999999999574
 50
188.48981173311199
 51
231.5101882668873
  0
ARC
  5
106
  8
1
 62
     7
 10
271.99999999999977
 20
-0.0000000000001243
 30
0.0
 40
20.00000000000011
 50
0.0
 51
51.510188266887013
  0
ARC
  5
107
  8
1
 62
     7
 10
228.0
 20
-0.0000000000000107
 30
0.0
 40
19.999999999999929
 50
128.4898117331123
 51
180.0
  0
ARC
  5
108
  8
1
 62
     7
 10
260.99999999999989
 20
-19.052558883257689
 30
0.0
 40
19.99999999999989
 50
248.48981173311259
 51
300.00000000000011
  0
ARC
  5
109
  8
1
 62
     7
 10
209.32873606945651
 20
23.481565178581711
 30
0.0
 40
9.9999999999999911
 50
308.48981173311222
 51
351.51018826688721
  0
ARC
  5
10A
  8
1
 62
     7
 10
249.9999999999998
 20
-46.963130357163337
 30
0.0
 40
10.00000000000005
 50
68.489811733111836
 51
111.5101882668865
  0
ARC
  5
10B
  8
1
 62
     7
 10
239.00000000000011
 20
19.052558883257621
 30
0.0
 40
20.00000000000006
 50
120.0000000000002
 51
171.51018826688741
  0
ARC
  5
10C
  8
1
 62
     7
 10
239.0
 20
-19.052558883257589
 30
0.0
 40
20.00000000000006
 50
240.0
 51
291.51018826688733
  0
ARC
  5
10D
  8
1
 62
     7
 10
250.0
 20
0.0000000000000036
 30
0.0
 40
41.999999999999929
 50
60.000000000000099
 51
119.9999999999999
  0
ARC
  5
10E
  8
1
 62
     7
 10
250.0
 20
0.0000000000000036
 30
0.0
 40
42.0
 50
180.0
 51
239.99999999999989
  0
ARC
  5
10F
  8
1
 62
     7
 10
259.72022002003598
 20
20.84507910184286
 30
0.0
 40
9.9999999999999662
 50
326.88453331834859
 51
64.999999999999915
  0
ARC
  5
110
  8
1
 62
     7
 10
250.0
 20
0.0000000000000036
 30
0.0
 40
23.750000000000089
 50
19.634993758230031
 51
40.365006241769812
  0
ARC
  5
111
  8
1
 62
     7
 10
272.9124780561101
 20
-2.0045820831962931
 30
0.0
 40
10.000000000000149
 50
355.0
 51
93.115466681651455
  0
ARC
  5
112
  8
1
 62
     7
 10
250.0
 20
0.0000000000000036
 30
0.0
 40
32.999999999999957
 50
305.0
 51
354.99999999999972
  0
ARC
  5
113
  8
1
 62
     7
 10
227.08752194388981
 20
-2.0045820831961789
 30
0.0
 40
10.00000000000003
 50
86.884533318348105
 51
184.9999999999998
  0
ARC
  5
114
  8
1
 62
     7
 10
250.0
 20
0.0000000000000036
 30
0.0
 40
23.750000000000028
 50
139.63499375823019
 51
160.36500624176961
  0
ARC
  5
115
  8
1
 62
     7
 10
263.19225803607401
 20
-18.840497018646779
 30
0.0
 40
9.9999999999999538
 50
206.8845333183483
 51
305.00000000000011
  0
ARC
  5
116
  8
1
 62
     7
 10
250.0
 20
0.0000000000000036
 30
0.0
 40
23.750000000000028
 50
259.63499375823011
 51
280.36500624176961
  0
ARC
  5
117
  8
1
 62
     7
 10
240.27977997996391
 20
20.84507910184286
 30
0.0
 40
10.000000000000069
 50
114.9999999999992
 51
213.1154666816515
  0
ARC
  5
118
  8
1
 62
     7
 10
236.80774196392591
 20
-18.84049701864673
 30
0.0
 40
10.00000000000011
 50
234.9999999999994
 51
333.11546668165158
  0
ARC
  5
119
  8
1
 62
     7
 10
250.0
 20
0.0000000000000036
 30
0.0
 40
32.999999999999879
 50
65.000000000000099
 51
114.9999999999996
  0
ARC
  5
11A
  8
1
 62
     7
 10
250.0
 20
0.0000000000000036
 30
0.0
 40
33.0
 50
185.0
 51
234.9999999999996
  0
ARC
  5
11B
  8
1
 62
     3
 10
250.0
 20
0.0000000000000036
 30
0.0
 40
30.000000000000011
 50
255.0
 51
285.0
  0
ARC
  5
11C
  8
1
 62
     3
 10
250.0
 20
0.0000000000000036
 30
0.0
 40
30.00000000000005
 50
15.00000000000003
 51
44.999999999999908
  0
ARC
  5
11D
  8
1
 62
     3
 10
250.0
 20
0.0000000000000036
 30
0.0
 40
30.000000000000011
 50
134.99999999999989
 51
164.99999999999989
  0
CIRCLE
  5
11E
  8
1
 62
     7
 10
34.648232278140839
 20
34.648232278140817
 30
0.0
 40
2.7499999999999791
  0
CIRCLE
  5
11F
  8
1
 62
     7
 10
-34.648232278140817
 20
34.648232278140839
 30
0.0
 40
2.7499999999999791
  0
CIRCLE
  5
120
  8
1
 62
     7
 10
-34.648232278140839
 20
-34.648232278140817
 30
0.0
 40
2.75
  0
CIRCLE
  5
121
  8
1
 62
     7
 10
34.64823227814081
 20
-34.648232278140839
 30
0.0
 40
2.75
  0
CIRCLE
  5
122
  8
1
 62
     7
 10
250.0
 20
0.0000000000000036
 30
0.0
 40
43.0
  0
CIRCLE
  5
123
  8
1
 62
     7
 10
284.64823227814082
 20
34.648232278140817
 30
0.0
 40
2.75
  0
CIRCLE
  5
124
  8
1
 62
     7
 10
215.35176772185909
 20
34.648232278140839
 30
0.0
 40
2.7499999999999791
  0
CIRCLE
  5
125
  8
1
 62
     7
 10
215.35176772185909
 20
-34.648232278140817
 30
0.0
 40
2.75
  0
CIRCLE
  5
126
  8
1
 62
     7
 10
284.64823227814082
 20
-34.648232278140839
 30
0.0
 40
2.75
  0
CIRCLE
  5
127
  8
1
 62
     7
 10
0.0
 20
0.0
 30
0.0
 40
22.5
  0
CIRCLE
  5
128
  8
1
 62
     7
 10
282.47595264191631
 20
-18.750000000000011
 30
0.0
 40
3.6000000000000729
  0
CIRCLE
  5
129
  8
1
 62
     7
 10
217.52404735808349
 20
-18.750000000000011
 30
0.0
 40
3.6000000000000001
  0
CIRCLE
  5
12A
  8
1
 62
     7
 10
250.0
 20
37.499999999999993
 30
0.0
 40
3.599999999999993
  0
CIRCLE
  5
12B
  8
1
 62
     7
 10
224.01923788646681
 20
14.999999999999989
 30
0.0
 40
1.9999999999999141
  0
CIRCLE
  5
12C
  8
1
 62
     3
 10
224.01923788646681
 20
14.999999999999989
 30
0.0
 40
1.4000000000000139
  0
CIRCLE
  5
12D
  8
1
 62
     7
 10
275.9807621135331
 20
14.999999999999989
 30
0.0
 40
2.0000000000000191
  0
CIRCLE
  5
12E
  8
1
 62
     3
 10
275.9807621135331
 20
14.999999999999989
 30
0.0
 40
1.400000000000057
  0
CIRCLE
  5
12F
  8
1
 62
     7
 10
250.0
 20
-30.000000000000011
 30
0.0
 40
2.0
  0
CIRCLE
  5
130
  8
1
 62
     3
 10
250.0
 20
-30.000000000000011
 30
0.0
 40
1.400000000000005
  0
CIRCLE
  5
131
  8
1
 62
     7
 10
250.0
 20
-30.000000000000011
 30
0.0
 40
4.5
  0
CIRCLE
  5
132
  8
1
 62
     7
 10
275.9807621135331
 20
14.999999999999989
 30
0.0
 40
4.4999999999999281
  0
CIRCLE
  5
133
  8
1
 62
     7
 10
224.01923788646681
 20
14.999999999999989
 30
0.0
 40
4.5000000000000213
  0
CIRCLE
  5
134
  8
1
 62
     7
 10
250.0
 20
0.0000000000000036
 30
0.0
 40
22.5
  0
ARC
  5
135
  8
1
 62
     7
 10
106.59999999999999
 20
40.799999999999841
 30
0.0
 40
0.2999999999999119
 50
0.0
 51
90.0
  0
ARC
  5
136
  8
1
 62
     7
 10
106.59999999999999
 20
34.199999999999932
 30
0.0
 40
0.2999999999999545
 50
270.0
 51
0.0
  0
ARC
  5
137
  8
1
 62
     7
 10
105.8
 20
34.199999999999932
 30
0.0
 40
0.3000000000000966
 50
180.0
 51
270.0
  0
ARC
  5
138
  8
1
 62
     7
 10
105.8
 20
40.799999999999841
 30
0.0
 40
0.3000000000000682
 50
90.0
 51
180.0
  0
ARC
  5
139
  8
1
 62
     7
 10
175.80000000000001
 20
40.799999999999841
 30
0.0
 40
0.3000000000000682
 50
90.0
 51
180.0
  0
ARC
  5
13A
  8
1
 62
     7
 10
175.80000000000001
 20
34.199999999999932
 30
0.0
 40
0.3000000000001251
 50
180.0
 51
270.0
  0
ARC
  5
13B
  8
1
 62
     7
 10
176.59999999999999
 20
34.199999999999932
 30
0.0
 40
0.2999999999999545
 50
270.0
 51
0.0
  0
ARC
  5
13C
  8
1
 62
     7
 10
176.59999999999999
 20
40.799999999999841
 30
0.0
 40
0.2999999999998977
 50
0.0
 51
90.0
  0
ARC
  5
13D
  8
1
 62
     7
 10
156.09999999999991
 20
27.100000000000001
 30
0.0
 40
4.0
 50
180.0
 51
270.0
  0
ARC
  5
13E
  8
1
 62
     7
 10
156.09999999999991
 20
38.350000000000001
 30
0.0
 40
4.0
 50
90.0
 51
180.0
  0
ARC
  5
13F
  8
1
 62
     7
 10
156.09999999999991
 20
-27.100000000000001
 30
0.0
 40
4.0
 50
90.0
 51
180.0
  0
ARC
  5
140
  8
1
 62
     7
 10
156.09999999999991
 20
-38.350000000000001
 30
0.0
 40
4.0
 50
180.0
 51
270.0
  0
ARC
  5
141
  8
1
 62
     7
 10
86.099999999999966
 20
38.350000000000001
 30
0.0
 40
4.0
 50
90.0
 51
180.0
  0
ARC
  5
142
  8
1
 62
     7
 10
86.099999999999966
 20
-38.350000000000001
 30
0.0
 40
4.0
 50
180.0
 51
270.0
  0
TEXT
  5
143
  8
1
 62
     7
 10
0.0
 20
107.2
 30
0.0
 40
4.0
  1
VBE 1.2
 41
0.9
  7
SIMPLEX
  0
ENDSEC
  0
EOF
